  0
SECTION
  2
HEADER
  9
$ACADVER
  1
AC1009
  9
$INSBASE
 10
221.5465774556764984
 20
-20.0670289905687795
 30
0.0
  9
$EXTMIN
 10
220.6417165500050999
 20
-20.0719576516069296
 30
0.0
  9
$EXTMAX
 10
222.8379246966765947
 20
-9.9027496645843911
 30
0.0
  9
$LIMMIN
 10
0.0
 20
0.0
  9
$LIMMAX
 10
11.6929133858000007
 20
8.2677165353999982
  9
$ORTHOMODE
 70
     0
  9
$REGENMODE
 70
     1
  9
$FILLMODE
 70
     1
  9
$QTEXTMODE
 70
     0
  9
$MIRRTEXT
 70
     0
  9
$DRAGMODE
 70
     2
  9
$LTSCALE
 40
0.6431102362
  9
$OSMODE
 70
  3839
  9
$ATTMODE
 70
     1
  9
$TEXTSIZE
 40
0.2
  9
$TRACEWID
 40
0.05
  9
$TEXTSTYLE
  7
STANDARD
  9
$CLAYER
  8
0
  9
$CELTYPE
  6
BYLAYER
  9
$CECOLOR
 62
   256
  9
$DIMSCALE
 40
1.0
  9
$DIMASZ
 40
0.1875
  9
$DIMEXO
 40
0.0625
  9
$DIMDLI
 40
0.4443307087
  9
$DIMRND
 40
0.0
  9
$DIMDLE
 40
0.0
  9
$DIMEXE
 40
0.125
  9
$DIMTP
 40
0.01
  9
$DIMTM
 40
0.01
  9
$DIMTXT
 40
1.0
  9
$DIMCEN
 40
0.1052362205
  9
$DIMTSZ
 40
0.0
  9
$DIMTOL
 70
     1
  9
$DIMLIM
 70
     0
  9
$DIMTIH
 70
     1
  9
$DIMTOH
 70
     1
  9
$DIMSE1
 70
     0
  9
$DIMSE2
 70
     0
  9
$DIMTAD
 70
     0
  9
$DIMZIN
 70
     0
  9
$DIMBLK
  1

  9
$DIMASO
 70
     1
  9
$DIMSHO
 70
     1
  9
$DIMPOST
  1
\X
  9
$DIMAPOST
  1

  9
$DIMALT
 70
     1
  9
$DIMALTD
 70
     2
  9
$DIMALTF
 40
25.3999999999999986
  9
$DIMLFAC
 40
1.0
  9
$DIMTOFL
 70
     0
  9
$DIMTVP
 40
0.0
  9
$DIMTIX
 70
     0
  9
$DIMSOXD
 70
     0
  9
$DIMSAH
 70
     0
  9
$DIMBLK1
  1

  9
$DIMBLK2
  1

  9
$DIMSTYLE
  2
STANDARD
  9
$DIMCLRD
 70
     0
  9
$DIMCLRE
 70
     0
  9
$DIMCLRT
 70
     0
  9
$DIMTFAC
 40
1.0
  9
$DIMGAP
 40
0.09
  9
$LUNITS
 70
     2
  9
$LUPREC
 70
     4
  9
$SKETCHINC
 40
0.1
  9
$FILLETRAD
 40
0.0
  9
$AUNITS
 70
     0
  9
$AUPREC
 70
     0
  9
$MENU
  1
.
  9
$ELEVATION
 40
0.0
  9
$PELEVATION
 40
0.0
  9
$THICKNESS
 40
0.0
  9
$LIMCHECK
 70
     0
  9
$BLIPMODE
 70
     0
  9
$CHAMFERA
 40
0.0
  9
$CHAMFERB
 40
0.0
  9
$SKPOLY
 70
     0
  9
$TDCREATE
 40
2458172.4620254631154239
  9
$TDUPDATE
 40
2459055.5248958338052034
  9
$TDINDWG
 40
0.0967304745
  9
$TDUSRTIMER
 40
0.0967304745
  9
$USRTIMER
 70
     1
  9
$ANGBASE
 50
0.0
  9
$ANGDIR
 70
     0
  9
$PDMODE
 70
     0
  9
$PDSIZE
 40
0.3125
  9
$PLINEWID
 40
0.0
  9
$COORDS
 70
     1
  9
$SPLFRAME
 70
     0
  9
$SPLINETYPE
 70
     6
  9
$SPLINESEGS
 70
     8
  9
$ATTDIA
 70
     1
  9
$ATTREQ
 70
     1
  9
$HANDLING
 70
     1
  9
$HANDSEED
  5
3B6E
  9
$SURFTAB1
 70
     6
  9
$SURFTAB2
 70
     6
  9
$SURFTYPE
 70
     6
  9
$SURFU
 70
     6
  9
$SURFV
 70
     6
  9
$UCSNAME
  2

  9
$UCSORG
 10
0.0
 20
0.0
 30
0.0
  9
$UCSXDIR
 10
1.0
 20
0.0
 30
0.0
  9
$UCSYDIR
 10
0.0
 20
1.0
 30
0.0
  9
$PUCSNAME
  2

  9
$PUCSORG
 10
0.0
 20
0.0
 30
0.0
  9
$PUCSXDIR
 10
1.0
 20
0.0
 30
0.0
  9
$PUCSYDIR
 10
0.0
 20
1.0
 30
0.0
  9
$USERI1
 70
     0
  9
$USERI2
 70
     0
  9
$USERI3
 70
     0
  9
$USERI4
 70
     0
  9
$USERI5
 70
     0
  9
$USERR1
 40
0.0
  9
$USERR2
 40
0.0
  9
$USERR3
 40
0.0
  9
$USERR4
 40
0.0
  9
$USERR5
 40
0.0
  9
$WORLDVIEW
 70
     1
  9
$SHADEDGE
 70
     3
  9
$SHADEDIF
 70
    70
  9
$TILEMODE
 70
     1
  9
$MAXACTVP
 70
    64
  9
$PLIMCHECK
 70
     0
  9
$PEXTMIN
 10
1.0000000000000000E+20
 20
1.0000000000000000E+20
 30
1.0000000000000000E+20
  9
$PEXTMAX
 10
-1.0000000000000000E+20
 20
-1.0000000000000000E+20
 30
-1.0000000000000000E+20
  9
$PLIMMIN
 10
0.0
 20
0.0
  9
$PLIMMAX
 10
12.0
 20
9.0
  9
$UNITMODE
 70
     0
  9
$VISRETAIN
 70
     1
  9
$PLINEGEN
 70
     0
  9
$PSLTSCALE
 70
     1
  0
ENDSEC
  0
SECTION
  2
TABLES
  0
TABLE
  2
VPORT
 70
     1
  0
VPORT
  2
*ACTIVE
 70
     0
 10
0.0
 20
0.0
 11
1.0
 21
1.0
 12
0.0
 22
0.0
 13
0.0
 23
0.0
 14
1.0
 24
1.0
 15
0.0
 25
0.0
 16
0.0
 26
0.0
 36
43.1908884240452906
 17
221.7396011352539063
 27
-14.9873538334328593
 37
0.0
 40
10.4035630431419595
 41
3.314341846758349
 42
50.0
 43
0.0
 44
0.0
 50
0.0
 51
0.0
 71
     0
 72
   100
 73
     1
 74
     1
 75
     0
 76
     0
 77
     0
 78
     0
  0
ENDTAB
  0
TABLE
  2
LTYPE
 70
     2
  0
LTYPE
  2
CONTINUOUS
 70
     0
  3
Solid line
 72
    65
 73
     0
 40
0.0
  0
LTYPE
  2
PHANTOM2
 70
     0
  3
___ _ _ ___ _ _ ___ _ _ ___ _ _
 72
    65
 73
     6
 40
1.25
 49
0.625
 49
-0.125
 49
0.125
 49
-0.125
 49
0.125
 49
-0.125
  0
ENDTAB
  0
TABLE
  2
LAYER
 70
     2
  0
LAYER
  2
0
 70
     0
 62
   255
  6
CONTINUOUS
  0
LAYER
  2
DEFPOINTS
 70
     0
 62
     7
  6
CONTINUOUS
  0
ENDTAB
  0
TABLE
  2
STYLE
 70
     1
  0
STYLE
  2
STANDARD
 70
     0
 40
0.0
 41
0.8
 50
0.0
 71
     0
 42
0.2
  3
txt
  4

  0
ENDTAB
  0
TABLE
  2
VIEW
 70
     0
  0
ENDTAB
  0
TABLE
  2
UCS
 70
     0
  0
ENDTAB
  0
TABLE
  2
APPID
 70
    10
  0
APPID
  2
ACAD
 70
     0
  0
APPID
  2
ACAD_MLEADERVER
 70
     0
  0
APPID
  2
ACAD_EXEMPT_FROM_CAD_STANDARDS
 70
     0
  0
APPID
  2
ACAD_DSTYLE_DIMJAG
 70
     0
  0
APPID
  2
ACAD_DSTYLE_DIMTALN
 70
     0
  0
APPID
  2
ACAD_NAV_VCDISPLAY
 70
     0
  0
APPID
  2
ACAECLAYERSTANDARD
 70
     0
  0
APPID
  2
ACCMTRANSPARENCY
 70
     0
  0
APPID
  2
ACDBATTR
 70
     0
  0
APPID
  2
ACADANNOTATIVE
 70
     0
  0
ENDTAB
  0
TABLE
  2
DIMSTYLE
 70
     2
  0
DIMSTYLE
  2
STANDARD
 70
     0
  3

  4

  5

  6

  7

 40
1.0
 41
0.1875
 42
0.0625
 43
0.38
 44
0.125
 45
0.0
 46
0.0
 47
0.01
 48
0.01
140
0.15625
141
0.09
142
0.0
143
25.3999999999999986
144
1.0
145
0.0
146
1.0
147
0.09
 71
     1
 72
     0
 73
     1
 74
     1
 75
     0
 76
     0
 77
     0
 78
     4
170
     0
171
     2
172
     0
173
     0
174
     0
175
     0
176
     0
177
     0
178
     0
  0
DIMSTYLE
  2
ANNOTATIVE
 70
     0
  3

  4

  5

  6

  7

 40
0.0
 41
0.18
 42
0.0625
 43
0.38
 44
0.18
 45
0.0
 46
0.0
 47
0.0
 48
0.0
140
0.18
141
0.09
142
0.0
143
25.3999999999999986
144
1.0
145
0.0
146
1.0
147
0.09
 71
     0
 72
     0
 73
     1
 74
     1
 75
     0
 76
     0
 77
     0
 78
     0
170
     0
171
     2
172
     0
173
     0
174
     0
175
     0
176
     0
177
     0
178
     0
  0
ENDTAB
  0
ENDSEC
  0
SECTION
  2
BLOCKS
  0
BLOCK
  8
0
  2
$MODEL_SPACE
 70
     0
 10
0.0
 20
0.0
 30
0.0
  3
$MODEL_SPACE
  1

  0
ENDBLK
  5
21
  8
0
  0
BLOCK
 67
     1
  8
0
  2
$PAPER_SPACE
 70
     0
 10
0.0
 20
0.0
 30
0.0
  3
$PAPER_SPACE
  1

  0
ENDBLK
  5
1D
 67
     1
  8
0
  0
BLOCK
  8
0
  2
_FILLED
 70
     0
 10
0.0
 20
0.0
 30
0.0
  3
_FILLED
  1

  0
SOLID
  5
2F2B
  8
0
  6
BYBLOCK
 62
     0
 10
0.0
 20
0.0
 30
0.0
 11
-1.0
 21
0.1666666667
 31
0.0
 12
-1.0
 22
-0.1666666667
 32
0.0
 13
-1.0
 23
-0.1666666667
 33
0.0
  0
ENDBLK
  5
2F2C
  8
0
  6
BYBLOCK
 62
     0
  0
BLOCK
  8
0
  2
A$CBC74E0AA
 70
     0
 10
0.0
 20
0.0
 30
0.0
  3
A$CBC74E0AA
  1

  0
ARC
  5
3264
  8
0
 62
     3
 10
-61.9647946134706729
 20
0.5679703708157513
 30
0.0
 40
62.1265672047464719
 50
359.476186115906728
 51
4.1356679026520551
  0
ENDBLK
  5
3268
  8
0
  0
ENDSEC
  0
SECTION
  2
ENTITIES
  0
ATTDEF
  5
2E1C
  8
DEFPOINTS
 10
221.5466924997508897
 20
-20.0686243182735993
 30
0.0
 40
0.001
  1
K-37303T-4
  3

  2
MODELNUMBER
 70
     0
1001
ACDBATTR
1070
     0
1070
     1
  0
ATTDEF
  5
2E1D
  8
DEFPOINTS
 10
221.5466924997508897
 20
-20.0702909849402609
 30
0.0
 40
0.001
  1
CUFF
  3

  2
TRADENAME
 70
     0
1001
ACDBATTR
1070
     0
1070
     1
  0
ATTDEF
  5
2E1E
  8
DEFPOINTS
 10
221.5466924997508897
 20
-20.0719576516069296
 30
0.0
 40
0.001
  1
BATHROOM SINK FAUCET
  3

  2
PRODUCT
 70
     0
1001
ACDBATTR
1070
     0
1070
     1
  0
LINE
  5
3944
  8
0
 10
222.4513879683765936
 20
-11.4840315065273497
 30
0.0
 11
222.4513879683765936
 21
-20.0670289905687795
 31
0.0
  0
LINE
  5
3945
  8
0
 10
222.4513375754050912
 20
-11.1237361807843893
 30
0.0
 11
222.4513375754050912
 21
-9.9490023471069797
 31
0.0
  0
LINE
  5
3946
  8
0
 10
222.3796128931109877
 20
-11.1591692515843892
 30
0.0
 11
220.7134412322992887
 21
-11.1591692515843892
 31
0.0
  0
LINE
  5
3947
  8
0
 10
222.4513375754050912
 20
-11.1237361807843893
 30
0.0
 11
220.6417165500050999
 21
-11.1237361807843893
 31
0.0
  0
LINE
  5
3948
  8
0
 10
222.3770140550051906
 20
-11.1316087325843895
 30
0.0
 11
220.7160400704051142
 21
-11.1316087325843895
 31
0.0
  0
LINE
  5
3949
  8
0
 10
222.4513879683765936
 20
-20.0670289905687795
 30
0.0
 11
220.6417669429764885
 21
-20.0670289905687795
 31
0.0
  0
LINE
  5
394A
  8
0
 10
221.7234707480052123
 20
-11.1591692515843892
 30
0.0
 11
221.7234707480052123
 21
-11.1316087325843895
 31
0.0
  0
LINE
  5
394B
  8
0
 10
221.706078730705201
 20
-11.1591692515843892
 30
0.0
 11
221.706078730705201
 21
-11.1394827482843901
 31
0.0
  0
ARC
  5
394C
  8
0
 10
221.7376318200122114
 20
-11.1394827482843901
 30
0.0
 40
0.0315530893070601
 50
165.549223155953797
 51
180.0000000000015916
  0
LINE
  5
394D
  8
0
 10
222.0544332946051043
 20
-11.1316087325843895
 30
0.0
 11
222.0551428758051884
 21
-11.1591692515843892
 31
0.0
  0
LINE
  5
394E
  8
0
 10
222.119513700382214
 20
-11.1591692515843892
 30
0.0
 11
222.1199028859051054
 21
-11.1394827482843901
 31
0.0
  0
ARC
  5
394F
  8
0
 10
222.1293256765540036
 20
-11.1408866018280399
 30
0.0
 40
0.0095267931846709
 50
103.1264652227192045
 51
171.5261238380197142
  0
LINE
  5
3950
  8
0
 10
222.2503287332052082
 20
-11.1591692515843892
 30
0.0
 11
222.2503287332052082
 21
-11.1394827482843901
 31
0.0
  0
ARC
  5
3951
  8
0
 10
222.2583949078517946
 20
-11.1394827482843901
 30
0.0
 40
0.0080661746466149
 50
102.5314143792366934
 51
179.9999999999994031
  0
LINE
  5
3952
  8
0
 10
222.3770140550051906
 20
-11.1316087325843895
 30
0.0
 11
222.3767842803050883
 21
-11.1250288446843904
 31
0.0
  0
LINE
  5
3953
  8
0
 10
222.3767842803050883
 20
-11.1250288446843904
 30
0.0
 11
222.3762215369451098
 21
-11.1237361807843893
 31
0.0
  0
LINE
  5
3954
  8
0
 10
222.3767842803050883
 20
-11.1250288446843904
 30
0.0
 11
220.7162698451051028
 21
-11.1250288446843904
 31
0.0
  0
ARC
  5
3955
  8
0
 10
221.5448876750635065
 20
-11.5139535845001006
 30
0.0
 40
0.9069939980655602
 50
1.8905526629641261
 51
23.0270103041677103
  0
LINE
  5
3956
  8
0
 10
222.4513879683765936
 20
-18.1781386444868893
 30
0.0
 11
222.5598306491069991
 21
-18.1781386444868893
 31
0.0
  0
LINE
  5
3957
  8
0
 10
222.7504901741205003
 20
-18.1384510427228989
 30
0.0
 11
222.518317046471509
 21
-18.1384510427228989
 31
0.0
  0
ARC
  5
3958
  8
0
 10
222.5233069051915891
 20
-18.2203520458777604
 30
0.0
 40
0.0580772680651747
 50
93.8159697256818959
 51
133.3912232190315024
  0
ARC
  5
3959
  8
0
 10
222.5208526948001122
 20
-18.2184846226120207
 30
0.0
 40
0.0560988312964377
 50
45.9880274350230422
 51
91.4412050573480713
  0
ARC
  5
395A
  8
0
 10
222.5268329087141126
 20
-18.2192841699906403
 30
0.0
 40
0.0812804673560536
 50
96.0139917659977158
 51
149.5878506681353031
  0
ARC
  5
395B
  8
0
 10
222.5177408139176976
 20
-18.2178075520144382
 30
0.0
 40
0.0793586013667995
 50
29.9913358396896399
 51
89.5839646502228675
  0
ARC
  5
395C
  8
0
 10
222.7428334233003113
 20
-18.2272693435197688
 30
0.0
 40
0.0891477222903951
 50
33.6655801229532017
 51
85.0728895711515918
  0
LINE
  5
395D
  8
0
 10
222.4513879683765936
 20
-18.3152473654573704
 30
0.0
 11
222.5598306491069991
 21
-18.3152473654573704
 31
0.0
  0
LINE
  5
395E
  8
0
 10
222.7504901741205003
 20
-18.3549349672213609
 30
0.0
 11
222.518317046471509
 21
-18.3549349672213609
 31
0.0
  0
ARC
  5
395F
  8
0
 10
222.5233069051915891
 20
-18.2730339640664994
 30
0.0
 40
0.0580772680651747
 50
226.6087767809684976
 51
266.1840302743181041
  0
ARC
  5
3960
  8
0
 10
222.5208526948001122
 20
-18.274901387332239
 30
0.0
 40
0.0560988312964377
 50
268.558794942652014
 51
314.0119725649769862
  0
ARC
  5
3961
  8
0
 10
222.5268329087141126
 20
-18.2741018399536088
 30
0.0
 40
0.0812804673560536
 50
210.412149331864498
 51
263.9860082340023268
  0
ARC
  5
3962
  8
0
 10
222.5177408139176976
 20
-18.2755784579298215
 30
0.0
 40
0.0793586013667995
 50
270.4160353497770757
 51
330.008664160310218
  0
ARC
  5
3963
  8
0
 10
222.7428334233003113
 20
-18.2661166664244909
 30
0.0
 40
0.0891477222903951
 50
274.9271104288483798
 51
326.3344198770466278
  0
ARC
  5
3964
  8
0
 10
222.4567644766092087
 20
-18.2466930049721299
 30
0.0
 40
0.1237834247986629
 50
326.3701753024805043
 51
33.629824697519652
  0
ARC
  5
3965
  8
0
 10
222.4587154830003897
 20
-18.2466930049721299
 30
0.0
 40
0.1449888965250472
 50
331.7821762978006177
 51
28.2178237021993787
  0
ARC
  5
3966
  8
0
 10
222.7140696713599937
 20
-18.2466930049721299
 30
0.0
 40
0.1238550253165518
 50
326.2321669763180125
 51
33.7678330236822077
  0
ARC
  5
3967
  8
0
 10
222.4321496563381118
 20
-9.9532174201999091
 30
0.0
 40
0.019645434057358
 50
12.3895617605581698
 51
86.0751616630423939
  0
ARC
  5
3968
  8
0
 10
221.5521090577790062
 20
-10.5901646845748107
 30
0.0
 40
0.1328099977138695
 50
304.1721860681871021
 51
347.9222961501025111
  0
ARC
  5
3969
  8
0
 10
221.5521090577790062
 20
-10.4856382913939594
 30
0.0
 40
0.1328099977138695
 50
12.0777038498975102
 51
55.8278139318130115
  0
ARC
  5
396A
  8
0
 10
221.0929849496519921
 20
-10.5379014879843904
 30
0.0
 40
0.5944094963920339
 50
352.2601725904718819
 51
7.7398274095281137
  0
ARC
  5
396B
  8
0
 10
221.5580157026057861
 20
-12.4289852000348606
 30
0.0
 40
0.4719141575438913
 50
13.6484294286496599
 51
67.5489446604816948
  0
ARC
  5
396C
  8
0
 10
221.5580157104809018
 20
-12.7823195199119901
 30
0.0
 40
0.4719141575438913
 50
292.4510578935401099
 51
346.3515731253713739
  0
ARC
  5
396D
  8
0
 10
220.0483602138477011
 20
-12.6056523936206801
 30
0.0
 40
1.989205805687668
 50
351.6747487377274979
 51
8.3252538162933742
  0
LINE
  5
396E
  8
0
 10
220.6417669429764885
 20
-11.4825225209279704
 30
0.0
 11
220.6417669429764885
 21
-20.0670289905687795
 31
0.0
  0
LINE
  5
396F
  8
0
 10
220.6417165500050999
 20
-11.1237361807843893
 30
0.0
 11
220.6417165500050999
 21
-9.9490023471069797
 31
0.0
  0
LINE
  5
3970
  8
0
 10
221.3695833774050925
 20
-11.1591692515843892
 30
0.0
 11
221.3695833774050925
 21
-11.1316087325843895
 31
0.0
  0
LINE
  5
3971
  8
0
 10
221.386975394705189
 20
-11.1591692515843892
 30
0.0
 11
221.386975394705189
 21
-11.1394827482843901
 31
0.0
  0
ARC
  5
3972
  8
0
 10
221.3554223053980934
 20
-11.1394827482843901
 30
0.0
 40
0.0315530893070601
 50
359.999999999998181
 51
14.4507768440463895
  0
LINE
  5
3973
  8
0
 10
221.0386208308050868
 20
-11.1316087325843895
 30
0.0
 11
221.0379112496052016
 21
-11.1591692515843892
 31
0.0
  0
LINE
  5
3974
  8
0
 10
220.9735404250280908
 20
-11.1591692515843892
 30
0.0
 11
220.9731512395051141
 21
-11.1394827482843901
 31
0.0
  0
ARC
  5
3975
  8
0
 10
220.9637284488563012
 20
-11.1408866018280399
 30
0.0
 40
0.0095267931846709
 50
8.473876161980332
 51
76.8735347772807955
  0
LINE
  5
3976
  8
0
 10
220.8427253922052103
 20
-11.1591692515843892
 30
0.0
 11
220.8427253922052103
 21
-11.1394827482843901
 31
0.0
  0
ARC
  5
3977
  8
0
 10
220.8346592175585954
 20
-11.1394827482843901
 30
0.0
 40
0.0080661746466149
 50
0.0000000000006107
 51
77.4685856207633066
  0
LINE
  5
3978
  8
0
 10
220.7160400704051142
 20
-11.1316087325843895
 30
0.0
 11
220.7162698451051028
 21
-11.1250288446843904
 31
0.0
  0
LINE
  5
3979
  8
0
 10
220.7162698451051028
 20
-11.1250288446843904
 30
0.0
 11
220.7168325884651949
 21
-11.1237361807843893
 31
0.0
  0
ARC
  5
397A
  8
0
 10
221.5467487318051951
 20
-11.5134999602843902
 30
0.0
 40
0.9055118110000353
 50
156.9643158907707914
 51
178.0395364364665909
  0
ARC
  5
397B
  8
0
 10
220.660904469072193
 20
-9.9532174201999091
 30
0.0
 40
0.019645434057358
 50
93.9248383369576061
 51
167.6104382394418053
  0
ARC
  5
397C
  8
0
 10
221.5409450676314123
 20
-10.5901646845748107
 30
0.0
 40
0.1328099977138695
 50
192.0777038498974889
 51
235.8278139318128979
  0
ARC
  5
397D
  8
0
 10
221.5409450676314123
 20
-10.4856382913939594
 30
0.0
 40
0.1328099977138695
 50
124.1721860681871021
 51
167.9222961501023974
  0
ARC
  5
397E
  8
0
 10
222.000069175758199
 20
-10.5379014879843904
 30
0.0
 40
0.5944094963920339
 50
172.2601725904719103
 51
187.7398274095278907
  0
ARC
  5
397F
  8
0
 10
221.5350384228046039
 20
-12.4289852000348606
 30
0.0
 40
0.4719141575438913
 50
112.4510553395183052
 51
166.3515705713502939
  0
ARC
  5
3980
  8
0
 10
221.535038414929403
 20
-12.7823195199119901
 30
0.0
 40
0.4719141575438913
 50
193.6484268746283988
 51
247.5489421064600037
  0
ARC
  5
3981
  8
0
 10
223.04469391156249
 20
-12.6056523936206801
 30
0.0
 40
1.989205805687668
 50
171.6747461837065885
 51
188.3252512622721895
  0
ARC
  5
3982
  8
0
 10
221.546527062705195
 20
-12.7618857379500401
 30
0.0
 40
0.4951946275343432
 50
247.2233115409331106
 51
292.7766884590668042
  0
ARC
  5
3983
  8
0
 10
221.546527062705195
 20
-12.44945294267945
 30
0.0
 40
0.4952259369950645
 50
67.2248359374669349
 51
112.7751640625329941
  0
ARC
  5
3984
  8
0
 10
221.546527062705195
 20
-10.5832602547982102
 30
0.0
 40
0.1416596396318997
 50
235.528434831915007
 51
304.471565168083373
  0
ARC
  5
3985
  8
0
 10
221.546527062705195
 20
-10.4925495762556604
 30
0.0
 40
0.141665291066435
 50
55.5300040607642771
 51
124.4699959392379043
  0
ARC
  5
3986
  8
0
 10
221.546527062705195
 20
-22.66116791892102
 30
0.0
 40
12.75841825433662
 50
86.0135727224989495
 51
93.9864272775010647
  0
LINE
  5
3987
  8
0
 10
221.6085104795052132
 20
-13.2531858246391003
 30
0.0
 11
221.6085104795052132
 21
-13.2543477775843908
 31
0.0
  0
LINE
  5
3988
  8
0
 10
221.6085104795052132
 20
-13.2543477775843908
 30
0.0
 11
221.6159291347661906
 21
-13.2709358019231605
 31
0.0
  0
ARC
  5
3989
  8
0
 10
221.5592098495370976
 20
-12.7297308593068408
 30
0.0
 40
0.5441689693736907
 50
275.9828639928260827
 51
287.1019844192495043
  0
LINE
  5
398A
  8
0
 10
221.7192354841050985
 20
-13.24983821698439
 30
0.0
 11
221.7192354841050985
 21
-13.2259865032116402
 31
0.0
  0
LINE
  5
398B
  8
0
 10
221.7192354841050985
 20
-13.24983821698439
 30
0.0
 11
221.700726147205188
 21
-13.2355083439843906
 31
0.0
  0
ARC
  5
398C
  8
0
 10
221.5536696547877114
 20
-12.7508023799988592
 30
0.0
 40
0.5065229348067612
 50
276.2155511974697788
 51
286.8774404642143168
  0
LINE
  5
398D
  8
0
 10
221.700726147205188
 20
-13.2355083439843906
 30
0.0
 11
221.7007496426473097
 21
-13.2324525397698096
 31
0.0
  0
LINE
  5
398E
  8
0
 10
221.7908506418584125
 20
-13.1927959100013492
 30
0.0
 11
221.8177512625051975
 21
-13.2012484735843891
 31
0.0
  0
ARC
  5
398F
  8
0
 10
221.73576158654339
 20
-13.0889631961693294
 30
0.0
 40
0.1390334150069718
 50
306.1365749048533189
 51
333.8150934332394968
  0
LINE
  5
3990
  8
0
 10
221.8605266479050897
 20
-13.1503143978843902
 30
0.0
 11
221.860418078725786
 21
-13.1446119153196399
 31
0.0
  0
LINE
  5
3991
  8
0
 10
221.8605266479050897
 20
-13.1503143978843902
 30
0.0
 11
221.8550050492096091
 21
-13.1490623518416996
 31
0.0
  0
LINE
  5
3992
  8
0
 10
221.4845436459050916
 20
-13.2531858246391003
 30
0.0
 11
221.4845436459050916
 21
-13.2543477775843908
 31
0.0
  0
LINE
  5
3993
  8
0
 10
221.4845436459050916
 20
-13.2543477775843908
 30
0.0
 11
221.4771249906441994
 21
-13.2709358019231605
 31
0.0
  0
ARC
  5
3994
  8
0
 10
221.5338442758732072
 20
-12.7297308593068408
 30
0.0
 40
0.5441689693736907
 50
252.8980155807504957
 51
264.0171360071739173
  0
LINE
  5
3995
  8
0
 10
221.3738186413050926
 20
-13.24983821698439
 30
0.0
 11
221.3738186413050926
 21
-13.2259865032116402
 31
0.0
  0
LINE
  5
3996
  8
0
 10
221.3738186413050926
 20
-13.24983821698439
 30
0.0
 11
221.392327978205202
 21
-13.2355083439843906
 31
0.0
  0
ARC
  5
3997
  8
0
 10
221.5393844706225934
 20
-12.7508023799988592
 30
0.0
 40
0.5065229348067612
 50
253.1225595357857969
 51
263.7844488025302212
  0
LINE
  5
3998
  8
0
 10
221.392327978205202
 20
-13.2355083439843906
 30
0.0
 11
221.3923044827629951
 21
-13.2324525397698096
 31
0.0
  0
LINE
  5
3999
  8
0
 10
221.3022034835518923
 20
-13.1927959100013492
 30
0.0
 11
221.2753028629051926
 21
-13.2012484735843891
 31
0.0
  0
ARC
  5
399A
  8
0
 10
221.3572925388670001
 20
-13.0889631961693294
 30
0.0
 40
0.1390334150069718
 50
206.1849065667603043
 51
233.8634250951467095
  0
LINE
  5
399B
  8
0
 10
221.2325274775051014
 20
-13.1503143978843902
 30
0.0
 11
221.2326360466844903
 21
-13.1446119153196399
 31
0.0
  0
LINE
  5
399C
  8
0
 10
221.2325274775051014
 20
-13.1503143978843902
 30
0.0
 11
221.2380490762006957
 21
-13.1490623518416996
 31
0.0
  0
ENDSEC
  0
EOF
