  0
SECTION
  2
HEADER
  9
$ACADVER
  1
AC1009
  9
$INSBASE
 10
224.624685662570613
 20
-16.7853155242908088
 30
0.0
  9
$EXTMIN
 10
223.706187202997711
 20
-22.5388873026857688
 30
-0.0000000000112498
  9
$EXTMAX
 10
225.829345595333308
 20
-15.6075443652167092
 30
0.0000000000002956
  9
$LIMMIN
 10
0.0
 20
0.0
  9
$LIMMAX
 10
11.6929133858000007
 20
8.2677165353999982
  9
$ORTHOMODE
 70
     0
  9
$REGENMODE
 70
     1
  9
$FILLMODE
 70
     1
  9
$QTEXTMODE
 70
     0
  9
$MIRRTEXT
 70
     0
  9
$DRAGMODE
 70
     2
  9
$LTSCALE
 40
0.6431102362
  9
$OSMODE
 70
  4095
  9
$ATTMODE
 70
     1
  9
$TEXTSIZE
 40
0.2
  9
$TRACEWID
 40
0.05
  9
$TEXTSTYLE
  7
STANDARD
  9
$CLAYER
  8
0
  9
$CELTYPE
  6
BYLAYER
  9
$CECOLOR
 62
   256
  9
$DIMSCALE
 40
1.0
  9
$DIMASZ
 40
0.1875
  9
$DIMEXO
 40
0.0625
  9
$DIMDLI
 40
0.4443307087
  9
$DIMRND
 40
0.0
  9
$DIMDLE
 40
0.0
  9
$DIMEXE
 40
0.125
  9
$DIMTP
 40
0.01
  9
$DIMTM
 40
0.01
  9
$DIMTXT
 40
1.0
  9
$DIMCEN
 40
0.1052362205
  9
$DIMTSZ
 40
0.0
  9
$DIMTOL
 70
     1
  9
$DIMLIM
 70
     0
  9
$DIMTIH
 70
     1
  9
$DIMTOH
 70
     1
  9
$DIMSE1
 70
     0
  9
$DIMSE2
 70
     0
  9
$DIMTAD
 70
     0
  9
$DIMZIN
 70
     0
  9
$DIMBLK
  1

  9
$DIMASO
 70
     1
  9
$DIMSHO
 70
     1
  9
$DIMPOST
  1
\X
  9
$DIMAPOST
  1

  9
$DIMALT
 70
     1
  9
$DIMALTD
 70
     2
  9
$DIMALTF
 40
25.3999999999999986
  9
$DIMLFAC
 40
1.0
  9
$DIMTOFL
 70
     0
  9
$DIMTVP
 40
0.0
  9
$DIMTIX
 70
     0
  9
$DIMSOXD
 70
     0
  9
$DIMSAH
 70
     0
  9
$DIMBLK1
  1

  9
$DIMBLK2
  1

  9
$DIMSTYLE
  2
STANDARD
  9
$DIMCLRD
 70
     0
  9
$DIMCLRE
 70
     0
  9
$DIMCLRT
 70
     0
  9
$DIMTFAC
 40
1.0
  9
$DIMGAP
 40
0.09
  9
$LUNITS
 70
     2
  9
$LUPREC
 70
     4
  9
$SKETCHINC
 40
0.1
  9
$FILLETRAD
 40
0.0
  9
$AUNITS
 70
     0
  9
$AUPREC
 70
     0
  9
$MENU
  1
.
  9
$ELEVATION
 40
0.0
  9
$PELEVATION
 40
0.0
  9
$THICKNESS
 40
0.0
  9
$LIMCHECK
 70
     0
  9
$BLIPMODE
 70
     0
  9
$CHAMFERA
 40
0.0
  9
$CHAMFERB
 40
0.0
  9
$SKPOLY
 70
     0
  9
$TDCREATE
 40
2458172.4620254631154239
  9
$TDUPDATE
 40
2459977.9276388888247311
  9
$TDINDWG
 40
0.1097050116
  9
$TDUSRTIMER
 40
0.1097050116
  9
$USRTIMER
 70
     1
  9
$ANGBASE
 50
0.0
  9
$ANGDIR
 70
     0
  9
$PDMODE
 70
     0
  9
$PDSIZE
 40
0.3125
  9
$PLINEWID
 40
0.0
  9
$COORDS
 70
     1
  9
$SPLFRAME
 70
     0
  9
$SPLINETYPE
 70
     6
  9
$SPLINESEGS
 70
     8
  9
$ATTDIA
 70
     1
  9
$ATTREQ
 70
     1
  9
$HANDLING
 70
     1
  9
$HANDSEED
  5
3F2B
  9
$SURFTAB1
 70
     6
  9
$SURFTAB2
 70
     6
  9
$SURFTYPE
 70
     6
  9
$SURFU
 70
     6
  9
$SURFV
 70
     6
  9
$UCSNAME
  2

  9
$UCSORG
 10
0.0
 20
0.0
 30
0.0
  9
$UCSXDIR
 10
1.0
 20
0.0
 30
0.0
  9
$UCSYDIR
 10
0.0
 20
1.0
 30
0.0
  9
$PUCSNAME
  2

  9
$PUCSORG
 10
0.0
 20
0.0
 30
0.0
  9
$PUCSXDIR
 10
1.0
 20
0.0
 30
0.0
  9
$PUCSYDIR
 10
0.0
 20
1.0
 30
0.0
  9
$USERI1
 70
     0
  9
$USERI2
 70
     0
  9
$USERI3
 70
     0
  9
$USERI4
 70
     0
  9
$USERI5
 70
     0
  9
$USERR1
 40
0.0
  9
$USERR2
 40
0.0
  9
$USERR3
 40
0.0
  9
$USERR4
 40
0.0
  9
$USERR5
 40
0.0
  9
$WORLDVIEW
 70
     1
  9
$SHADEDGE
 70
     3
  9
$SHADEDIF
 70
    70
  9
$TILEMODE
 70
     1
  9
$MAXACTVP
 70
    64
  9
$PLIMCHECK
 70
     0
  9
$PEXTMIN
 10
1.0000000000000000E+20
 20
1.0000000000000000E+20
 30
1.0000000000000000E+20
  9
$PEXTMAX
 10
-1.0000000000000000E+20
 20
-1.0000000000000000E+20
 30
-1.0000000000000000E+20
  9
$PLIMMIN
 10
0.0
 20
0.0
  9
$PLIMMAX
 10
12.0
 20
9.0
  9
$UNITMODE
 70
     0
  9
$VISRETAIN
 70
     1
  9
$PLINEGEN
 70
     0
  9
$PSLTSCALE
 70
     1
  0
ENDSEC
  0
SECTION
  2
TABLES
  0
TABLE
  2
VPORT
 70
     1
  0
VPORT
  2
*ACTIVE
 70
     0
 10
0.0
 20
0.0
 11
1.0
 21
1.0
 12
9.4357198903764452
 22
-4.0280203377743851
 13
0.0
 23
0.0
 14
1.0
 24
1.0
 15
0.0
 25
0.0
 16
0.0
 26
0.0
 36
51.5945028179043277
 17
215.3320465087890909
 27
-15.0451954961768504
 37
0.0
 40
6.9845926911500023
 41
1.593589743589743
 42
50.0
 43
0.0
 44
0.0
 50
0.0
 51
0.0
 71
     0
 72
   100
 73
     1
 74
     1
 75
     0
 76
     0
 77
     0
 78
     0
  0
ENDTAB
  0
TABLE
  2
LTYPE
 70
     2
  0
LTYPE
  2
CONTINUOUS
 70
     0
  3
Solid line
 72
    65
 73
     0
 40
0.0
  0
LTYPE
  2
PHANTOM2
 70
     0
  3
___ _ _ ___ _ _ ___ _ _ ___ _ _
 72
    65
 73
     6
 40
1.25
 49
0.625
 49
-0.125
 49
0.125
 49
-0.125
 49
0.125
 49
-0.125
  0
ENDTAB
  0
TABLE
  2
LAYER
 70
     2
  0
LAYER
  2
0
 70
     0
 62
   255
  6
CONTINUOUS
  0
LAYER
  2
DEFPOINTS
 70
     0
 62
     7
  6
CONTINUOUS
  0
ENDTAB
  0
TABLE
  2
STYLE
 70
     1
  0
STYLE
  2
STANDARD
 70
     0
 40
0.0
 41
0.8
 50
0.0
 71
     0
 42
0.2
  3
txt
  4

  0
ENDTAB
  0
TABLE
  2
VIEW
 70
     0
  0
ENDTAB
  0
TABLE
  2
UCS
 70
     0
  0
ENDTAB
  0
TABLE
  2
APPID
 70
    10
  0
APPID
  2
ACAD
 70
     0
  0
APPID
  2
ACAD_MLEADERVER
 70
     0
  0
APPID
  2
ACAD_EXEMPT_FROM_CAD_STANDARDS
 70
     0
  0
APPID
  2
ACAD_DSTYLE_DIMJAG
 70
     0
  0
APPID
  2
ACAD_DSTYLE_DIMTALN
 70
     0
  0
APPID
  2
ACAD_NAV_VCDISPLAY
 70
     0
  0
APPID
  2
ACAECLAYERSTANDARD
 70
     0
  0
APPID
  2
ACCMTRANSPARENCY
 70
     0
  0
APPID
  2
ACDBATTR
 70
     0
  0
APPID
  2
ACADANNOTATIVE
 70
     0
  0
ENDTAB
  0
TABLE
  2
DIMSTYLE
 70
     2
  0
DIMSTYLE
  2
STANDARD
 70
     0
  3

  4

  5

  6

  7

 40
1.0
 41
0.1875
 42
0.0625
 43
0.38
 44
0.125
 45
0.0
 46
0.0
 47
0.01
 48
0.01
140
0.15625
141
0.09
142
0.0
143
25.3999999999999986
144
1.0
145
0.0
146
1.0
147
0.09
 71
     1
 72
     0
 73
     1
 74
     1
 75
     0
 76
     0
 77
     0
 78
     4
170
     0
171
     2
172
     0
173
     0
174
     0
175
     0
176
     0
177
     0
178
     0
  0
DIMSTYLE
  2
ANNOTATIVE
 70
     0
  3

  4

  5

  6

  7

 40
0.0
 41
0.18
 42
0.0625
 43
0.38
 44
0.18
 45
0.0
 46
0.0
 47
0.0
 48
0.0
140
0.18
141
0.09
142
0.0
143
25.3999999999999986
144
1.0
145
0.0
146
1.0
147
0.09
 71
     0
 72
     0
 73
     1
 74
     1
 75
     0
 76
     0
 77
     0
 78
     0
170
     0
171
     2
172
     0
173
     0
174
     0
175
     0
176
     0
177
     0
178
     0
  0
ENDTAB
  0
ENDSEC
  0
SECTION
  2
BLOCKS
  0
BLOCK
  8
0
  2
$MODEL_SPACE
 70
     0
 10
0.0
 20
0.0
 30
0.0
  3
$MODEL_SPACE
  1

  0
ENDBLK
  5
21
  8
0
  0
BLOCK
 67
     1
  8
0
  2
$PAPER_SPACE
 70
     0
 10
0.0
 20
0.0
 30
0.0
  3
$PAPER_SPACE
  1

  0
ENDBLK
  5
1D
 67
     1
  8
0
  0
BLOCK
  8
0
  2
_FILLED
 70
     0
 10
0.0
 20
0.0
 30
0.0
  3
_FILLED
  1

  0
SOLID
  5
2F2B
  8
0
  6
BYBLOCK
 62
     0
 10
0.0
 20
0.0
 30
0.0
 11
-1.0
 21
0.1666666667
 31
0.0
 12
-1.0
 22
-0.1666666667
 32
0.0
 13
-1.0
 23
-0.1666666667
 33
0.0
  0
ENDBLK
  5
2F2C
  8
0
  6
BYBLOCK
 62
     0
  0
BLOCK
  8
0
  2
A$CBC74E0AA
 70
     0
 10
0.0
 20
0.0
 30
0.0
  3
A$CBC74E0AA
  1

  0
ARC
  5
3264
  8
0
 62
     3
 10
-61.9647946134706729
 20
0.5679703708157513
 30
0.0
 40
62.1265672047464719
 50
359.476186115906728
 51
4.1356679026520551
  0
ENDBLK
  5
3268
  8
0
  0
ENDSEC
  0
SECTION
  2
ENTITIES
  0
ATTDEF
  5
2E1C
  8
DEFPOINTS
 10
224.6197588200504924
 20
-16.7866909432270113
 30
0.0
 40
0.001
  1
K-37303D
  3

  2
MODELNUMBER
 70
     0
1001
ACDBATTR
1070
     0
1070
     1
  0
ATTDEF
  5
2E1D
  8
DEFPOINTS
 10
224.6197588200504924
 20
-16.7883576098936693
 30
0.0
 40
0.001
  1
CUFF
  3

  2
TRADENAME
 70
     0
1001
ACDBATTR
1070
     0
1070
     1
  0
ATTDEF
  5
2E1E
  8
DEFPOINTS
 10
224.6197588200504924
 20
-16.7900242765603309
 30
0.0
 40
0.001
  1
BATHROOM SINK FAUCET
  3

  2
PRODUCT
 70
     0
1001
ACDBATTR
1070
     0
1070
     1
  0
LINE
  5
3E89
  8
0
 10
225.1157378996009015
 20
-22.4958007314856516
 30
0.0
 11
225.115945041817298
 21
-17.8043347735426813
 31
0.0
  0
LINE
  5
3E8A
  8
0
 10
224.7657734683259889
 20
-20.2639290071774489
 30
0.0
 11
224.7657734683259889
 21
-17.7474122056201615
 31
0.0
  0
ARC
  5
3E8B
  8
0
 10
225.8106974888657987
 20
-17.8627607026671704
 30
0.0
 40
0.6972048134328142
 50
138.0357056015569128
 51
175.1929625992272861
  0
ARC
  5
3E8C
  8
0
 10
224.8514240623165961
 20
-17.7494660887274591
 30
0.0
 40
0.0856752162925495
 50
108.3887600471116031
 51
178.6263226015639134
  0
LINE
  5
3E8D
  8
0
 10
224.1336599859403123
 20
-22.4958390299926201
 30
0.0
 11
224.1338742229278864
 21
-17.8083419454485501
 31
0.0
  0
LINE
  5
3E8E
  8
0
 10
224.4840387016481031
 20
-20.2639290071774312
 30
0.0
 11
224.4840387016481031
 21
-17.7474122056201615
 31
0.0
  0
ARC
  5
3E8F
  8
0
 10
223.437343015186002
 20
-17.8635389919487189
 30
0.0
 40
0.6987148469159221
 50
4.5309706947929174
 51
41.9387778949178696
  0
ARC
  5
3E90
  8
0
 10
224.3971926630318023
 20
-17.7505062035733303
 30
0.0
 40
0.0869011348986777
 50
2.0403703425208182
 51
71.35545488202591
  0
ARC
  5
3E91
  8
0
 10
224.62490306249029
 20
-19.4674648836898001
 30
0.0
 40
0.8088249922933798
 50
259.9702641345219831
 51
269.9845997612185897
  0
ARC
  5
3E92
  8
0
 10
224.624909088261802
 20
-19.4674647720837086
 30
0.0
 40
0.8088251055415531
 50
269.9841729080671939
 51
280.0297358294220089
  0
LINE
  5
3E93
  8
0
 10
224.4770478681589054
 20
-15.88015873795778
 30
0.0
 11
224.7723234585870102
 21
-15.88015873795778
 31
0.0
  0
ARC
  5
3E94
  8
0
 10
224.624685663372901
 20
-15.9985150371284401
 30
0.0
 40
0.1892224408706572
 50
38.7179883531288525
 51
141.2820116468695915
  0
LINE
  5
3E95
  8
0
 10
224.5033354622869979
 20
-15.88015873795778
 30
0.0
 11
224.5029041583943865
 21
-15.8883885077028602
 31
0.0
  0
LINE
  5
3E96
  8
0
 10
224.7460358643870109
 20
-15.88015873795778
 30
0.0
 11
224.7464626833825037
 21
-15.8883878989792997
 31
0.0
  0
ARC
  5
3E97
  8
0
 10
224.1524878209270923
 20
-22.4961916830464403
 30
0.0
 40
0.0188495654813344
 50
177.2484681345796105
 51
265.8756506454153055
  0
ARC
  5
3E98
  8
0
 10
224.6430404571557915
 20
-17.31178832172046
 30
0.0
 40
5.2264047710523629
 50
264.5993372732984881
 51
269.7987805247710185
  0
ARC
  5
3E99
  8
0
 10
224.6112760244905076
 20
-17.5179417192423585
 30
0.0
 40
5.0202370523918027
 50
270.1530438846634183
 51
275.6114116562433765
  0
ARC
  5
3E9A
  8
0
 10
225.0959369067606133
 20
-22.4953177816981409
 30
0.0
 40
0.0198068815809339
 50
288.3130990974743781
 51
358.6028226088341739
  0
LINE
  5
3E9B
  8
0
 10
225.213374510907812
 20
-16.0977442569386717
 30
0.0
 11
225.6126209343235018
 21
-15.7120223139196202
 31
0.0
  0
LINE
  5
3E9C
  8
0
 10
225.6051883755071117
 20
-15.7043291489908796
 30
0.0
 11
225.7146089555002106
 21
-15.8175863177907594
 31
0.0
  0
LINE
  5
3E9D
  8
0
 10
225.6051883754035998
 20
-15.7043291490908192
 30
0.0
 11
225.7042858632036086
 21
-15.6085885902908093
 31
0.0
  0
LINE
  5
3E9E
  8
0
 10
225.7042858632036086
 20
-15.6085885902908093
 30
0.0
 11
225.732125081003602
 21
-15.6085885902908093
 31
0.0
  0
LINE
  5
3E9F
  8
0
 10
225.732125081003602
 20
-15.6085885902908093
 30
0.0
 11
225.8141863361036883
 21
-15.6940063118908206
 31
0.0
  0
LINE
  5
3EA0
  8
0
 10
225.8141863361036883
 20
-15.6940063118908206
 30
0.0
 11
225.8137059297037013
 21
-15.72184524529081
 31
0.0
  0
LINE
  5
3EA1
  8
0
 10
225.8137059297037013
 20
-15.72184524529081
 30
0.0
 11
225.7042965391476059
 21
-15.6085885902908093
 31
0.0
  0
LINE
  5
3EA2
  8
0
 10
225.8137059297037013
 20
-15.72184524529081
 30
0.0
 11
225.7146089555002106
 21
-15.8175863177907594
 31
0.0
  0
LINE
  5
3EA3
  8
0
 10
225.7077701692512903
 20
-15.81050774474142
 30
0.0
 11
225.3113156266001056
 21
-16.1955290372112692
 31
0.0
  0
LINE
  5
3EA5
  8
0
 10
224.1511321351742936
 20
-22.5149924339617087
 30
0.0
 11
225.1021604172705963
 21
-22.5141215173613709
 31
0.0
  0
CIRCLE
  5
3EA6
  8
0
 10
224.624685662570613
 20
-16.7853155242908088
 30
0.0
 40
0.90515678633305
  0
ENDSEC
  0
EOF
