  0
SECTION
  2
HEADER
  9
$ACADVER
  1
AC1009
  9
$INSBASE
 10
236.0742777800562919
 20
-21.1255933793716189
 30
0.0
  9
$EXTMIN
 10
235.1616584841686972
 20
-21.1321319472864992
 30
-0.0000000000112498
  9
$EXTMAX
 10
237.2681753312735111
 20
-10.9685002592450207
 30
0.0000000000002956
  9
$LIMMIN
 10
0.0
 20
0.0
  9
$LIMMAX
 10
11.6929133858000007
 20
8.2677165353999982
  9
$ORTHOMODE
 70
     0
  9
$REGENMODE
 70
     1
  9
$FILLMODE
 70
     1
  9
$QTEXTMODE
 70
     0
  9
$MIRRTEXT
 70
     0
  9
$DRAGMODE
 70
     2
  9
$LTSCALE
 40
0.6431102362
  9
$OSMODE
 70
  4095
  9
$ATTMODE
 70
     1
  9
$TEXTSIZE
 40
0.2
  9
$TRACEWID
 40
0.05
  9
$TEXTSTYLE
  7
STANDARD
  9
$CLAYER
  8
0
  9
$CELTYPE
  6
BYLAYER
  9
$CECOLOR
 62
   256
  9
$DIMSCALE
 40
1.0
  9
$DIMASZ
 40
0.1875
  9
$DIMEXO
 40
0.0625
  9
$DIMDLI
 40
0.4443307087
  9
$DIMRND
 40
0.0
  9
$DIMDLE
 40
0.0
  9
$DIMEXE
 40
0.125
  9
$DIMTP
 40
0.01
  9
$DIMTM
 40
0.01
  9
$DIMTXT
 40
1.0
  9
$DIMCEN
 40
0.1052362205
  9
$DIMTSZ
 40
0.0
  9
$DIMTOL
 70
     1
  9
$DIMLIM
 70
     0
  9
$DIMTIH
 70
     1
  9
$DIMTOH
 70
     1
  9
$DIMSE1
 70
     0
  9
$DIMSE2
 70
     0
  9
$DIMTAD
 70
     0
  9
$DIMZIN
 70
     0
  9
$DIMBLK
  1

  9
$DIMASO
 70
     1
  9
$DIMSHO
 70
     1
  9
$DIMPOST
  1
\X
  9
$DIMAPOST
  1

  9
$DIMALT
 70
     1
  9
$DIMALTD
 70
     2
  9
$DIMALTF
 40
25.3999999999999986
  9
$DIMLFAC
 40
1.0
  9
$DIMTOFL
 70
     0
  9
$DIMTVP
 40
0.0
  9
$DIMTIX
 70
     0
  9
$DIMSOXD
 70
     0
  9
$DIMSAH
 70
     0
  9
$DIMBLK1
  1

  9
$DIMBLK2
  1

  9
$DIMSTYLE
  2
STANDARD
  9
$DIMCLRD
 70
     0
  9
$DIMCLRE
 70
     0
  9
$DIMCLRT
 70
     0
  9
$DIMTFAC
 40
1.0
  9
$DIMGAP
 40
0.09
  9
$LUNITS
 70
     2
  9
$LUPREC
 70
     4
  9
$SKETCHINC
 40
0.1
  9
$FILLETRAD
 40
0.0
  9
$AUNITS
 70
     0
  9
$AUPREC
 70
     0
  9
$MENU
  1
.
  9
$ELEVATION
 40
0.0
  9
$PELEVATION
 40
0.0
  9
$THICKNESS
 40
0.0
  9
$LIMCHECK
 70
     0
  9
$BLIPMODE
 70
     0
  9
$CHAMFERA
 40
0.0
  9
$CHAMFERB
 40
0.0
  9
$SKPOLY
 70
     0
  9
$TDCREATE
 40
2458172.4620254631154239
  9
$TDUPDATE
 40
2459977.9275694452226162
  9
$TDINDWG
 40
0.1087906597
  9
$TDUSRTIMER
 40
0.1087906597
  9
$USRTIMER
 70
     1
  9
$ANGBASE
 50
0.0
  9
$ANGDIR
 70
     0
  9
$PDMODE
 70
     0
  9
$PDSIZE
 40
0.3125
  9
$PLINEWID
 40
0.0
  9
$COORDS
 70
     1
  9
$SPLFRAME
 70
     0
  9
$SPLINETYPE
 70
     6
  9
$SPLINESEGS
 70
     8
  9
$ATTDIA
 70
     1
  9
$ATTREQ
 70
     1
  9
$HANDLING
 70
     1
  9
$HANDSEED
  5
3F7B
  9
$SURFTAB1
 70
     6
  9
$SURFTAB2
 70
     6
  9
$SURFTYPE
 70
     6
  9
$SURFU
 70
     6
  9
$SURFV
 70
     6
  9
$UCSNAME
  2

  9
$UCSORG
 10
0.0
 20
0.0
 30
0.0
  9
$UCSXDIR
 10
1.0
 20
0.0
 30
0.0
  9
$UCSYDIR
 10
0.0
 20
1.0
 30
0.0
  9
$PUCSNAME
  2

  9
$PUCSORG
 10
0.0
 20
0.0
 30
0.0
  9
$PUCSXDIR
 10
1.0
 20
0.0
 30
0.0
  9
$PUCSYDIR
 10
0.0
 20
1.0
 30
0.0
  9
$USERI1
 70
     0
  9
$USERI2
 70
     0
  9
$USERI3
 70
     0
  9
$USERI4
 70
     0
  9
$USERI5
 70
     0
  9
$USERR1
 40
0.0
  9
$USERR2
 40
0.0
  9
$USERR3
 40
0.0
  9
$USERR4
 40
0.0
  9
$USERR5
 40
0.0
  9
$WORLDVIEW
 70
     1
  9
$SHADEDGE
 70
     3
  9
$SHADEDIF
 70
    70
  9
$TILEMODE
 70
     1
  9
$MAXACTVP
 70
    64
  9
$PLIMCHECK
 70
     0
  9
$PEXTMIN
 10
1.0000000000000000E+20
 20
1.0000000000000000E+20
 30
1.0000000000000000E+20
  9
$PEXTMAX
 10
-1.0000000000000000E+20
 20
-1.0000000000000000E+20
 30
-1.0000000000000000E+20
  9
$PLIMMIN
 10
0.0
 20
0.0
  9
$PLIMMAX
 10
12.0
 20
9.0
  9
$UNITMODE
 70
     0
  9
$VISRETAIN
 70
     1
  9
$PLINEGEN
 70
     0
  9
$PSLTSCALE
 70
     1
  0
ENDSEC
  0
SECTION
  2
TABLES
  0
TABLE
  2
VPORT
 70
     1
  0
VPORT
  2
*ACTIVE
 70
     0
 10
0.0
 20
0.0
 11
1.0
 21
1.0
 12
20.882870398932031
 22
-1.0051206070889049
 13
0.0
 23
0.0
 14
1.0
 24
1.0
 15
0.0
 25
0.0
 16
0.0
 26
0.0
 36
51.5945028179043277
 17
215.3320465087890909
 27
-15.0451954961768504
 37
0.0
 40
10.2417133655424397
 41
1.593589743589743
 42
50.0
 43
0.0
 44
0.0
 50
0.0
 51
0.0
 71
     0
 72
   100
 73
     1
 74
     1
 75
     0
 76
     0
 77
     0
 78
     0
  0
ENDTAB
  0
TABLE
  2
LTYPE
 70
     2
  0
LTYPE
  2
CONTINUOUS
 70
     0
  3
Solid line
 72
    65
 73
     0
 40
0.0
  0
LTYPE
  2
PHANTOM2
 70
     0
  3
___ _ _ ___ _ _ ___ _ _ ___ _ _
 72
    65
 73
     6
 40
1.25
 49
0.625
 49
-0.125
 49
0.125
 49
-0.125
 49
0.125
 49
-0.125
  0
ENDTAB
  0
TABLE
  2
LAYER
 70
     2
  0
LAYER
  2
0
 70
     0
 62
   255
  6
CONTINUOUS
  0
LAYER
  2
DEFPOINTS
 70
     0
 62
     7
  6
CONTINUOUS
  0
ENDTAB
  0
TABLE
  2
STYLE
 70
     1
  0
STYLE
  2
STANDARD
 70
     0
 40
0.0
 41
0.8
 50
0.0
 71
     0
 42
0.2
  3
txt
  4

  0
ENDTAB
  0
TABLE
  2
VIEW
 70
     0
  0
ENDTAB
  0
TABLE
  2
UCS
 70
     0
  0
ENDTAB
  0
TABLE
  2
APPID
 70
    10
  0
APPID
  2
ACAD
 70
     0
  0
APPID
  2
ACAD_MLEADERVER
 70
     0
  0
APPID
  2
ACAD_EXEMPT_FROM_CAD_STANDARDS
 70
     0
  0
APPID
  2
ACAD_DSTYLE_DIMJAG
 70
     0
  0
APPID
  2
ACAD_DSTYLE_DIMTALN
 70
     0
  0
APPID
  2
ACAD_NAV_VCDISPLAY
 70
     0
  0
APPID
  2
ACAECLAYERSTANDARD
 70
     0
  0
APPID
  2
ACCMTRANSPARENCY
 70
     0
  0
APPID
  2
ACDBATTR
 70
     0
  0
APPID
  2
ACADANNOTATIVE
 70
     0
  0
ENDTAB
  0
TABLE
  2
DIMSTYLE
 70
     2
  0
DIMSTYLE
  2
STANDARD
 70
     0
  3

  4

  5

  6

  7

 40
1.0
 41
0.1875
 42
0.0625
 43
0.38
 44
0.125
 45
0.0
 46
0.0
 47
0.01
 48
0.01
140
0.15625
141
0.09
142
0.0
143
25.3999999999999986
144
1.0
145
0.0
146
1.0
147
0.09
 71
     1
 72
     0
 73
     1
 74
     1
 75
     0
 76
     0
 77
     0
 78
     4
170
     0
171
     2
172
     0
173
     0
174
     0
175
     0
176
     0
177
     0
178
     0
  0
DIMSTYLE
  2
ANNOTATIVE
 70
     0
  3

  4

  5

  6

  7

 40
0.0
 41
0.18
 42
0.0625
 43
0.38
 44
0.18
 45
0.0
 46
0.0
 47
0.0
 48
0.0
140
0.18
141
0.09
142
0.0
143
25.3999999999999986
144
1.0
145
0.0
146
1.0
147
0.09
 71
     0
 72
     0
 73
     1
 74
     1
 75
     0
 76
     0
 77
     0
 78
     0
170
     0
171
     2
172
     0
173
     0
174
     0
175
     0
176
     0
177
     0
178
     0
  0
ENDTAB
  0
ENDSEC
  0
SECTION
  2
BLOCKS
  0
BLOCK
  8
0
  2
$MODEL_SPACE
 70
     0
 10
0.0
 20
0.0
 30
0.0
  3
$MODEL_SPACE
  1

  0
ENDBLK
  5
21
  8
0
  0
BLOCK
 67
     1
  8
0
  2
$PAPER_SPACE
 70
     0
 10
0.0
 20
0.0
 30
0.0
  3
$PAPER_SPACE
  1

  0
ENDBLK
  5
1D
 67
     1
  8
0
  0
BLOCK
  8
0
  2
_FILLED
 70
     0
 10
0.0
 20
0.0
 30
0.0
  3
_FILLED
  1

  0
SOLID
  5
2F2B
  8
0
  6
BYBLOCK
 62
     0
 10
0.0
 20
0.0
 30
0.0
 11
-1.0
 21
0.1666666667
 31
0.0
 12
-1.0
 22
-0.1666666667
 32
0.0
 13
-1.0
 23
-0.1666666667
 33
0.0
  0
ENDBLK
  5
2F2C
  8
0
  6
BYBLOCK
 62
     0
  0
BLOCK
  8
0
  2
A$CBC74E0AA
 70
     0
 10
0.0
 20
0.0
 30
0.0
  3
A$CBC74E0AA
  1

  0
ARC
  5
3264
  8
0
 62
     3
 10
-61.9647946134706729
 20
0.5679703708157513
 30
0.0
 40
62.1265672047464719
 50
359.476186115906728
 51
4.1356679026520551
  0
ENDBLK
  5
3268
  8
0
  0
ENDSEC
  0
SECTION
  2
ENTITIES
  0
ATTDEF
  5
2E1C
  8
DEFPOINTS
 10
236.0685970005295076
 20
-21.1275819644037703
 30
0.0
 40
0.001
  1
K-37303D
  3

  2
MODELNUMBER
 70
     0
1001
ACDBATTR
1070
     0
1070
     1
  0
ATTDEF
  5
2E1D
  8
DEFPOINTS
 10
236.0685970005295076
 20
-21.129248631070439
 30
0.0
 40
0.001
  1
CUFF
  3

  2
TRADENAME
 70
     0
1001
ACDBATTR
1070
     0
1070
     1
  0
ATTDEF
  5
2E1E
  8
DEFPOINTS
 10
236.0685970005295076
 20
-21.1309152977371006
 30
0.0
 40
0.001
  1
BATHROOM SINK FAUCET
  3

  2
PRODUCT
 70
     0
1001
ACDBATTR
1070
     0
1070
     1
  0
LINE
  5
3EB6
  8
0
 10
236.9794345663893864
 20
-12.5426038216030999
 30
0.0
 11
236.9794345663893864
 21
-21.1255933793716189
 31
0.0
  0
LINE
  5
3EB7
  8
0
 10
236.9794345663893864
 20
-12.1895918478716005
 30
0.0
 11
236.9794345663893864
 21
-11.0148580141941892
 31
0.0
  0
LINE
  5
3EB8
  8
0
 10
236.9184184563966085
 20
-12.2177414542043401
 30
0.0
 11
235.2294283127820904
 21
-12.2177414542043401
 31
0.0
  0
LINE
  5
3EB9
  8
0
 10
236.9794345663893864
 20
-12.1895918478716005
 30
0.0
 11
235.1691209937233111
 21
-12.1895918478716201
 31
0.0
  0
LINE
  5
3EBA
  8
0
 10
236.9794345663893864
 20
-21.1255933793723614
 30
0.0
 11
235.1691209937233111
 21
-21.1255933793716189
 31
0.0
  0
LINE
  5
3EBB
  8
0
 10
236.2514415413536142
 20
-12.2177414542043401
 30
0.0
 11
236.2514415413536142
 21
-12.1895918478716094
 31
0.0
  0
LINE
  5
3EBC
  8
0
 10
236.2340495240536029
 20
-12.2177414542043401
 30
0.0
 11
236.2340495240536029
 21
-12.1980550633601101
 31
0.0
  0
ARC
  5
3EBD
  8
0
 10
236.2656026133606986
 20
-12.1980550633601101
 30
0.0
 40
0.0315530893070601
 50
164.441539633700387
 51
180.0000000000013927
  0
LINE
  5
3EBE
  8
0
 10
236.5823889182431969
 20
-12.1895918478716094
 30
0.0
 11
236.5831136662582992
 21
-12.2177414542043401
 31
0.0
  0
LINE
  5
3EBF
  8
0
 10
236.6474844959537904
 20
-12.2177414542043401
 30
0.0
 11
236.6478736792537063
 21
-12.1980550633601101
 31
0.0
  0
ARC
  5
3EC0
  8
0
 10
236.6590539964807931
 20
-12.2002999942550705
 30
0.0
 40
0.0114034735069652
 50
110.1115474700074941
 51
168.6463789819177919
  0
LINE
  5
3EC1
  8
0
 10
236.7782995265536101
 20
-12.2177414542043401
 30
0.0
 11
236.7782995265536101
 21
-12.1980550633601101
 31
0.0
  0
ARC
  5
3EC2
  8
0
 10
236.7878062277254969
 20
-12.1985614245779193
 30
0.0
 40
0.0095201769339807
 50
109.5816367203501045
 51
176.9511010566181994
  0
ARC
  5
3EC3
  8
0
 10
236.0739100708669866
 20
-12.5445194651711294
 30
0.0
 40
0.9055265217989603
 50
0.1212094518770613
 51
21.1536797539380288
  0
ARC
  5
3EC4
  8
0
 10
236.9599955753861025
 20
-11.0193768617230798
 30
0.0
 40
0.019957313301505
 50
13.0867253609521406
 51
85.7771915061124872
  0
ARC
  5
3EC5
  8
0
 10
236.0800798511274934
 20
-11.6560203516620398
 30
0.0
 40
0.1328099977138695
 50
304.1721860681871021
 51
347.9222961501030795
  0
ARC
  5
3EC6
  8
0
 10
236.0800798511274934
 20
-11.5514939584811795
 30
0.0
 40
0.1328099977138695
 50
12.0777038498969205
 51
55.8278139318128908
  0
ARC
  5
3EC7
  8
0
 10
235.6209937660914022
 20
-11.6037571550716105
 30
0.0
 40
0.5943718197203073
 50
352.2596789635492769
 51
7.7403210364507
  0
ARC
  5
3EC8
  8
0
 10
236.0859864959543017
 20
-13.4875575151105895
 30
0.0
 40
0.4719141575438913
 50
13.6484294286500596
 51
67.5489446604818511
  0
ARC
  5
3EC9
  8
0
 10
236.0859865038293037
 20
-13.8408918349877208
 30
0.0
 40
0.4719141575438913
 50
292.4510578935401099
 51
346.3515731253713739
  0
ARC
  5
3ECA
  8
0
 10
234.5694529827273129
 20
-13.6642247088496998
 30
0.0
 40
1.9960115984543989
 50
351.7033357524140911
 51
8.2966668016071523
  0
LINE
  5
3ECB
  8
0
 10
235.1691209937233111
 20
-12.5426038216030999
 30
0.0
 11
235.1691209937233111
 21
-21.1255933793716189
 31
0.0
  0
LINE
  5
3ECC
  8
0
 10
235.1691209937233111
 20
-12.1895918478716201
 30
0.0
 11
235.1691209937233111
 21
-11.0148580141941892
 31
0.0
  0
LINE
  5
3ECD
  8
0
 10
235.8975541707536081
 20
-12.2177414542043401
 30
0.0
 11
235.8975541707536081
 21
-12.1895918478716094
 31
0.0
  0
LINE
  5
3ECE
  8
0
 10
235.914946188053591
 20
-12.2177414542043401
 30
0.0
 11
235.914946188053591
 21
-12.1980550633601101
 31
0.0
  0
ARC
  5
3ECF
  8
0
 10
235.883393098746609
 20
-12.1980550633601101
 30
0.0
 40
0.0315530893070601
 50
359.9999999999984084
 51
15.5584603662958205
  0
LINE
  5
3ED0
  8
0
 10
235.5666067938641106
 20
-12.1895918478716201
 30
0.0
 11
235.5658820458490084
 21
-12.2177414542043401
 31
0.0
  0
LINE
  5
3ED1
  8
0
 10
235.5015112161534887
 20
-12.2177414542043401
 30
0.0
 11
235.5011220328536012
 21
-12.1980550633601101
 31
0.0
  0
ARC
  5
3ED2
  8
0
 10
235.489941715626486
 20
-12.2002999942550598
 30
0.0
 40
0.011403473506929
 50
11.3536210180362502
 51
69.8884525300983341
  0
LINE
  5
3ED3
  8
0
 10
235.3706961855536122
 20
-12.2177414542043401
 30
0.0
 11
235.3706961855536122
 21
-12.1980550633601101
 31
0.0
  0
ARC
  5
3ED4
  8
0
 10
235.3611894843818106
 20
-12.1985614245779104
 30
0.0
 40
0.0095201769339458
 50
3.04889894331248
 51
70.418363279789844
  0
ARC
  5
3ED5
  8
0
 10
236.0498945134297912
 20
-12.5380813661945201
 30
0.0
 40
0.8807851302214063
 50
158.6725141549389093
 51
180.2941906460796986
  0
ARC
  5
3ED6
  8
0
 10
235.1894550280860017
 20
-11.0204836623191298
 30
0.0
 40
0.0210978878157836
 50
95.2335318905237216
 51
164.5352729413247062
  0
ARC
  5
3ED7
  8
0
 10
236.0689158609798142
 20
-11.6560203516620398
 30
0.0
 40
0.1328099977138695
 50
192.0777038498968921
 51
235.8278139318128979
  0
ARC
  5
3ED8
  8
0
 10
236.0689158609798142
 20
-11.5514939584811795
 30
0.0
 40
0.1328099977138695
 50
124.1721860681871021
 51
167.9222961501031079
  0
ARC
  5
3ED9
  8
0
 10
236.5280779970408958
 20
-11.6037571550716105
 30
0.0
 40
0.5944471779070862
 50
172.2606662176872021
 51
187.7393337823127979
  0
ARC
  5
3EDA
  8
0
 10
236.0630092161530911
 20
-13.4875575151105895
 30
0.0
 40
0.4719141575438913
 50
112.4510553395182058
 51
166.351570571349896
  0
ARC
  5
3EDB
  8
0
 10
236.0630092082778901
 20
-13.8408918349877208
 30
0.0
 40
0.4719141575438913
 50
193.6484268746283988
 51
247.5489421064600037
  0
ARC
  5
3EDC
  8
0
 10
237.5632503275614056
 20
-13.6642247084865804
 30
0.0
 40
1.97989110564157
 50
171.6352987765839941
 51
188.3646986693941869
  0
ARC
  5
3EDD
  8
0
 10
236.0744978560535969
 20
-13.8204580530257992
 30
0.0
 40
0.4951946275343157
 50
247.2233115409314053
 51
292.7766884590686232
  0
ARC
  5
3EDE
  8
0
 10
236.0744978560535969
 20
-13.5080252577552304
 30
0.0
 40
0.4952259369951194
 50
67.2248359374703455
 51
112.7751640625294982
  0
ARC
  5
3EDF
  8
0
 10
236.0744978560535969
 20
-11.6491159218854907
 30
0.0
 40
0.1416596396318485
 50
235.5284348319005971
 51
304.4715651680970723
  0
ARC
  5
3EE0
  8
0
 10
236.0744978560535969
 20
-11.5584052433428894
 30
0.0
 40
0.1416652910664412
 50
55.5300040607678866
 51
124.469995939236199
  0
ARC
  5
3EE1
  8
0
 10
236.0744978560535969
 20
-23.7270243729906305
 30
0.0
 40
12.7584190394149495
 50
86.0135729681970105
 51
93.9864270318029753
  0
LINE
  5
3EE2
  8
0
 10
236.9614651362537074
 20
-10.9994737276716101
 30
0.0
 11
235.1875305758536001
 21
-10.9994737276716101
 31
0.0
  0
LINE
  5
3EE4
  8
0
 10
237.1096876637377022
 20
-19.3382408894716207
 30
0.0
 11
236.9794345663893864
 21
-19.3382408894716207
 31
0.0
  0
LINE
  5
3EE5
  8
0
 10
237.1096982299893057
 20
-19.4761108979716191
 30
0.0
 11
236.9794345663893864
 21
-19.4761108979716191
 31
0.0
  0
LINE
  5
3EE6
  8
0
 10
237.2086247270798935
 20
-19.3283951821944484
 30
0.0
 11
237.1095508313003108
 21
-19.3283951821944484
 31
0.0
  0
LINE
  5
3EE7
  8
0
 10
237.2088253523893968
 20
-19.485874085936139
 30
0.0
 11
237.1097278651893134
 21
-19.485874085936139
 31
0.0
  0
ARC
  5
3EE8
  8
0
 10
237.1063864375502135
 20
-19.3821924359152504
 30
0.0
 40
0.044075350584283
 50
28.9131613923400508
 51
85.7045463404909214
  0
ARC
  5
3EE9
  8
0
 10
237.0577795723575889
 20
-19.409039436914469
 30
0.0
 40
0.0996036209201941
 50
1.212618309630402
 51
28.9131613923400508
  0
ARC
  5
3EEA
  8
0
 10
237.08010557464209
 20
-19.4102212247011714
 30
0.0
 40
0.0773253199779149
 50
316.6180180724130082
 51
2.4382765350998481
  0
ARC
  5
3EEB
  8
0
 10
237.109087357806203
 20
-19.4407495374622385
 30
0.0
 40
0.0353666365646777
 50
270.9896937309865734
 51
320.316402873508423
  0
ARC
  5
3EEC
  8
0
 10
237.1562043983967101
 20
-19.4091650634500006
 30
0.0
 40
0.1075896372722371
 50
0.9751476078561206
 51
34.6199680822511411
  0
ARC
  5
3EED
  8
0
 10
237.2055532362772965
 20
-19.37707584815983
 30
0.0
 40
0.04877493312241
 50
36.5340654305991634
 51
86.4372162308517318
  0
ARC
  5
3EEE
  8
0
 10
237.1624448328927031
 20
-19.4063240303979008
 30
0.0
 40
0.1013386539026694
 50
319.6944165195129131
 51
359.4289498946043864
  0
ARC
  5
3EEF
  8
0
 10
237.2081917047094066
 20
-19.4433685621517398
 30
0.0
 40
0.0425102465479607
 50
270.8540689654722087
 51
317.8858216189955215
  0
ARC
  5
3EF0
  8
0
 10
237.1085367543207099
 20
-19.3717210374045088
 30
0.0
 40
0.0433377212345472
 50
47.3310431843491699
 51
88.6591903581234106
  0
ARC
  5
3EF1
  8
0
 10
237.0852232077457984
 20
-19.3970452397851609
 30
0.0
 40
0.0777591740913155
 50
8.1207328065456466
 51
47.3470600503395929
  0
ARC
  5
3EF2
  8
0
 10
237.054308030170489
 20
-19.4070261328551084
 30
0.0
 40
0.1099126339571581
 50
339.4426462995166958
 51
10.9961730236479394
  0
ARC
  5
3EF3
  8
0
 10
237.0975323537448105
 20
-19.4265928904614391
 30
0.0
 40
0.0626488975237532
 50
303.6292199040158835
 51
342.3180865166194735
  0
ARC
  5
3EF4
  8
0
 10
237.1086382360035998
 20
-19.4433044112856912
 30
0.0
 40
0.0425836176434937
 50
271.4662438700552798
 51
303.6398790440712787
  0
ARC
  5
3EF5
  8
0
 10
237.1099830686409859
 20
-19.4442654934693309
 30
0.0
 40
0.0416093750958992
 50
229.9374320443147894
 51
269.6485846676714004
  0
ARC
  5
3EF6
  8
0
 10
237.1102448723999885
 20
-19.3708309049746106
 30
0.0
 40
0.0424413979614577
 50
90.9369954876538884
 51
129.8358634594517014
  0
ENDSEC
  0
EOF
