  0
SECTION
  2
HEADER
  9
$ACADVER
  1
AC1009
  9
$INSBASE
 10
4467.3713305378496443
 20
282.1091430039332977
 30
0.0
  9
$EXTMIN
 10
4463.1006926668587766
 20
270.1004908387856176
 30
-0.0015258207003583
  9
$EXTMAX
 10
4471.6300353279148112
 20
282.1326035756871988
 30
0.0000000349246037
  9
$LIMMIN
 10
0.0
 20
0.0
  9
$LIMMAX
 10
11.6929133858000007
 20
8.2677165353999982
  9
$ORTHOMODE
 70
     0
  9
$REGENMODE
 70
     1
  9
$FILLMODE
 70
     1
  9
$QTEXTMODE
 70
     0
  9
$MIRRTEXT
 70
     0
  9
$DRAGMODE
 70
     2
  9
$LTSCALE
 40
0.6431102362
  9
$OSMODE
 70
   311
  9
$ATTMODE
 70
     1
  9
$TEXTSIZE
 40
0.2
  9
$TRACEWID
 40
0.05
  9
$TEXTSTYLE
  7
STANDARD
  9
$CLAYER
  8
0
  9
$CELTYPE
  6
BYLAYER
  9
$CECOLOR
 62
   256
  9
$DIMSCALE
 40
1.0
  9
$DIMASZ
 40
0.1875
  9
$DIMEXO
 40
0.0625
  9
$DIMDLI
 40
0.4443307087
  9
$DIMRND
 40
0.0
  9
$DIMDLE
 40
0.0
  9
$DIMEXE
 40
0.125
  9
$DIMTP
 40
0.01
  9
$DIMTM
 40
0.01
  9
$DIMTXT
 40
2.0
  9
$DIMCEN
 40
0.1052362205
  9
$DIMTSZ
 40
0.0
  9
$DIMTOL
 70
     1
  9
$DIMLIM
 70
     0
  9
$DIMTIH
 70
     1
  9
$DIMTOH
 70
     1
  9
$DIMSE1
 70
     0
  9
$DIMSE2
 70
     0
  9
$DIMTAD
 70
     0
  9
$DIMZIN
 70
     0
  9
$DIMBLK
  1

  9
$DIMASO
 70
     1
  9
$DIMSHO
 70
     1
  9
$DIMPOST
  1
\X
  9
$DIMAPOST
  1

  9
$DIMALT
 70
     1
  9
$DIMALTD
 70
     2
  9
$DIMALTF
 40
25.3999999999999986
  9
$DIMLFAC
 40
1.0
  9
$DIMTOFL
 70
     0
  9
$DIMTVP
 40
0.0
  9
$DIMTIX
 70
     0
  9
$DIMSOXD
 70
     0
  9
$DIMSAH
 70
     0
  9
$DIMBLK1
  1

  9
$DIMBLK2
  1

  9
$DIMSTYLE
  2
STANDARD
  9
$DIMCLRD
 70
     0
  9
$DIMCLRE
 70
     0
  9
$DIMCLRT
 70
     0
  9
$DIMTFAC
 40
1.0
  9
$DIMGAP
 40
0.09
  9
$LUNITS
 70
     2
  9
$LUPREC
 70
     4
  9
$SKETCHINC
 40
0.1
  9
$FILLETRAD
 40
0.0
  9
$AUNITS
 70
     0
  9
$AUPREC
 70
     0
  9
$MENU
  1
.
  9
$ELEVATION
 40
0.0
  9
$PELEVATION
 40
0.0
  9
$THICKNESS
 40
0.0
  9
$LIMCHECK
 70
     0
  9
$BLIPMODE
 70
     0
  9
$CHAMFERA
 40
0.0
  9
$CHAMFERB
 40
0.0
  9
$SKPOLY
 70
     0
  9
$TDCREATE
 40
2458060.468368056230247
  9
$TDUPDATE
 40
2459366.0759837972000241
  9
$TDINDWG
 40
0.5331320602
  9
$TDUSRTIMER
 40
0.5331320602
  9
$USRTIMER
 70
     1
  9
$ANGBASE
 50
0.0
  9
$ANGDIR
 70
     0
  9
$PDMODE
 70
     0
  9
$PDSIZE
 40
0.3125
  9
$PLINEWID
 40
0.0
  9
$COORDS
 70
     2
  9
$SPLFRAME
 70
     0
  9
$SPLINETYPE
 70
     6
  9
$SPLINESEGS
 70
     8
  9
$ATTDIA
 70
     1
  9
$ATTREQ
 70
     1
  9
$HANDLING
 70
     1
  9
$HANDSEED
  5
21592
  9
$SURFTAB1
 70
     6
  9
$SURFTAB2
 70
     6
  9
$SURFTYPE
 70
     6
  9
$SURFU
 70
     6
  9
$SURFV
 70
     6
  9
$UCSNAME
  2

  9
$UCSORG
 10
0.0
 20
0.0
 30
0.0
  9
$UCSXDIR
 10
1.0
 20
0.0
 30
0.0
  9
$UCSYDIR
 10
0.0
 20
1.0
 30
0.0
  9
$PUCSNAME
  2

  9
$PUCSORG
 10
0.0
 20
0.0
 30
0.0
  9
$PUCSXDIR
 10
1.0
 20
0.0
 30
0.0
  9
$PUCSYDIR
 10
0.0
 20
1.0
 30
0.0
  9
$USERI1
 70
     0
  9
$USERI2
 70
     0
  9
$USERI3
 70
     0
  9
$USERI4
 70
     0
  9
$USERI5
 70
     0
  9
$USERR1
 40
0.0
  9
$USERR2
 40
0.0
  9
$USERR3
 40
0.0
  9
$USERR4
 40
0.0
  9
$USERR5
 40
0.0
  9
$WORLDVIEW
 70
     1
  9
$SHADEDGE
 70
     3
  9
$SHADEDIF
 70
    70
  9
$TILEMODE
 70
     1
  9
$MAXACTVP
 70
    64
  9
$PLIMCHECK
 70
     0
  9
$PEXTMIN
 10
1.0000000000000000E+20
 20
1.0000000000000000E+20
 30
1.0000000000000000E+20
  9
$PEXTMAX
 10
-1.0000000000000000E+20
 20
-1.0000000000000000E+20
 30
-1.0000000000000000E+20
  9
$PLIMMIN
 10
0.0
 20
0.0
  9
$PLIMMAX
 10
12.0
 20
9.0
  9
$UNITMODE
 70
     0
  9
$VISRETAIN
 70
     1
  9
$PLINEGEN
 70
     0
  9
$PSLTSCALE
 70
     1
  0
ENDSEC
  0
SECTION
  2
TABLES
  0
TABLE
  2
VPORT
 70
     1
  0
VPORT
  2
*ACTIVE
 70
     0
 10
0.0
 20
0.0
 11
1.0
 21
1.0
 12
556.000007507498367
 22
143.5369420929102091
 13
0.0
 23
0.0
 14
1.0
 24
1.0
 15
0.0
 25
0.0
 16
0.0
 26
0.0
 36
60.4960186965801583
 17
3911.3653564453120453
 27
132.5796051025390057
 37
0.0
 40
15.7981640470353
 41
2.5325542570951578
 42
50.0
 43
0.0
 44
0.0
 50
0.0
 51
0.0
 71
     0
 72
   100
 73
     1
 74
     1
 75
     0
 76
     0
 77
     0
 78
     0
  0
ENDTAB
  0
TABLE
  2
LTYPE
 70
     2
  0
LTYPE
  2
CONTINUOUS
 70
     0
  3
Solid line
 72
    65
 73
     0
 40
0.0
  0
LTYPE
  2
PHANTOM2
 70
     0
  3
___ _ _ ___ _ _ ___ _ _ ___ _ _
 72
    65
 73
     6
 40
1.25
 49
0.625
 49
-0.125
 49
0.125
 49
-0.125
 49
0.125
 49
-0.125
  0
ENDTAB
  0
TABLE
  2
LAYER
 70
     2
  0
LAYER
  2
0
 70
     0
 62
   255
  6
CONTINUOUS
  0
LAYER
  2
DEFPOINTS
 70
     0
 62
     7
  6
CONTINUOUS
  0
ENDTAB
  0
TABLE
  2
STYLE
 70
     1
  0
STYLE
  2
STANDARD
 70
     0
 40
0.0
 41
0.8
 50
0.0
 71
     0
 42
0.2
  3
txt
  4

  0
ENDTAB
  0
TABLE
  2
VIEW
 70
     1
  0
ENDTAB
  0
TABLE
  2
UCS
 70
     0
  0
ENDTAB
  0
TABLE
  2
APPID
 70
    11
  0
APPID
  2
ACAD
 70
     0
  0
APPID
  2
ACAD_MLEADERVER
 70
     0
  0
APPID
  2
ACAD_EXEMPT_FROM_CAD_STANDARDS
 70
     0
  0
APPID
  2
ACAD_NAV_VCDISPLAY
 70
     0
  0
APPID
  2
ACAECLAYERSTANDARD
 70
     0
  0
APPID
  2
ACCMTRANSPARENCY
 70
     0
  0
APPID
  2
ACAD_DSTYLE_DIMJAG
 70
     0
  0
APPID
  2
ACAD_DSTYLE_DIMTALN
 70
     0
  0
APPID
  2
ACDBATTR
 70
     0
  0
APPID
  2
ACADANNOTATIVE
 70
     0
  0
APPID
  2
DCO15
 70
     0
  0
ENDTAB
  0
TABLE
  2
DIMSTYLE
 70
     1
  0
DIMSTYLE
  2
STANDARD
 70
     0
  3

  4

  5

  6

  7

 40
1.0
 41
0.1875
 42
0.0625
 43
0.38
 44
0.125
 45
0.0
 46
0.0
 47
0.01
 48
0.01
140
0.15625
141
0.09
142
0.0
143
25.3999999999999986
144
1.0
145
0.0
146
1.0
147
0.09
 71
     1
 72
     0
 73
     1
 74
     1
 75
     0
 76
     0
 77
     0
 78
     4
170
     0
171
     2
172
     0
173
     0
174
     0
175
     0
176
     0
177
     0
178
     0
  0
ENDTAB
  0
ENDSEC
  0
SECTION
  2
BLOCKS
  0
BLOCK
  8
0
  2
$MODEL_SPACE
 70
     0
 10
0.0
 20
0.0
 30
0.0
  3
$MODEL_SPACE
  1

  0
ENDBLK
  5
21
  8
0
  0
BLOCK
 67
     1
  8
0
  2
$PAPER_SPACE
 70
     0
 10
0.0
 20
0.0
 30
0.0
  3
$PAPER_SPACE
  1

  0
ENDBLK
  5
1D
 67
     1
  8
0
  0
ENDSEC
  0
SECTION
  2
ENTITIES
  0
ATTDEF
  5
20106
  8
DEFPOINTS
 10
4467.371324269298384
 20
282.1125205952437227
 30
0.0
 40
0.001
  1
K-37265T-4
  3

  2
MODELNUMBER
 70
     0
1001
ACDBATTR
1070
     0
1070
     1
  0
ATTDEF
  5
20107
  8
DEFPOINTS
 10
4467.3711984596411639
 20
282.110853754864479
 30
0.0
 40
0.001
  1
AIRFOIL
  3

  2
TRADENAME
 70
     0
1001
ACDBATTR
1070
     0
1070
     1
  0
ATTDEF
  5
20108
  8
DEFPOINTS
 10
4467.371324269298384
 20
282.1091872619102787
 30
0.0
 40
0.001
  1
BATHROOM SINK FAUCET
  3

  2
PRODUCT
 70
     0
1001
ACDBATTR
1070
     0
1070
     1
  0
LINE
  5
213F6
  8
0
 10
4469.0542215241839585
 20
282.1091430039332977
 30
0.0
 11
4465.6884395514853168
 21
282.1091430039332977
 31
0.0
  0
LINE
  5
213F7
  8
0
 10
4463.2516304860855598
 20
282.1091430039332977
 30
0.0
 11
4471.4910305894845806
 21
282.1091430039332977
 31
0.0
  0
CIRCLE
  5
213F8
  8
0
 10
4467.3713305377850702
 20
271.8729225314331757
 30
0.0
 40
0.5078740157000001
  0
ARC
  5
213F9
  8
0
 10
4467.0357925688831529
 20
347.5811106259047847
 30
0.0
 40
70.1835241291561545
 50
268.9555264089905791
 51
270.2739244425013112
  0
ARC
  5
213FA
  8
0
 10
4465.9259356234479128
 20
287.2535654190663195
 30
0.0
 40
9.8457765626916949
 50
264.3397117073865275
 51
269.0136747233501069
  0
ARC
  5
213FB
  8
0
 10
4465.108500862159417
 20
279.6569551004646996
 30
0.0
 40
2.206516417309301
 50
247.8500517601223976
 51
266.00687457462368
  0
ARC
  5
213FC
  8
0
 10
4464.717465095274747
 20
278.6065128919412928
 30
0.0
 40
1.086691638580771
 50
209.0013468452592917
 51
246.0638252135863979
  0
ARC
  5
213FD
  8
0
 10
4466.6354563265131219
 20
279.606041447781422
 30
0.0
 40
3.2492618374284459
 50
187.8485065971356107
 51
208.019042683816707
  0
ARC
  5
213FE
  8
0
 10
4477.8184660562728823
 20
281.2918710756408132
 30
0.0
 40
14.5584248160704899
 50
181.2001516073347887
 51
188.4111053920250072
  0
ARC
  5
213FF
  8
0
 10
4509.4881762048898963
 20
282.1909474438638199
 30
0.0
 40
46.2406187079992534
 50
180.1062413860146023
 51
181.492024107557512
  0
ARC
  5
21400
  8
0
 10
4463.2515746198951092
 20
282.1052057714742887
 30
0.0
 40
0.0039376287872981
 50
89.1870731203340341
 51
180.0072760151030025
  0
ARC
  5
21401
  8
0
 10
4467.2719950405153213
 20
275.1676145283636856
 30
0.0
 40
5.0645076563913198
 50
261.6797206830800064
 51
268.9105992937451788
  0
ARC
  5
21402
  8
0
 10
4466.696368297844856
 20
271.3433819989190283
 30
0.0
 40
1.1973389749823531
 50
234.4526374448055037
 51
262.4538576344239118
  0
ARC
  5
21403
  8
0
 10
4466.404372165598943
 20
270.9649031771591012
 30
0.0
 40
0.7198495351760262
 50
202.7079338968501929
 51
235.8488509070762973
  0
ARC
  5
21404
  8
0
 10
4467.6295507239028666
 20
271.3918864586913173
 30
0.0
 40
2.0164389710136641
 50
181.5385874268191913
 51
200.4604996010353943
  0
ARC
  5
21405
  8
0
 10
4475.7435646700350844
 20
271.8735990667017859
 30
0.0
 40
10.1438891596503407
 50
176.7931672636748885
 51
183.0280783642409119
  0
ARC
  5
21406
  8
0
 10
4467.7217148148556589
 20
272.3554026018596801
 30
0.0
 40
2.1078958725925951
 50
162.2536126662120068
 51
177.6712241788565905
  0
ARC
  5
21407
  8
0
 10
4466.4042639934996259
 20
272.7743143864793183
 30
0.0
 40
0.7254544423995336
 50
122.1346371437246034
 51
162.0493144964165992
  0
ARC
  5
21408
  8
0
 10
4466.8254631754298316
 20
271.9904952274163747
 30
0.0
 40
1.6143579187820469
 50
97.9925154308185853
 51
119.9957841383423016
  0
ARC
  5
21409
  8
0
 10
4467.3881933260890946
 20
268.0398982020010976
 30
0.0
 40
5.6048295498282812
 50
90.1723869744300828
 51
98.0738680947811474
  0
ARC
  5
2140A
  8
0
 10
4467.0318876009550877
 20
271.8727162962899797
 30
0.0
 40
0.0313923993141092
 50
152.847542287456605
 51
202.111383903532186
  0
ARC
  5
2140B
  8
0
 10
4467.3600107239381032
 20
271.7015302505541854
 30
0.0
 40
0.4014855312129014
 50
128.805088128550409
 51
152.4795836224348875
  0
ARC
  5
2140C
  8
0
 10
4467.4036107361416725
 20
271.6726522425148005
 30
0.0
 40
0.4515918835692308
 50
112.6948105315308055
 51
130.8202362455795935
  0
ARC
  5
2140D
  8
0
 10
4467.3713475436034059
 20
271.7481733984578227
 30
0.0
 40
0.3694707688761582
 50
94.8271278580884314
 51
112.5975175570649043
  0
ARC
  5
2140E
  8
0
 10
4467.3713274238843951
 20
271.7478663361338249
 30
0.0
 40
0.3697750518696815
 50
76.8331703959399164
 51
94.8200176906656793
  0
ARC
  5
2140F
  8
0
 10
4467.3672203040650857
 20
271.7327332984830832
 30
0.0
 40
0.3854462007942041
 50
61.3095988536148724
 51
76.7511114644276233
  0
ARC
  5
21410
  8
0
 10
4467.3075040205549158
 20
271.6267265804015096
 30
0.0
 40
0.5071086998361537
 50
38.9979122392242203
 51
61.1408694394991699
  0
ARC
  5
21411
  8
0
 10
4467.4571311808867904
 20
271.7491252151862113
 30
0.0
 40
0.3138001192795902
 50
30.5409438438595586
 51
38.8216744557808866
  0
ARC
  5
21412
  8
0
 10
4467.5117517607286572
 20
271.7816940481963002
 30
0.0
 40
0.250207449493077
 50
24.5361445825730087
 51
30.47344287060249
  0
ARC
  5
21413
  8
0
 10
4467.7109285474598437
 20
271.8726695471988819
 30
0.0
 40
0.0312373265683923
 50
333.3278474832703182
 51
24.4466762604463597
  0
ARC
  5
21414
  8
0
 10
4467.3583586861286676
 20
272.0422727643291978
 30
0.0
 40
0.399143137349169
 50
207.0266883186922939
 51
230.7290876937323105
  0
ARC
  5
21415
  8
0
 10
4467.3922627588826799
 20
272.0561451247529021
 30
0.0
 40
0.4316969364026486
 50
228.4103022332031969
 51
256.915941091844104
  0
ARC
  5
21416
  8
0
 10
4467.3708910242103229
 20
272.0010399409129036
 30
0.0
 40
0.3732774277914963
 50
258.1965198846111207
 51
283.9210010906248272
  0
ARC
  5
21417
  8
0
 10
4467.3472156919324334
 20
272.0628307601334086
 30
0.0
 40
0.4390242405539924
 50
284.9800060301341773
 51
312.9148817136825755
  0
ARC
  5
21418
  8
0
 10
4467.3966655802687455
 20
272.0336538778660724
 30
0.0
 40
0.3843329741881798
 50
310.4769279422069985
 51
332.9124986709272775
  0
ARC
  5
21419
  8
0
 10
4467.7068685067870319
 20
347.5811106259047847
 30
0.0
 40
70.1835241291561545
 50
269.7260755574986888
 51
271.0444735910093073
  0
ARC
  5
2141A
  8
0
 10
4468.8167254522213625
 20
287.2535654190663195
 30
0.0
 40
9.8457765626916949
 50
270.9863252766498931
 51
275.6602882926134725
  0
ARC
  5
2141B
  8
0
 10
4469.6341602135107678
 20
279.6569551004646996
 30
0.0
 40
2.206516417309301
 50
273.99312542537632
 51
292.149948239877574
  0
ARC
  5
2141C
  8
0
 10
4470.0251959803936188
 20
278.6065128919412928
 30
0.0
 40
1.086691638580771
 50
293.9361747864135737
 51
330.9986531547406798
  0
ARC
  5
2141D
  8
0
 10
4468.1072047491561534
 20
279.606041447781422
 30
0.0
 40
3.2492618374284459
 50
331.9809573161832077
 51
352.1514934028643893
  0
ARC
  5
2141E
  8
0
 10
4456.924195019396393
 20
281.2918710756408132
 30
0.0
 40
14.5584248160704899
 50
351.5888946079749076
 51
358.7998483926651829
  0
ARC
  5
2141F
  8
0
 10
4425.2544848863371953
 20
282.1909474435520906
 30
0.0
 40
46.240618692439007
 50
358.5079758923284885
 51
359.8937586143338763
  0
ARC
  5
21420
  8
0
 10
4471.4910864557759851
 20
282.1052057714782109
 30
0.0
 40
0.0039376287834846
 50
359.9927239290087755
 51
90.8129269028573276
  0
ARC
  5
21421
  8
0
 10
4467.371329987135141
 20
277.385911484650876
 30
0.0
 40
7.284516372075748
 50
268.461151562476573
 51
271.5388484375233134
  0
ARC
  5
21422
  8
0
 10
4467.4706666321289958
 20
275.1676092989742983
 30
0.0
 40
5.0645023956571187
 50
271.089382620483093
 51
278.3202811953051992
  0
ARC
  5
21423
  8
0
 10
4468.0462927778244193
 20
271.3433819989190283
 30
0.0
 40
1.1973389749823531
 50
277.5461423655760882
 51
305.5473625551945247
  0
ARC
  5
21424
  8
0
 10
4468.3382889100712418
 20
270.9649031771591012
 30
0.0
 40
0.7198495351760262
 50
304.1511490929236743
 51
337.2920661031498071
  0
ARC
  5
21425
  8
0
 10
4467.1131193538622028
 20
271.3918839232263167
 30
0.0
 40
2.0164296505300432
 50
339.5394784836005897
 51
358.4614775295789855
  0
ARC
  5
21426
  8
0
 10
4458.9990961519852135
 20
271.8735990667017859
 30
0.0
 40
10.1438891596503407
 50
356.9719216357590881
 51
3.2068327363250568
  0
ARC
  5
21427
  8
0
 10
4467.0209599031977632
 20
272.3554059759833876
 30
0.0
 40
2.107881850933492
 50
2.3286995305565439
 51
17.7464130120675989
  0
ARC
  5
21428
  8
0
 10
4468.3383970821687399
 20
272.7743143864793183
 30
0.0
 40
0.7254544423995336
 50
17.9506855035834008
 51
57.8653628562754179
  0
ARC
  5
21429
  8
0
 10
4467.9171979002403532
 20
271.9904952274163747
 30
0.0
 40
1.6143579187820469
 50
60.0042158616576415
 51
82.0074845691814289
  0
ARC
  5
2142A
  8
0
 10
4467.2880683020239303
 20
267.1187902547238764
 30
0.0
 40
6.526443259371562
 50
82.4847325544103711
 51
89.2690241248629377
  0
ENDSEC
  0
EOF
