  0
SECTION
  2
HEADER
  9
$ACADVER
  1
AC1009
  9
$INSBASE
 10
4787.5861126539502948
 20
537.2750530295168119
 30
0.0
  9
$EXTMIN
 10
4784.1778598445471289
 20
534.3106566364044738
 30
-0.0000000349181948
  9
$EXTMAX
 10
4791.1227818472316358
 20
537.3030514694030444
 30
0.0000000814935746
  9
$LIMMIN
 10
0.0
 20
0.0
  9
$LIMMAX
 10
11.6929133858000007
 20
8.2677165353999982
  9
$ORTHOMODE
 70
     0
  9
$REGENMODE
 70
     1
  9
$FILLMODE
 70
     1
  9
$QTEXTMODE
 70
     0
  9
$MIRRTEXT
 70
     0
  9
$DRAGMODE
 70
     2
  9
$LTSCALE
 40
0.6431102362
  9
$OSMODE
 70
     7
  9
$ATTMODE
 70
     1
  9
$TEXTSIZE
 40
0.2
  9
$TRACEWID
 40
0.05
  9
$TEXTSTYLE
  7
STANDARD
  9
$CLAYER
  8
0
  9
$CELTYPE
  6
BYLAYER
  9
$CECOLOR
 62
   256
  9
$DIMSCALE
 40
1.0
  9
$DIMASZ
 40
0.1875
  9
$DIMEXO
 40
0.0625
  9
$DIMDLI
 40
0.4443307087
  9
$DIMRND
 40
0.0
  9
$DIMDLE
 40
0.0
  9
$DIMEXE
 40
0.125
  9
$DIMTP
 40
0.01
  9
$DIMTM
 40
0.01
  9
$DIMTXT
 40
2.0
  9
$DIMCEN
 40
0.1052362205
  9
$DIMTSZ
 40
0.0
  9
$DIMTOL
 70
     1
  9
$DIMLIM
 70
     0
  9
$DIMTIH
 70
     1
  9
$DIMTOH
 70
     1
  9
$DIMSE1
 70
     0
  9
$DIMSE2
 70
     0
  9
$DIMTAD
 70
     0
  9
$DIMZIN
 70
     0
  9
$DIMBLK
  1

  9
$DIMASO
 70
     1
  9
$DIMSHO
 70
     1
  9
$DIMPOST
  1
\X
  9
$DIMAPOST
  1

  9
$DIMALT
 70
     1
  9
$DIMALTD
 70
     2
  9
$DIMALTF
 40
25.3999999999999986
  9
$DIMLFAC
 40
1.0
  9
$DIMTOFL
 70
     0
  9
$DIMTVP
 40
0.0
  9
$DIMTIX
 70
     0
  9
$DIMSOXD
 70
     0
  9
$DIMSAH
 70
     0
  9
$DIMBLK1
  1

  9
$DIMBLK2
  1

  9
$DIMSTYLE
  2
STANDARD
  9
$DIMCLRD
 70
     0
  9
$DIMCLRE
 70
     0
  9
$DIMCLRT
 70
     0
  9
$DIMTFAC
 40
1.0
  9
$DIMGAP
 40
0.09
  9
$LUNITS
 70
     2
  9
$LUPREC
 70
     4
  9
$SKETCHINC
 40
0.1
  9
$FILLETRAD
 40
0.0
  9
$AUNITS
 70
     0
  9
$AUPREC
 70
     0
  9
$MENU
  1
.
  9
$ELEVATION
 40
0.0
  9
$PELEVATION
 40
0.0
  9
$THICKNESS
 40
0.0
  9
$LIMCHECK
 70
     0
  9
$BLIPMODE
 70
     0
  9
$CHAMFERA
 40
0.0
  9
$CHAMFERB
 40
0.0
  9
$SKPOLY
 70
     0
  9
$TDCREATE
 40
2458060.468368056230247
  9
$TDUPDATE
 40
2459354.9587500002235174
  9
$TDINDWG
 40
1.6525895139
  9
$TDUSRTIMER
 40
1.6525895139
  9
$USRTIMER
 70
     1
  9
$ANGBASE
 50
0.0
  9
$ANGDIR
 70
     0
  9
$PDMODE
 70
     0
  9
$PDSIZE
 40
0.3125
  9
$PLINEWID
 40
0.0
  9
$COORDS
 70
     1
  9
$SPLFRAME
 70
     0
  9
$SPLINETYPE
 70
     6
  9
$SPLINESEGS
 70
     8
  9
$ATTDIA
 70
     1
  9
$ATTREQ
 70
     1
  9
$HANDLING
 70
     1
  9
$HANDSEED
  5
1E812
  9
$SURFTAB1
 70
     6
  9
$SURFTAB2
 70
     6
  9
$SURFTYPE
 70
     6
  9
$SURFU
 70
     6
  9
$SURFV
 70
     6
  9
$UCSNAME
  2

  9
$UCSORG
 10
0.0
 20
0.0
 30
0.0
  9
$UCSXDIR
 10
1.0
 20
0.0
 30
0.0
  9
$UCSYDIR
 10
0.0
 20
1.0
 30
0.0
  9
$PUCSNAME
  2

  9
$PUCSORG
 10
0.0
 20
0.0
 30
0.0
  9
$PUCSXDIR
 10
1.0
 20
0.0
 30
0.0
  9
$PUCSYDIR
 10
0.0
 20
1.0
 30
0.0
  9
$USERI1
 70
     0
  9
$USERI2
 70
     0
  9
$USERI3
 70
     0
  9
$USERI4
 70
     0
  9
$USERI5
 70
     0
  9
$USERR1
 40
0.0
  9
$USERR2
 40
0.0
  9
$USERR3
 40
0.0
  9
$USERR4
 40
0.0
  9
$USERR5
 40
0.0
  9
$WORLDVIEW
 70
     1
  9
$SHADEDGE
 70
     3
  9
$SHADEDIF
 70
    70
  9
$TILEMODE
 70
     1
  9
$MAXACTVP
 70
    64
  9
$PLIMCHECK
 70
     0
  9
$PEXTMIN
 10
1.0000000000000000E+20
 20
1.0000000000000000E+20
 30
1.0000000000000000E+20
  9
$PEXTMAX
 10
-1.0000000000000000E+20
 20
-1.0000000000000000E+20
 30
-1.0000000000000000E+20
  9
$PLIMMIN
 10
0.0
 20
0.0
  9
$PLIMMAX
 10
12.0
 20
9.0
  9
$UNITMODE
 70
     0
  9
$VISRETAIN
 70
     1
  9
$PLINEGEN
 70
     0
  9
$PSLTSCALE
 70
     1
  0
ENDSEC
  0
SECTION
  2
TABLES
  0
TABLE
  2
VPORT
 70
     1
  0
VPORT
  2
*ACTIVE
 70
     0
 10
0.0
 20
0.0
 11
1.0
 21
1.0
 12
876.2849644005774508
 22
403.2272489503646966
 13
0.0
 23
0.0
 14
1.0
 24
1.0
 15
0.0
 25
0.0
 16
0.0
 26
0.0
 36
60.4960186965801583
 17
3911.3653564453120453
 27
132.5796051025390057
 37
0.0
 40
3.0170913515652269
 41
2.5123966942148761
 42
50.0
 43
0.0
 44
0.0
 50
0.0
 51
0.0
 71
     0
 72
   100
 73
     1
 74
     1
 75
     0
 76
     0
 77
     0
 78
     0
  0
ENDTAB
  0
TABLE
  2
LTYPE
 70
     2
  0
LTYPE
  2
CONTINUOUS
 70
     0
  3
Solid line
 72
    65
 73
     0
 40
0.0
  0
LTYPE
  2
PHANTOM2
 70
     0
  3
___ _ _ ___ _ _ ___ _ _ ___ _ _
 72
    65
 73
     6
 40
1.25
 49
0.625
 49
-0.125
 49
0.125
 49
-0.125
 49
0.125
 49
-0.125
  0
ENDTAB
  0
TABLE
  2
LAYER
 70
     2
  0
LAYER
  2
0
 70
     0
 62
   255
  6
CONTINUOUS
  0
LAYER
  2
DEFPOINTS
 70
     0
 62
     7
  6
CONTINUOUS
  0
ENDTAB
  0
TABLE
  2
STYLE
 70
     1
  0
STYLE
  2
STANDARD
 70
     0
 40
0.0
 41
0.8
 50
0.0
 71
     0
 42
0.2
  3
txt
  4

  0
ENDTAB
  0
TABLE
  2
VIEW
 70
     0
  0
ENDTAB
  0
TABLE
  2
UCS
 70
     0
  0
ENDTAB
  0
TABLE
  2
APPID
 70
    11
  0
APPID
  2
ACAD
 70
     0
  0
APPID
  2
ACAD_MLEADERVER
 70
     0
  0
APPID
  2
ACAD_EXEMPT_FROM_CAD_STANDARDS
 70
     0
  0
APPID
  2
ACAD_NAV_VCDISPLAY
 70
     0
  0
APPID
  2
ACAECLAYERSTANDARD
 70
     0
  0
APPID
  2
ACCMTRANSPARENCY
 70
     0
  0
APPID
  2
ACAD_DSTYLE_DIMJAG
 70
     0
  0
APPID
  2
ACAD_DSTYLE_DIMTALN
 70
     0
  0
APPID
  2
ACDBATTR
 70
     0
  0
APPID
  2
ACADANNOTATIVE
 70
     0
  0
APPID
  2
DCO15
 70
     0
  0
ENDTAB
  0
TABLE
  2
DIMSTYLE
 70
     1
  0
DIMSTYLE
  2
STANDARD
 70
     0
  3

  4

  5

  6

  7

 40
1.0
 41
0.1875
 42
0.0625
 43
0.38
 44
0.125
 45
0.0
 46
0.0
 47
0.01
 48
0.01
140
0.15625
141
0.09
142
0.0
143
25.3999999999999986
144
1.0
145
0.0
146
1.0
147
0.09
 71
     1
 72
     0
 73
     1
 74
     1
 75
     0
 76
     0
 77
     0
 78
     4
170
     0
171
     2
172
     0
173
     0
174
     0
175
     0
176
     0
177
     0
178
     0
  0
ENDTAB
  0
ENDSEC
  0
SECTION
  2
BLOCKS
  0
BLOCK
  8
0
  2
$MODEL_SPACE
 70
     0
 10
0.0
 20
0.0
 30
0.0
  3
$MODEL_SPACE
  1

  0
ENDBLK
  5
21
  8
0
  0
BLOCK
 67
     1
  8
0
  2
$PAPER_SPACE
 70
     0
 10
0.0
 20
0.0
 30
0.0
  3
$PAPER_SPACE
  1

  0
ENDBLK
  5
1D
 67
     1
  8
0
  0
ENDSEC
  0
SECTION
  2
ENTITIES
  0
ATTDEF
  5
159BF
  8
DEFPOINTS
 10
4787.5861149421925802
 20
537.2783874718826382
 30
0.0
 40
0.001
  1
K-37064T
  3

  2
MODELNUMBER
 70
     0
1001
ACDBATTR
1070
     0
1070
     1
  0
ATTDEF
  5
159C0
  8
DEFPOINTS
 10
4787.5861149421925802
 20
537.2767206315033945
 30
0.0
 40
0.001
  1
AIRFOIL
  3

  2
TRADENAME
 70
     0
1001
ACDBATTR
1070
     0
1070
     1
  0
ATTDEF
  5
159C1
  8
DEFPOINTS
 10
4787.5861149421925802
 20
537.2750541385491942
 30
0.0
 40
0.001
  1
TOWEL RING
  3

  2
PRODUCT
 70
     0
1001
ACDBATTR
1070
     0
1070
     1
  0
LINE
  5
1E72E
  8
0
 10
4784.2633182266999938
 20
537.2750530295168119
 30
0.0
 11
4785.223907929557754
 21
537.2750530295168119
 31
0.0
  0
LINE
  5
1E72F
  8
0
 10
4789.9483173745547901
 20
537.2750530295168119
 30
0.0
 11
4790.9089070807331154
 21
537.2750530295168119
 31
0.0
  0
ARC
  5
1E730
  8
0
 10
4797.0161201705523126
 20
537.2727905548429135
 30
0.0
 40
12.7528021445448907
 50
179.9898351555017939
 51
182.9259499968158877
  0
ARC
  5
1E731
  8
0
 10
4791.4194921115540637
 20
536.9880370796773832
 30
0.0
 40
7.1489349832268818
 50
182.9363619432307928
 51
188.2498830516632893
  0
ARC
  5
1E732
  8
0
 10
4788.1092581985849392
 20
536.5102444680918552
 30
0.0
 40
3.8043982830114591
 50
188.2821002157554915
 51
196.3680091051193983
  0
ARC
  5
1E733
  8
0
 10
4785.6133383651585973
 20
535.5308347240173816
 30
0.0
 40
1.1045615275835501
 50
207.5999289836709067
 51
255.3928512761133049
  0
ARC
  5
1E734
  8
0
 10
4786.407509437562112
 20
536.007583778306639
 30
0.0
 40
2.0299680396630788
 50
196.2910692912278989
 51
209.1401125285009925
  0
ARC
  5
1E735
  8
0
 10
4787.5863532169360042
 20
691.923962698927653
 30
0.0
 40
157.5794362109147926
 50
269.686145619625222
 51
270.3136794406570971
  0
ARC
  5
1E736
  8
0
 10
4786.8566036777820045
 20
552.315821271999539
 30
0.0
 40
17.9694260274122009
 50
267.5052045935884735
 51
269.5745411941230145
  0
ARC
  5
1E737
  8
0
 10
4786.1705560307673295
 20
537.9098815167249086
 30
0.0
 40
3.547757282579354
 50
256.3742442017119743
 51
268.4472115232272245
  0
ARC
  5
1E738
  8
0
 10
4787.5861600217904197
 20
560.9777499681780455
 30
0.0
 40
26.1436427020545601
 50
268.4067897881042768
 51
271.5930025112040198
  0
ARC
  5
1E739
  8
0
 10
4787.0302265968575739
 20
539.5865867736459904
 30
0.0
 40
4.7454527109019349
 50
260.9757467907829209
 51
267.9356170759098177
  0
ARC
  5
1E73A
  8
0
 10
4786.5748146305450064
 20
536.7190852435434181
 30
0.0
 40
1.8420124955364701
 50
245.3713469265674973
 51
260.9757467907829209
  0
ARC
  5
1E73B
  8
0
 10
4786.0425370662042042
 20
535.5580246149380628
 30
0.0
 40
0.5647571613144895
 50
215.2310669375416126
 51
245.3713469265674973
  0
ARC
  5
1E73C
  8
0
 10
4787.0044748929767593
 20
536.1472319655342744
 30
0.0
 40
1.6920011673302899
 50
191.6898045153573094
 51
212.7368097262437914
  0
ARC
  5
1E73D
  8
0
 10
4790.5631940632119949
 20
536.9092140851186059
 30
0.0
 40
5.331355283347011
 50
181.3810374948027118
 51
191.9599281530034887
  0
ARC
  5
1E73E
  8
0
 10
4797.2187827816260324
 20
537.2578147357886564
 30
0.0
 40
11.9948872389679106
 50
179.9176580990740035
 51
182.2795251678161037
  0
ARC
  5
1E73F
  8
0
 10
4778.1561051373482769
 20
537.2727879200429015
 30
0.0
 40
12.7528021445448907
 50
357.074050003184027
 51
0.0101766821268059
  0
ARC
  5
1E740
  8
0
 10
4783.7527331963456163
 20
536.9880344448773712
 30
0.0
 40
7.1489349832268818
 50
351.7501169483367107
 51
357.0636380567692072
  0
ARC
  5
1E741
  8
0
 10
4787.0629671093156503
 20
536.5102418332918432
 30
0.0
 40
3.8043982830114591
 50
343.6319908948805733
 51
351.7178997842444801
  0
ARC
  5
1E742
  8
0
 10
4789.5588869427410827
 20
535.5308320892173697
 30
0.0
 40
1.1045615275835501
 50
284.6071487238867235
 51
332.4000710163290933
  0
ARC
  5
1E743
  8
0
 10
4788.7647158703366586
 20
536.0075811435065134
 30
0.0
 40
2.0299680396630788
 50
330.8598874714990075
 51
343.7089307087720158
  0
ARC
  5
1E744
  8
0
 10
4788.315621630116766
 20
552.3158186371996408
 30
0.0
 40
17.9694260274122009
 50
270.4254588058769855
 51
272.4947954064115265
  0
ARC
  5
1E745
  8
0
 10
4789.00166927713326
 20
537.9098788819247829
 30
0.0
 40
3.547757282579354
 50
271.5527884767727755
 51
283.6257557982879121
  0
ARC
  5
1E746
  8
0
 10
4788.1419987110421062
 20
539.5865841388458648
 30
0.0
 40
4.7454527109019349
 50
272.0643829240901823
 51
279.0242532092170791
  0
ARC
  5
1E747
  8
0
 10
4788.5974106773555832
 20
536.7190826087432924
 30
0.0
 40
1.8420124955364701
 50
279.0242532092170791
 51
294.6286530734325879
  0
ARC
  5
1E748
  8
0
 10
4789.1296882416972949
 20
535.5580219801380508
 30
0.0
 40
0.5647571613144895
 50
294.6286530734325879
 51
324.7689330624584159
  0
ARC
  5
1E749
  8
0
 10
4788.1677504149229208
 20
536.1472293307342625
 30
0.0
 40
1.6920011673302899
 50
327.2631902737562086
 51
348.3101954846426906
  0
ARC
  5
1E74A
  8
0
 10
4784.6090312446885946
 20
536.9092114503187076
 30
0.0
 40
5.331355283347011
 50
348.0400718469965113
 51
358.618962505197203
  0
ARC
  5
1E74B
  8
0
 10
4777.9534425262736477
 20
537.2578121009886445
 30
0.0
 40
11.9948872389679106
 50
357.7204748321839247
 51
0.0823544865443897
  0
ENDSEC
  0
EOF
