  0
SECTION
  2
HEADER
  9
$ACADVER
  1
AC1009
  9
$INSBASE
 10
4787.251019599603751
 20
540.0793167029366941
 30
0.0
  9
$EXTMIN
 10
4775.0405768775026445
 20
539.6664773330782054
 30
-0.0000000000112498
  9
$EXTMAX
 10
4799.5737766567117433
 20
540.4956739963160999
 30
0.0000000000002956
  9
$LIMMIN
 10
0.0
 20
0.0
  9
$LIMMAX
 10
11.6929133858000007
 20
8.2677165353999982
  9
$ORTHOMODE
 70
     0
  9
$REGENMODE
 70
     1
  9
$FILLMODE
 70
     1
  9
$QTEXTMODE
 70
     0
  9
$MIRRTEXT
 70
     0
  9
$DRAGMODE
 70
     2
  9
$LTSCALE
 40
0.6431102362
  9
$OSMODE
 70
     7
  9
$ATTMODE
 70
     1
  9
$TEXTSIZE
 40
0.2
  9
$TRACEWID
 40
0.05
  9
$TEXTSTYLE
  7
STANDARD
  9
$CLAYER
  8
0
  9
$CELTYPE
  6
BYLAYER
  9
$CECOLOR
 62
   256
  9
$DIMSCALE
 40
1.0
  9
$DIMASZ
 40
0.1875
  9
$DIMEXO
 40
0.0625
  9
$DIMDLI
 40
0.4443307087
  9
$DIMRND
 40
0.0
  9
$DIMDLE
 40
0.0
  9
$DIMEXE
 40
0.125
  9
$DIMTP
 40
0.01
  9
$DIMTM
 40
0.01
  9
$DIMTXT
 40
2.0
  9
$DIMCEN
 40
0.1052362205
  9
$DIMTSZ
 40
0.0
  9
$DIMTOL
 70
     1
  9
$DIMLIM
 70
     0
  9
$DIMTIH
 70
     1
  9
$DIMTOH
 70
     1
  9
$DIMSE1
 70
     0
  9
$DIMSE2
 70
     0
  9
$DIMTAD
 70
     0
  9
$DIMZIN
 70
     0
  9
$DIMBLK
  1

  9
$DIMASO
 70
     1
  9
$DIMSHO
 70
     1
  9
$DIMPOST
  1
\X
  9
$DIMAPOST
  1

  9
$DIMALT
 70
     1
  9
$DIMALTD
 70
     2
  9
$DIMALTF
 40
25.3999999999999986
  9
$DIMLFAC
 40
1.0
  9
$DIMTOFL
 70
     0
  9
$DIMTVP
 40
0.0
  9
$DIMTIX
 70
     0
  9
$DIMSOXD
 70
     0
  9
$DIMSAH
 70
     0
  9
$DIMBLK1
  1

  9
$DIMBLK2
  1

  9
$DIMSTYLE
  2
STANDARD
  9
$DIMCLRD
 70
     0
  9
$DIMCLRE
 70
     0
  9
$DIMCLRT
 70
     0
  9
$DIMTFAC
 40
1.0
  9
$DIMGAP
 40
0.09
  9
$LUNITS
 70
     2
  9
$LUPREC
 70
     4
  9
$SKETCHINC
 40
0.1
  9
$FILLETRAD
 40
0.0
  9
$AUNITS
 70
     0
  9
$AUPREC
 70
     0
  9
$MENU
  1
.
  9
$ELEVATION
 40
0.0
  9
$PELEVATION
 40
0.0
  9
$THICKNESS
 40
0.0
  9
$LIMCHECK
 70
     0
  9
$BLIPMODE
 70
     0
  9
$CHAMFERA
 40
0.0
  9
$CHAMFERB
 40
0.0
  9
$SKPOLY
 70
     0
  9
$TDCREATE
 40
2458060.468368056230247
  9
$TDUPDATE
 40
2459383.9008449069224298
  9
$TDINDWG
 40
1.6419182176
  9
$TDUSRTIMER
 40
1.6419182176
  9
$USRTIMER
 70
     1
  9
$ANGBASE
 50
0.0
  9
$ANGDIR
 70
     0
  9
$PDMODE
 70
     0
  9
$PDSIZE
 40
0.3125
  9
$PLINEWID
 40
0.0
  9
$COORDS
 70
     1
  9
$SPLFRAME
 70
     0
  9
$SPLINETYPE
 70
     6
  9
$SPLINESEGS
 70
     8
  9
$ATTDIA
 70
     1
  9
$ATTREQ
 70
     1
  9
$HANDLING
 70
     1
  9
$HANDSEED
  5
1E655
  9
$SURFTAB1
 70
     6
  9
$SURFTAB2
 70
     6
  9
$SURFTYPE
 70
     6
  9
$SURFU
 70
     6
  9
$SURFV
 70
     6
  9
$UCSNAME
  2

  9
$UCSORG
 10
0.0
 20
0.0
 30
0.0
  9
$UCSXDIR
 10
1.0
 20
0.0
 30
0.0
  9
$UCSYDIR
 10
0.0
 20
1.0
 30
0.0
  9
$PUCSNAME
  2

  9
$PUCSORG
 10
0.0
 20
0.0
 30
0.0
  9
$PUCSXDIR
 10
1.0
 20
0.0
 30
0.0
  9
$PUCSYDIR
 10
0.0
 20
1.0
 30
0.0
  9
$USERI1
 70
     0
  9
$USERI2
 70
     0
  9
$USERI3
 70
     0
  9
$USERI4
 70
     0
  9
$USERI5
 70
     0
  9
$USERR1
 40
0.0
  9
$USERR2
 40
0.0
  9
$USERR3
 40
0.0
  9
$USERR4
 40
0.0
  9
$USERR5
 40
0.0
  9
$WORLDVIEW
 70
     1
  9
$SHADEDGE
 70
     3
  9
$SHADEDIF
 70
    70
  9
$TILEMODE
 70
     1
  9
$MAXACTVP
 70
    64
  9
$PLIMCHECK
 70
     0
  9
$PEXTMIN
 10
1.0000000000000000E+20
 20
1.0000000000000000E+20
 30
1.0000000000000000E+20
  9
$PEXTMAX
 10
-1.0000000000000000E+20
 20
-1.0000000000000000E+20
 30
-1.0000000000000000E+20
  9
$PLIMMIN
 10
0.0
 20
0.0
  9
$PLIMMAX
 10
12.0
 20
9.0
  9
$UNITMODE
 70
     0
  9
$VISRETAIN
 70
     1
  9
$PLINEGEN
 70
     0
  9
$PSLTSCALE
 70
     1
  0
ENDSEC
  0
SECTION
  2
TABLES
  0
TABLE
  2
VPORT
 70
     1
  0
VPORT
  2
*ACTIVE
 70
     0
 10
0.0
 20
0.0
 11
1.0
 21
1.0
 12
875.9418203217956034
 22
407.5014705621580902
 13
0.0
 23
0.0
 14
1.0
 24
1.0
 15
0.0
 25
0.0
 16
0.0
 26
0.0
 36
60.4960186965801583
 17
3911.3653564453120453
 27
132.5796051025390057
 37
0.0
 40
10.4910142820287895
 41
2.3461538461538458
 42
50.0
 43
0.0
 44
0.0
 50
0.0
 51
0.0
 71
     0
 72
   100
 73
     1
 74
     1
 75
     0
 76
     0
 77
     0
 78
     0
  0
ENDTAB
  0
TABLE
  2
LTYPE
 70
     2
  0
LTYPE
  2
CONTINUOUS
 70
     0
  3
Solid line
 72
    65
 73
     0
 40
0.0
  0
LTYPE
  2
PHANTOM2
 70
     0
  3
___ _ _ ___ _ _ ___ _ _ ___ _ _
 72
    65
 73
     6
 40
1.25
 49
0.625
 49
-0.125
 49
0.125
 49
-0.125
 49
0.125
 49
-0.125
  0
ENDTAB
  0
TABLE
  2
LAYER
 70
     2
  0
LAYER
  2
0
 70
     0
 62
   255
  6
CONTINUOUS
  0
LAYER
  2
DEFPOINTS
 70
     0
 62
     7
  6
CONTINUOUS
  0
ENDTAB
  0
TABLE
  2
STYLE
 70
     1
  0
STYLE
  2
STANDARD
 70
     0
 40
0.0
 41
0.8
 50
0.0
 71
     0
 42
0.2
  3
txt
  4

  0
ENDTAB
  0
TABLE
  2
VIEW
 70
     0
  0
ENDTAB
  0
TABLE
  2
UCS
 70
     0
  0
ENDTAB
  0
TABLE
  2
APPID
 70
    11
  0
APPID
  2
ACAD
 70
     0
  0
APPID
  2
ACAD_MLEADERVER
 70
     0
  0
APPID
  2
ACAD_EXEMPT_FROM_CAD_STANDARDS
 70
     0
  0
APPID
  2
ACAD_NAV_VCDISPLAY
 70
     0
  0
APPID
  2
ACAECLAYERSTANDARD
 70
     0
  0
APPID
  2
ACCMTRANSPARENCY
 70
     0
  0
APPID
  2
ACAD_DSTYLE_DIMJAG
 70
     0
  0
APPID
  2
ACAD_DSTYLE_DIMTALN
 70
     0
  0
APPID
  2
ACDBATTR
 70
     0
  0
APPID
  2
ACADANNOTATIVE
 70
     0
  0
APPID
  2
DCO15
 70
     0
  0
ENDTAB
  0
TABLE
  2
DIMSTYLE
 70
     1
  0
DIMSTYLE
  2
STANDARD
 70
     0
  3

  4

  5

  6

  7

 40
1.0
 41
0.1875
 42
0.0625
 43
0.38
 44
0.125
 45
0.0
 46
0.0
 47
0.01
 48
0.01
140
0.15625
141
0.09
142
0.0
143
25.3999999999999986
144
1.0
145
0.0
146
1.0
147
0.09
 71
     1
 72
     0
 73
     1
 74
     1
 75
     0
 76
     0
 77
     0
 78
     4
170
     0
171
     2
172
     0
173
     0
174
     0
175
     0
176
     0
177
     0
178
     0
  0
ENDTAB
  0
ENDSEC
  0
SECTION
  2
BLOCKS
  0
BLOCK
  8
0
  2
$MODEL_SPACE
 70
     0
 10
0.0
 20
0.0
 30
0.0
  3
$MODEL_SPACE
  1

  0
ENDBLK
  5
21
  8
0
  0
BLOCK
 67
     1
  8
0
  2
$PAPER_SPACE
 70
     0
 10
0.0
 20
0.0
 30
0.0
  3
$PAPER_SPACE
  1

  0
ENDBLK
  5
1D
 67
     1
  8
0
  0
ENDSEC
  0
SECTION
  2
ENTITIES
  0
ATTDEF
  5
159BF
  8
DEFPOINTS
 10
4787.2510193950092798
 20
540.0826529037211685
 30
0.0
 40
0.001
  1
K-37061T
  3

  2
MODELNUMBER
 70
     0
1001
ACDBATTR
1070
     0
1070
     1
  0
ATTDEF
  5
159C0
  8
DEFPOINTS
 10
4787.2510193950092798
 20
540.0809860633421522
 30
0.0
 40
0.001
  1
AIRFOIL
  3

  2
TRADENAME
 70
     0
1001
ACDBATTR
1070
     0
1070
     1
  0
ATTDEF
  5
159C1
  8
DEFPOINTS
 10
4787.2510193950092798
 20
540.0793195703879519
 30
0.0
 40
0.001
  1
TOWEL BAR
  3

  2
PRODUCT
 70
     0
1001
ACDBATTR
1070
     0
1070
     1
  0
ARC
  5
1E5A3
  8
0
 10
4798.0427089665126914
 20
540.2550208583223821
 30
0.0
 40
0.2365773650142333
 50
85.4202254260783036
 51
124.7418329430866066
  0
ARC
  5
1E5A4
  8
0
 10
4797.785890477832254
 20
537.0425221650581307
 30
0.0
 40
3.4593251945163872
 50
75.6104284745380681
 51
85.4286734599466087
  0
ARC
  5
1E5A5
  8
0
 10
4798.0252726211174377
 20
537.9270549341511014
 30
0.0
 40
2.5430804768117432
 50
69.0502991371735533
 51
75.8820053869312829
  0
ARC
  5
1E5A6
  8
0
 10
4798.5414924804190377
 20
539.2483200957942699
 30
0.0
 40
1.124626132693431
 50
54.7966374057934686
 51
69.543413990965476
  0
ARC
  5
1E5A7
  8
0
 10
4797.3347075866486193
 20
542.200087401134283
 30
0.0
 40
1.842107900238346
 50
280.6765907856254216
 51
291.874024802831002
  0
ARC
  5
1E5A8
  8
0
 10
4796.7462990868998531
 20
545.048736511089146
 30
0.0
 40
4.7507224695621204
 50
275.5639466616335085
 51
281.2852555298015886
  0
ARC
  5
1E5A9
  8
0
 10
4796.5641579584907959
 20
546.8266806934849456
 30
0.0
 40
6.5379559058524803
 50
272.2918661395634103
 51
275.6419380574781144
  0
ARC
  5
1E5AA
  8
0
 10
4796.5021013008163209
 20
548.4421501944510737
 30
0.0
 40
8.1546152194254269
 50
270.0062302986576128
 51
272.2736295730875895
  0
LINE
  5
1E5AB
  8
0
 10
4796.5029880273568779
 20
540.2875350232366145
 30
0.0
 11
4777.9990511718506241
 21
540.2875350232366145
 31
0.0
  0
ARC
  5
1E5AC
  8
0
 10
4799.1225528884042433
 20
540.0793167029366941
 30
0.0
 40
0.1107218149508088
 50
307.4095210977382067
 51
52.5904789022618431
  0
ARC
  5
1E5AD
  8
0
 10
4798.0427089665126914
 20
539.9036125475507788
 30
0.0
 40
0.2365773650142333
 50
235.2581670569132939
 51
274.5797745739217248
  0
ARC
  5
1E5AE
  8
0
 10
4797.785890477832254
 20
543.1161112408151439
 30
0.0
 40
3.4593251945163872
 50
274.5713265400532919
 51
281.3960779233378844
  0
ARC
  5
1E5AF
  8
0
 10
4797.785890477832254
 20
543.1161112408151439
 30
0.0
 40
3.4593251945163872
 50
281.944876082313499
 51
284.3895715254619745
  0
ARC
  5
1E5B0
  8
0
 10
4798.0252726211174377
 20
542.2315784717219458
 30
0.0
 40
2.5430804768117432
 50
284.1179946130686744
 51
290.9497008628263757
  0
ARC
  5
1E5B1
  8
0
 10
4798.5414924804190377
 20
540.9103133100788909
 30
0.0
 40
1.124626132693431
 50
290.4565860090344813
 51
305.2033625942066237
  0
ARC
  5
1E5B2
  8
0
 10
4797.3347075866486193
 20
537.9585460047388779
 30
0.0
 40
1.842107900238346
 50
68.1259751971689838
 51
79.3234092143745926
  0
ARC
  5
1E5B3
  8
0
 10
4796.7462990868998531
 20
535.1098968947841286
 30
0.0
 40
4.7507224695621204
 50
78.7147444701984398
 51
84.4360533383664631
  0
ARC
  5
1E5B4
  8
0
 10
4796.5641579584907959
 20
533.3319527123882153
 30
0.0
 40
6.5379559058524803
 50
84.3580619425219425
 51
87.7081338604366607
  0
ARC
  5
1E5B5
  8
0
 10
4796.5021013008163209
 20
531.7164832114220872
 30
0.0
 40
8.1546152194254269
 50
87.7263704269124247
 51
89.993769701342444
  0
LINE
  5
1E5B6
  8
0
 10
4796.5029880273568779
 20
539.8710983826365464
 30
0.0
 11
4777.9990511718506241
 21
539.8710983826365464
 31
0.0
  0
ARC
  5
1E5B7
  8
0
 10
4776.4593302326948105
 20
540.2550208583223821
 30
0.0
 40
0.2365773650142333
 50
55.2581670569133294
 51
94.5797745739216822
  0
ARC
  5
1E5B8
  8
0
 10
4776.7161487213761575
 20
537.0425221650581307
 30
0.0
 40
3.4593251945163872
 50
94.5713265400534056
 51
104.3895715254619034
  0
ARC
  5
1E5B9
  8
0
 10
4776.4767665780909738
 20
537.9270549341511014
 30
0.0
 40
2.5430804768117432
 50
104.1179946130687028
 51
110.9497008628264041
  0
ARC
  5
1E5BA
  8
0
 10
4775.9605467187893737
 20
539.2483200957942699
 30
0.0
 40
1.124626132693431
 50
110.4565860090344955
 51
125.2033625942064958
  0
ARC
  5
1E5BB
  8
0
 10
4777.1673316125597921
 20
542.200087401134283
 30
0.0
 40
1.842107900238346
 50
248.125975197168998
 51
259.3234092143745784
  0
ARC
  5
1E5BC
  8
0
 10
4777.7557401123067393
 20
545.048736511089146
 30
0.0
 40
4.7507224695621204
 50
258.7147444701984114
 51
264.4360533383664915
  0
ARC
  5
1E5BD
  8
0
 10
4777.9378812407167061
 20
546.8266806934849456
 30
0.0
 40
6.5379559058524803
 50
264.3580619425219993
 51
267.7081338604367033
  0
ARC
  5
1E5BE
  8
0
 10
4777.9999378983930001
 20
548.4421501944510737
 30
0.0
 40
8.1546152194254269
 50
267.7263704269124105
 51
269.9937697013425009
  0
ARC
  5
1E5BF
  8
0
 10
4775.3794863108041682
 20
540.0793167029366941
 30
0.0
 40
0.1107218149508088
 50
127.409521097738093
 51
232.5904789022617933
  0
ARC
  5
1E5C0
  8
0
 10
4776.4593302326948105
 20
539.9036125475507788
 30
0.0
 40
0.2365773650142333
 50
265.4202254260782752
 51
304.7418329430865924
  0
ARC
  5
1E5C1
  8
0
 10
4776.7161487213761575
 20
543.1161112408151439
 30
0.0
 40
3.4593251945163872
 50
255.6104284745379971
 51
258.0551239176863874
  0
ARC
  5
1E5C2
  8
0
 10
4776.7161487213761575
 20
543.1161112408151439
 30
0.0
 40
3.4593251945163872
 50
258.6039220766621156
 51
265.4286734599465944
  0
ARC
  5
1E5C3
  8
0
 10
4776.4767665780909738
 20
542.2315784717219458
 30
0.0
 40
2.5430804768117432
 50
249.0502991371735106
 51
255.8820053869312119
  0
ARC
  5
1E5C4
  8
0
 10
4775.9605467187893737
 20
540.9103133100788909
 30
0.0
 40
1.124626132693431
 50
234.7966374057934047
 51
249.543413990965405
  0
ARC
  5
1E5C5
  8
0
 10
4777.1673316125597921
 20
537.9585460047388779
 30
0.0
 40
1.842107900238346
 50
100.6765907856253932
 51
111.874024802831002
  0
ARC
  5
1E5C6
  8
0
 10
4777.7557401123067393
 20
535.1098968947841286
 30
0.0
 40
4.7507224695621204
 50
95.5639466616335369
 51
101.2852555298015034
  0
ARC
  5
1E5C7
  8
0
 10
4777.9378812407167061
 20
533.3319527123882153
 30
0.0
 40
6.5379559058524803
 50
92.2918661395633393
 51
95.6419380574780433
  0
ARC
  5
1E5C8
  8
0
 10
4777.9999378983930001
 20
531.7164832114220872
 30
0.0
 40
8.1546152194254269
 50
90.006230298657556
 51
92.2736295730876037
  0
ARC
  5
1E5C9
  8
0
 10
4798.8549947367773711
 20
537.3431282367349695
 30
0.0
 40
2.4176382082012942
 50
98.3096074856405693
 51
102.7078507745628997
  0
ARC
  5
1E5CA
  8
0
 10
4798.1550181205539047
 20
541.1163998985415446
 30
0.0
 40
1.424811271077391
 50
276.7773851348385961
 51
282.4301968143947761
  0
LINE
  5
1E5CB
  8
0
 10
4798.5055925257156559
 20
539.7353850374696549
 30
0.0
 11
4798.4951139581544339
 21
539.7249876713366348
 31
0.0
  0
LINE
  5
1E5CC
  8
0
 10
4798.4951139581544339
 20
539.7249876713366348
 30
0.0
 11
4798.4406034487956276
 21
539.7249876713366348
 31
0.0
  0
ARC
  5
1E5CE
  8
0
 10
4775.6470444624319498
 20
537.3431282367349695
 30
0.0
 40
2.4176382082012942
 50
77.2921492254371145
 51
81.6903925143594449
  0
ARC
  5
1E5CF
  8
0
 10
4776.3470210786535972
 20
541.1163998985415446
 30
0.0
 40
1.424811271077391
 50
257.5698031856052239
 51
263.2226148651612903
  0
LINE
  5
1E5D0
  8
0
 10
4775.996446673491846
 20
539.7353850374696549
 30
0.0
 11
4776.0069252410539775
 21
539.7249876713366348
 31
0.0
  0
LINE
  5
1E5D1
  8
0
 10
4776.0069252410539775
 20
539.7249876713366348
 30
0.0
 11
4776.0614357504118743
 21
539.7249876713366348
 31
0.0
  0
LINE
  5
1E5D2
  8
0
 10
4799.2332747033542546
 20
540.0793167029366941
 30
0.0
 11
4775.2687644958541568
 21
540.0793167029366941
 31
0.0
  0
ENDSEC
  0
EOF
