  0
SECTION
  2
HEADER
  9
$ACADVER
  1
AC1009
  9
$INSBASE
 10
4786.7316216101862665
 20
532.35296061000804
 30
0.0
  9
$EXTMIN
 10
4774.5305908742302563
 20
529.6298018829502325
 30
-0.0000000349181948
  9
$EXTMAX
 10
4799.0611704477469175
 20
532.377056467036482
 30
0.0000000814935746
  9
$LIMMIN
 10
0.0
 20
0.0
  9
$LIMMAX
 10
11.6929133858000007
 20
8.2677165353999982
  9
$ORTHOMODE
 70
     0
  9
$REGENMODE
 70
     1
  9
$FILLMODE
 70
     1
  9
$QTEXTMODE
 70
     0
  9
$MIRRTEXT
 70
     0
  9
$DRAGMODE
 70
     2
  9
$LTSCALE
 40
0.6431102362
  9
$OSMODE
 70
     7
  9
$ATTMODE
 70
     1
  9
$TEXTSIZE
 40
0.2
  9
$TRACEWID
 40
0.05
  9
$TEXTSTYLE
  7
STANDARD
  9
$CLAYER
  8
0
  9
$CELTYPE
  6
BYLAYER
  9
$CECOLOR
 62
   256
  9
$DIMSCALE
 40
1.0
  9
$DIMASZ
 40
0.1875
  9
$DIMEXO
 40
0.0625
  9
$DIMDLI
 40
0.4443307087
  9
$DIMRND
 40
0.0
  9
$DIMDLE
 40
0.0
  9
$DIMEXE
 40
0.125
  9
$DIMTP
 40
0.01
  9
$DIMTM
 40
0.01
  9
$DIMTXT
 40
2.0
  9
$DIMCEN
 40
0.1052362205
  9
$DIMTSZ
 40
0.0
  9
$DIMTOL
 70
     1
  9
$DIMLIM
 70
     0
  9
$DIMTIH
 70
     1
  9
$DIMTOH
 70
     1
  9
$DIMSE1
 70
     0
  9
$DIMSE2
 70
     0
  9
$DIMTAD
 70
     0
  9
$DIMZIN
 70
     0
  9
$DIMBLK
  1

  9
$DIMASO
 70
     1
  9
$DIMSHO
 70
     1
  9
$DIMPOST
  1
\X
  9
$DIMAPOST
  1

  9
$DIMALT
 70
     1
  9
$DIMALTD
 70
     2
  9
$DIMALTF
 40
25.3999999999999986
  9
$DIMLFAC
 40
1.0
  9
$DIMTOFL
 70
     0
  9
$DIMTVP
 40
0.0
  9
$DIMTIX
 70
     0
  9
$DIMSOXD
 70
     0
  9
$DIMSAH
 70
     0
  9
$DIMBLK1
  1

  9
$DIMBLK2
  1

  9
$DIMSTYLE
  2
STANDARD
  9
$DIMCLRD
 70
     0
  9
$DIMCLRE
 70
     0
  9
$DIMCLRT
 70
     0
  9
$DIMTFAC
 40
1.0
  9
$DIMGAP
 40
0.09
  9
$LUNITS
 70
     2
  9
$LUPREC
 70
     4
  9
$SKETCHINC
 40
0.1
  9
$FILLETRAD
 40
0.0
  9
$AUNITS
 70
     0
  9
$AUPREC
 70
     0
  9
$MENU
  1
.
  9
$ELEVATION
 40
0.0
  9
$PELEVATION
 40
0.0
  9
$THICKNESS
 40
0.0
  9
$LIMCHECK
 70
     0
  9
$BLIPMODE
 70
     0
  9
$CHAMFERA
 40
0.0
  9
$CHAMFERB
 40
0.0
  9
$SKPOLY
 70
     0
  9
$TDCREATE
 40
2458060.468368056230247
  9
$TDUPDATE
 40
2459383.8158333338797092
  9
$TDINDWG
 40
1.6368834954
  9
$TDUSRTIMER
 40
1.6368834954
  9
$USRTIMER
 70
     1
  9
$ANGBASE
 50
0.0
  9
$ANGDIR
 70
     0
  9
$PDMODE
 70
     0
  9
$PDSIZE
 40
0.3125
  9
$PLINEWID
 40
0.0
  9
$COORDS
 70
     1
  9
$SPLFRAME
 70
     0
  9
$SPLINETYPE
 70
     6
  9
$SPLINESEGS
 70
     8
  9
$ATTDIA
 70
     1
  9
$ATTREQ
 70
     1
  9
$HANDLING
 70
     1
  9
$HANDSEED
  5
1E5DC
  9
$SURFTAB1
 70
     6
  9
$SURFTAB2
 70
     6
  9
$SURFTYPE
 70
     6
  9
$SURFU
 70
     6
  9
$SURFV
 70
     6
  9
$UCSNAME
  2

  9
$UCSORG
 10
0.0
 20
0.0
 30
0.0
  9
$UCSXDIR
 10
1.0
 20
0.0
 30
0.0
  9
$UCSYDIR
 10
0.0
 20
1.0
 30
0.0
  9
$PUCSNAME
  2

  9
$PUCSORG
 10
0.0
 20
0.0
 30
0.0
  9
$PUCSXDIR
 10
1.0
 20
0.0
 30
0.0
  9
$PUCSYDIR
 10
0.0
 20
1.0
 30
0.0
  9
$USERI1
 70
     0
  9
$USERI2
 70
     0
  9
$USERI3
 70
     0
  9
$USERI4
 70
     0
  9
$USERI5
 70
     0
  9
$USERR1
 40
0.0
  9
$USERR2
 40
0.0
  9
$USERR3
 40
0.0
  9
$USERR4
 40
0.0
  9
$USERR5
 40
0.0
  9
$WORLDVIEW
 70
     1
  9
$SHADEDGE
 70
     3
  9
$SHADEDIF
 70
    70
  9
$TILEMODE
 70
     1
  9
$MAXACTVP
 70
    64
  9
$PLIMCHECK
 70
     0
  9
$PEXTMIN
 10
1.0000000000000000E+20
 20
1.0000000000000000E+20
 30
1.0000000000000000E+20
  9
$PEXTMAX
 10
-1.0000000000000000E+20
 20
-1.0000000000000000E+20
 30
-1.0000000000000000E+20
  9
$PLIMMIN
 10
0.0
 20
0.0
  9
$PLIMMAX
 10
12.0
 20
9.0
  9
$UNITMODE
 70
     0
  9
$VISRETAIN
 70
     1
  9
$PLINEGEN
 70
     0
  9
$PSLTSCALE
 70
     1
  0
ENDSEC
  0
SECTION
  2
TABLES
  0
TABLE
  2
VPORT
 70
     1
  0
VPORT
  2
*ACTIVE
 70
     0
 10
0.0
 20
0.0
 11
1.0
 21
1.0
 12
875.4305242156759732
 22
398.4238240724542948
 13
0.0
 23
0.0
 14
1.0
 24
1.0
 15
0.0
 25
0.0
 16
0.0
 26
0.0
 36
60.4960186965801583
 17
3911.3653564453120453
 27
132.5796051025390057
 37
0.0
 40
10.4898938160647699
 41
2.3461538461538458
 42
50.0
 43
0.0
 44
0.0
 50
0.0
 51
0.0
 71
     0
 72
   100
 73
     1
 74
     1
 75
     0
 76
     0
 77
     0
 78
     0
  0
ENDTAB
  0
TABLE
  2
LTYPE
 70
     2
  0
LTYPE
  2
CONTINUOUS
 70
     0
  3
Solid line
 72
    65
 73
     0
 40
0.0
  0
LTYPE
  2
PHANTOM2
 70
     0
  3
___ _ _ ___ _ _ ___ _ _ ___ _ _
 72
    65
 73
     6
 40
1.25
 49
0.625
 49
-0.125
 49
0.125
 49
-0.125
 49
0.125
 49
-0.125
  0
ENDTAB
  0
TABLE
  2
LAYER
 70
     2
  0
LAYER
  2
0
 70
     0
 62
   255
  6
CONTINUOUS
  0
LAYER
  2
DEFPOINTS
 70
     0
 62
     7
  6
CONTINUOUS
  0
ENDTAB
  0
TABLE
  2
STYLE
 70
     1
  0
STYLE
  2
STANDARD
 70
     0
 40
0.0
 41
0.8
 50
0.0
 71
     0
 42
0.2
  3
txt
  4

  0
ENDTAB
  0
TABLE
  2
VIEW
 70
     0
  0
ENDTAB
  0
TABLE
  2
UCS
 70
     0
  0
ENDTAB
  0
TABLE
  2
APPID
 70
    11
  0
APPID
  2
ACAD
 70
     0
  0
APPID
  2
ACAD_MLEADERVER
 70
     0
  0
APPID
  2
ACAD_EXEMPT_FROM_CAD_STANDARDS
 70
     0
  0
APPID
  2
ACAD_NAV_VCDISPLAY
 70
     0
  0
APPID
  2
ACAECLAYERSTANDARD
 70
     0
  0
APPID
  2
ACCMTRANSPARENCY
 70
     0
  0
APPID
  2
ACAD_DSTYLE_DIMJAG
 70
     0
  0
APPID
  2
ACAD_DSTYLE_DIMTALN
 70
     0
  0
APPID
  2
ACDBATTR
 70
     0
  0
APPID
  2
ACADANNOTATIVE
 70
     0
  0
APPID
  2
DCO15
 70
     0
  0
ENDTAB
  0
TABLE
  2
DIMSTYLE
 70
     1
  0
DIMSTYLE
  2
STANDARD
 70
     0
  3

  4

  5

  6

  7

 40
1.0
 41
0.1875
 42
0.0625
 43
0.38
 44
0.125
 45
0.0
 46
0.0
 47
0.01
 48
0.01
140
0.15625
141
0.09
142
0.0
143
25.3999999999999986
144
1.0
145
0.0
146
1.0
147
0.09
 71
     1
 72
     0
 73
     1
 74
     1
 75
     0
 76
     0
 77
     0
 78
     4
170
     0
171
     2
172
     0
173
     0
174
     0
175
     0
176
     0
177
     0
178
     0
  0
ENDTAB
  0
ENDSEC
  0
SECTION
  2
BLOCKS
  0
BLOCK
  8
0
  2
$MODEL_SPACE
 70
     0
 10
0.0
 20
0.0
 30
0.0
  3
$MODEL_SPACE
  1

  0
ENDBLK
  5
21
  8
0
  0
BLOCK
 67
     1
  8
0
  2
$PAPER_SPACE
 70
     0
 10
0.0
 20
0.0
 30
0.0
  3
$PAPER_SPACE
  1

  0
ENDBLK
  5
1D
 67
     1
  8
0
  0
ENDSEC
  0
SECTION
  2
ENTITIES
  0
ATTDEF
  5
159BF
  8
DEFPOINTS
 10
4786.7316230765636647
 20
532.3562945287062576
 30
0.0
 40
0.001
  1
K-37060T
  3

  2
MODELNUMBER
 70
     0
1001
ACDBATTR
1070
     0
1070
     1
  0
ATTDEF
  5
159C0
  8
DEFPOINTS
 10
4786.7316230765636647
 20
532.3546276883272412
 30
0.0
 40
0.001
  1
AIRFOIL
  3

  2
TRADENAME
 70
     0
1001
ACDBATTR
1070
     0
1070
     1
  0
ATTDEF
  5
159C1
  8
DEFPOINTS
 10
4786.7316230765636647
 20
532.3529611953730409
 30
0.0
 40
0.001
  1
TOWEL BAR
  3

  2
PRODUCT
 70
     0
1001
ACDBATTR
1070
     0
1070
     1
  0
LINE
  5
1E541
  8
0
 10
4774.7493717603865662
 20
532.35296061000804
 30
0.0
 11
4776.2011117234860649
 21
532.35296061000804
 31
0.0
  0
LINE
  5
1E542
  8
0
 10
4797.2621314968873776
 20
532.35296061000804
 30
0.0
 11
4798.7138714599868763
 21
532.35296061000804
 31
0.0
  0
LINE
  5
1E543
  8
0
 10
4795.9835876496872515
 20
530.2407556810079541
 30
0.0
 11
4777.4796555706871004
 21
530.2407556810079541
 31
0.0
  0
LINE
  5
1E544
  8
0
 10
4795.9835876496872515
 20
529.6417940486079488
 30
0.0
 11
4777.4796555706871004
 21
529.6417940486079488
 31
0.0
  0
ARC
  5
1E545
  8
0
 10
4794.1380937918302152
 20
532.364042780306022
 30
0.0
 40
4.5757910882059347
 50
356.4047909634488178
 51
359.8612344413429014
  0
ARC
  5
1E546
  8
0
 10
4794.5810399199135645
 20
532.3362121567655549
 30
0.0
 40
4.1319715122623819
 50
347.5097166891978873
 51
356.4047909634488178
  0
ARC
  5
1E547
  8
0
 10
4796.5473104752682048
 20
531.8270361275406231
 30
0.0
 40
2.1033440181650098
 50
292.4301059005052821
 51
349.4679126459026861
  0
ARC
  5
1E548
  8
0
 10
4796.2719349256967689
 20
532.4702276448598468
 30
0.0
 40
2.8029614065131359
 50
280.2898013521974008
 51
292.6167040793031902
  0
ARC
  5
1E549
  8
0
 10
4795.9673488119833564
 20
534.2707861971397278
 30
0.0
 40
4.6290206319498717
 50
270.20099689477928
 51
280.0182238997999207
  0
ARC
  5
1E54A
  8
0
 10
4792.004690955192018
 20
532.1722982214896547
 30
0.0
 40
5.2605436932007663
 50
355.5169248999889078
 51
1.9680909092615519
  0
ARC
  5
1E54B
  8
0
 10
4794.7680443913359341
 20
531.9008108647458357
 30
0.0
 40
2.4850253493415262
 50
334.8809465775029821
 51
356.7772970720686203
  0
ARC
  5
1E54C
  8
0
 10
4796.0487729756423505
 20
531.318447642824367
 30
0.0
 40
1.0783291788399809
 50
298.4760492873239741
 51
334.0104640350896261
  0
ARC
  5
1E54D
  8
0
 10
4796.0364206750100493
 20
531.3994387618115525
 30
0.0
 40
1.155744564302797
 50
274.013707581137794
 51
297.0998208076823062
  0
ARC
  5
1E54E
  8
0
 10
4795.9660889187116481
 20
532.1978343116489896
 30
0.0
 40
1.9571568593491171
 50
270.5122822860740825
 51
274.4316253085647759
  0
ARC
  5
1E54F
  8
0
 10
4779.3251494285441368
 20
532.364042780306022
 30
0.0
 40
4.5757910882059347
 50
180.1387655586570986
 51
183.5952090365512106
  0
ARC
  5
1E550
  8
0
 10
4778.8822033004607874
 20
532.3362121567655549
 30
0.0
 40
4.1319715122623819
 50
183.5952090365512106
 51
192.490283310802198
  0
ARC
  5
1E551
  8
0
 10
4776.9159327451061472
 20
531.8270361275406231
 30
0.0
 40
2.1033440181650098
 50
190.5320873540972002
 51
247.5698940994946895
  0
ARC
  5
1E552
  8
0
 10
4777.1913082946766735
 20
532.4702276448598468
 30
0.0
 40
2.8029614065131359
 50
247.3832959206968098
 51
259.7101986478025992
  0
ARC
  5
1E553
  8
0
 10
4777.4958944083909955
 20
534.2707861971397278
 30
0.0
 40
4.6290206319498717
 50
259.9817761002000793
 51
269.7990031052206064
  0
ARC
  5
1E554
  8
0
 10
4781.4585522651814244
 20
532.1722982214896547
 30
0.0
 40
5.2605436932007663
 50
178.0319090907383952
 51
184.4830751000110922
  0
ARC
  5
1E555
  8
0
 10
4778.6951988290384179
 20
531.9008108647458357
 30
0.0
 40
2.4850253493415262
 50
183.2227029279312944
 51
205.1190534224969042
  0
ARC
  5
1E556
  8
0
 10
4777.4144702447320014
 20
531.318447642824367
 30
0.0
 40
1.0783291788399809
 50
205.9895359649102886
 51
241.5239507126759975
  0
ARC
  5
1E557
  8
0
 10
4777.4268225453643026
 20
531.3994387618115525
 30
0.0
 40
1.155744564302797
 50
242.9001791923176938
 51
265.986292418862206
  0
ARC
  5
1E558
  8
0
 10
4777.4971543016617943
 20
532.1978343116489896
 30
0.0
 40
1.9571568593491171
 50
265.5683746914352241
 51
269.4877177139259175
  0
ENDSEC
  0
EOF
