  0
SECTION
  2
HEADER
  9
$ACADVER
  1
AC1009
  9
$INSBASE
 10
4787.0297055102337254
 20
542.6942431108827805
 30
0.0
  9
$EXTMIN
 10
4774.8967190109488001
 20
542.2698152911485749
 30
-0.0000000349181948
  9
$EXTMAX
 10
4799.0611704477469175
 20
543.134508054812386
 30
0.0000000814935746
  9
$LIMMIN
 10
0.0
 20
0.0
  9
$LIMMAX
 10
11.6929133858000007
 20
8.2677165353999982
  9
$ORTHOMODE
 70
     0
  9
$REGENMODE
 70
     1
  9
$FILLMODE
 70
     1
  9
$QTEXTMODE
 70
     0
  9
$MIRRTEXT
 70
     0
  9
$DRAGMODE
 70
     2
  9
$LTSCALE
 40
0.6431102362
  9
$OSMODE
 70
     7
  9
$ATTMODE
 70
     1
  9
$TEXTSIZE
 40
0.2
  9
$TRACEWID
 40
0.05
  9
$TEXTSTYLE
  7
STANDARD
  9
$CLAYER
  8
0
  9
$CELTYPE
  6
BYLAYER
  9
$CECOLOR
 62
   256
  9
$DIMSCALE
 40
1.0
  9
$DIMASZ
 40
0.1875
  9
$DIMEXO
 40
0.0625
  9
$DIMDLI
 40
0.4443307087
  9
$DIMRND
 40
0.0
  9
$DIMDLE
 40
0.0
  9
$DIMEXE
 40
0.125
  9
$DIMTP
 40
0.01
  9
$DIMTM
 40
0.01
  9
$DIMTXT
 40
2.0
  9
$DIMCEN
 40
0.1052362205
  9
$DIMTSZ
 40
0.0
  9
$DIMTOL
 70
     1
  9
$DIMLIM
 70
     0
  9
$DIMTIH
 70
     1
  9
$DIMTOH
 70
     1
  9
$DIMSE1
 70
     0
  9
$DIMSE2
 70
     0
  9
$DIMTAD
 70
     0
  9
$DIMZIN
 70
     0
  9
$DIMBLK
  1

  9
$DIMASO
 70
     1
  9
$DIMSHO
 70
     1
  9
$DIMPOST
  1
\X
  9
$DIMAPOST
  1

  9
$DIMALT
 70
     1
  9
$DIMALTD
 70
     2
  9
$DIMALTF
 40
25.3999999999999986
  9
$DIMLFAC
 40
1.0
  9
$DIMTOFL
 70
     0
  9
$DIMTVP
 40
0.0
  9
$DIMTIX
 70
     0
  9
$DIMSOXD
 70
     0
  9
$DIMSAH
 70
     0
  9
$DIMBLK1
  1

  9
$DIMBLK2
  1

  9
$DIMSTYLE
  2
STANDARD
  9
$DIMCLRD
 70
     0
  9
$DIMCLRE
 70
     0
  9
$DIMCLRT
 70
     0
  9
$DIMTFAC
 40
1.0
  9
$DIMGAP
 40
0.09
  9
$LUNITS
 70
     2
  9
$LUPREC
 70
     4
  9
$SKETCHINC
 40
0.1
  9
$FILLETRAD
 40
0.0
  9
$AUNITS
 70
     0
  9
$AUPREC
 70
     0
  9
$MENU
  1
.
  9
$ELEVATION
 40
0.0
  9
$PELEVATION
 40
0.0
  9
$THICKNESS
 40
0.0
  9
$LIMCHECK
 70
     0
  9
$BLIPMODE
 70
     0
  9
$CHAMFERA
 40
0.0
  9
$CHAMFERB
 40
0.0
  9
$SKPOLY
 70
     0
  9
$TDCREATE
 40
2458060.468368056230247
  9
$TDUPDATE
 40
2459383.8147916668094695
  9
$TDINDWG
 40
1.6352168287
  9
$TDUSRTIMER
 40
1.6352168287
  9
$USRTIMER
 70
     1
  9
$ANGBASE
 50
0.0
  9
$ANGDIR
 70
     0
  9
$PDMODE
 70
     0
  9
$PDSIZE
 40
0.3125
  9
$PLINEWID
 40
0.0
  9
$COORDS
 70
     1
  9
$SPLFRAME
 70
     0
  9
$SPLINETYPE
 70
     6
  9
$SPLINESEGS
 70
     8
  9
$ATTDIA
 70
     1
  9
$ATTREQ
 70
     1
  9
$HANDLING
 70
     1
  9
$HANDSEED
  5
1E545
  9
$SURFTAB1
 70
     6
  9
$SURFTAB2
 70
     6
  9
$SURFTYPE
 70
     6
  9
$SURFU
 70
     6
  9
$SURFV
 70
     6
  9
$UCSNAME
  2

  9
$UCSORG
 10
0.0
 20
0.0
 30
0.0
  9
$UCSXDIR
 10
1.0
 20
0.0
 30
0.0
  9
$UCSYDIR
 10
0.0
 20
1.0
 30
0.0
  9
$PUCSNAME
  2

  9
$PUCSORG
 10
0.0
 20
0.0
 30
0.0
  9
$PUCSXDIR
 10
1.0
 20
0.0
 30
0.0
  9
$PUCSYDIR
 10
0.0
 20
1.0
 30
0.0
  9
$USERI1
 70
     0
  9
$USERI2
 70
     0
  9
$USERI3
 70
     0
  9
$USERI4
 70
     0
  9
$USERI5
 70
     0
  9
$USERR1
 40
0.0
  9
$USERR2
 40
0.0
  9
$USERR3
 40
0.0
  9
$USERR4
 40
0.0
  9
$USERR5
 40
0.0
  9
$WORLDVIEW
 70
     1
  9
$SHADEDGE
 70
     3
  9
$SHADEDIF
 70
    70
  9
$TILEMODE
 70
     1
  9
$MAXACTVP
 70
    64
  9
$PLIMCHECK
 70
     0
  9
$PEXTMIN
 10
1.0000000000000000E+20
 20
1.0000000000000000E+20
 30
1.0000000000000000E+20
  9
$PEXTMAX
 10
-1.0000000000000000E+20
 20
-1.0000000000000000E+20
 30
-1.0000000000000000E+20
  9
$PLIMMIN
 10
0.0
 20
0.0
  9
$PLIMMAX
 10
12.0
 20
9.0
  9
$UNITMODE
 70
     0
  9
$VISRETAIN
 70
     1
  9
$PLINEGEN
 70
     0
  9
$PSLTSCALE
 70
     1
  0
ENDSEC
  0
SECTION
  2
TABLES
  0
TABLE
  2
VPORT
 70
     1
  0
VPORT
  2
*ACTIVE
 70
     0
 10
0.0
 20
0.0
 11
1.0
 21
1.0
 12
875.6135882840353588
 22
410.1225565704414748
 13
0.0
 23
0.0
 14
1.0
 24
1.0
 15
0.0
 25
0.0
 16
0.0
 26
0.0
 36
60.4960186965801583
 17
3911.3653564453120453
 27
132.5796051025390057
 37
0.0
 40
10.3333282010641305
 41
2.3461538461538458
 42
50.0
 43
0.0
 44
0.0
 50
0.0
 51
0.0
 71
     0
 72
   100
 73
     1
 74
     1
 75
     0
 76
     0
 77
     0
 78
     0
  0
ENDTAB
  0
TABLE
  2
LTYPE
 70
     2
  0
LTYPE
  2
CONTINUOUS
 70
     0
  3
Solid line
 72
    65
 73
     0
 40
0.0
  0
LTYPE
  2
PHANTOM2
 70
     0
  3
___ _ _ ___ _ _ ___ _ _ ___ _ _
 72
    65
 73
     6
 40
1.25
 49
0.625
 49
-0.125
 49
0.125
 49
-0.125
 49
0.125
 49
-0.125
  0
ENDTAB
  0
TABLE
  2
LAYER
 70
     2
  0
LAYER
  2
0
 70
     0
 62
   255
  6
CONTINUOUS
  0
LAYER
  2
DEFPOINTS
 70
     0
 62
     7
  6
CONTINUOUS
  0
ENDTAB
  0
TABLE
  2
STYLE
 70
     1
  0
STYLE
  2
STANDARD
 70
     0
 40
0.0
 41
0.8
 50
0.0
 71
     0
 42
0.2
  3
txt
  4

  0
ENDTAB
  0
TABLE
  2
VIEW
 70
     0
  0
ENDTAB
  0
TABLE
  2
UCS
 70
     0
  0
ENDTAB
  0
TABLE
  2
APPID
 70
    11
  0
APPID
  2
ACAD
 70
     0
  0
APPID
  2
ACAD_MLEADERVER
 70
     0
  0
APPID
  2
ACAD_EXEMPT_FROM_CAD_STANDARDS
 70
     0
  0
APPID
  2
ACAD_NAV_VCDISPLAY
 70
     0
  0
APPID
  2
ACAECLAYERSTANDARD
 70
     0
  0
APPID
  2
ACCMTRANSPARENCY
 70
     0
  0
APPID
  2
ACAD_DSTYLE_DIMJAG
 70
     0
  0
APPID
  2
ACAD_DSTYLE_DIMTALN
 70
     0
  0
APPID
  2
ACDBATTR
 70
     0
  0
APPID
  2
ACADANNOTATIVE
 70
     0
  0
APPID
  2
DCO15
 70
     0
  0
ENDTAB
  0
TABLE
  2
DIMSTYLE
 70
     1
  0
DIMSTYLE
  2
STANDARD
 70
     0
  3

  4

  5

  6

  7

 40
1.0
 41
0.1875
 42
0.0625
 43
0.38
 44
0.125
 45
0.0
 46
0.0
 47
0.01
 48
0.01
140
0.15625
141
0.09
142
0.0
143
25.3999999999999986
144
1.0
145
0.0
146
1.0
147
0.09
 71
     1
 72
     0
 73
     1
 74
     1
 75
     0
 76
     0
 77
     0
 78
     4
170
     0
171
     2
172
     0
173
     0
174
     0
175
     0
176
     0
177
     0
178
     0
  0
ENDTAB
  0
ENDSEC
  0
SECTION
  2
BLOCKS
  0
BLOCK
  8
0
  2
$MODEL_SPACE
 70
     0
 10
0.0
 20
0.0
 30
0.0
  3
$MODEL_SPACE
  1

  0
ENDBLK
  5
21
  8
0
  0
BLOCK
 67
     1
  8
0
  2
$PAPER_SPACE
 70
     0
 10
0.0
 20
0.0
 30
0.0
  3
$PAPER_SPACE
  1

  0
ENDBLK
  5
1D
 67
     1
  8
0
  0
ENDSEC
  0
SECTION
  2
ENTITIES
  0
ATTDEF
  5
159BF
  8
DEFPOINTS
 10
4787.0297055119035576
 20
542.6975784028574026
 30
0.0
 40
0.001
  1
K-37060T
  3

  2
MODELNUMBER
 70
     0
1001
ACDBATTR
1070
     0
1070
     1
  0
ATTDEF
  5
159C0
  8
DEFPOINTS
 10
4787.0297055119035576
 20
542.6959115624781589
 30
0.0
 40
0.001
  1
AIRFOIL
  3

  2
TRADENAME
 70
     0
1001
ACDBATTR
1070
     0
1070
     1
  0
ATTDEF
  5
159C1
  8
DEFPOINTS
 10
4787.0297055119035576
 20
542.6942450695239586
 30
0.0
 40
0.001
  1
TOWEL BAR
  3

  2
PRODUCT
 70
     0
1001
ACDBATTR
1070
     0
1070
     1
  0
LINE
  5
1E497
  8
0
 10
4796.3828698874758629
 20
542.9024996352327435
 30
0.0
 11
4777.6765411329934068
 21
542.9024996352327435
 31
0.0
  0
LINE
  5
1E498
  8
0
 10
4796.3828698874758629
 20
542.4859865865328175
 30
0.0
 11
4777.6765411329934068
 21
542.4859865865328175
 31
0.0
  0
ARC
  5
1E499
  8
0
 10
4797.820915691533628
 20
542.870786043532803
 30
0.0
 40
0.2357712879000017
 50
85.5104193706961411
 51
144.1705905991273085
  0
ARC
  5
1E49A
  8
0
 10
4797.536247443573302
 20
539.4897928588435434
 30
0.0
 40
3.6287238558841208
 50
75.8446140704514704
 51
85.2082374919591388
  0
ARC
  5
1E49B
  8
0
 10
4798.0603948141979345
 20
541.3649757434783396
 30
0.0
 40
1.6830299331763861
 50
57.3596033264707188
 51
77.5351618090992503
  0
ARC
  5
1E49C
  8
0
 10
4797.5174722648025636
 20
543.3609377028088829
 30
0.0
 40
0.3696071228013534
 50
284.5418048425951838
 51
315.8353845485675038
  0
ARC
  5
1E49D
  8
0
 10
4797.1847522796324483
 20
544.6593867039736097
 30
0.0
 40
1.7100059458928889
 50
278.2025185574111106
 51
284.4090668361720873
  0
ARC
  5
1E49E
  8
0
 10
4796.5962992112326901
 20
548.9360240685715553
 30
0.0
 40
6.0269129478843482
 50
272.5376817552303805
 51
277.9389444598604086
  0
ARC
  5
1E49F
  8
0
 10
4796.3322627812885912
 20
554.0603409819508443
 30
0.0
 40
11.1579561120184803
 50
270.2598669066035768
 51
272.7271166849444057
  0
ARC
  5
1E4A0
  8
0
 10
4797.820915691533628
 20
542.5177001782326442
 30
0.0
 40
0.2357712879000017
 50
215.8294094008726063
 51
274.4895806293038731
  0
ARC
  5
1E4A1
  8
0
 10
4797.536247443573302
 20
545.8986933629217901
 30
0.0
 40
3.6287238558841208
 50
274.7917625080407902
 51
284.1553859295485154
  0
ARC
  5
1E4A2
  8
0
 10
4798.0603948141979345
 20
544.0235104782872213
 30
0.0
 40
1.6830299331763861
 50
282.4648381909008208
 51
302.6403966735293238
  0
ARC
  5
1E4A3
  8
0
 10
4797.5174722648025636
 20
542.0275485189565643
 30
0.0
 40
0.3696071228013534
 50
44.1646154514324465
 51
75.4581951574048446
  0
ARC
  5
1E4A4
  8
0
 10
4797.1847522796324483
 20
540.7290995177919513
 30
0.0
 40
1.7100059458928889
 50
75.5909331638278843
 51
81.7974814425889178
  0
ARC
  5
1E4A5
  8
0
 10
4796.5962992112326901
 20
536.4524621531938919
 30
0.0
 40
6.0269129478843482
 50
82.0610555401396056
 51
87.462318244769591
  0
ARC
  5
1E4A6
  8
0
 10
4796.3322627812885912
 20
531.328145239814603
 30
0.0
 40
11.1579561120184803
 50
87.2728833150555232
 51
89.7401330933963663
  0
ARC
  5
1E4A7
  8
0
 10
4798.9017132085691628
 20
542.6942431108827805
 30
0.0
 40
0.1102421514652219
 50
307.0670806172083758
 51
52.9329193827915816
  0
ARC
  5
1E4A8
  8
0
 10
4776.2384953289347322
 20
542.870786043532803
 30
0.0
 40
0.2357712879000017
 50
35.8294094008726489
 51
94.4895806293038731
  0
ARC
  5
1E4A9
  8
0
 10
4776.5231635768959677
 20
539.4897928588435434
 30
0.0
 40
3.6287238558841208
 50
94.791762508040847
 51
104.1553859295485012
  0
ARC
  5
1E4AA
  8
0
 10
4775.9990162062722447
 20
541.3649757434783396
 30
0.0
 40
1.6830299331763861
 50
102.4648381909007071
 51
122.6403966735292954
  0
ARC
  5
1E4AB
  8
0
 10
4776.5419387556657966
 20
543.3609377028088829
 30
0.0
 40
0.3696071228013534
 50
224.164615451432411
 51
255.4581951574049015
  0
ARC
  5
1E4AC
  8
0
 10
4776.8746587408359119
 20
544.6593867039736097
 30
0.0
 40
1.7100059458928889
 50
255.5909331638279127
 51
261.7974814425890031
  0
ARC
  5
1E4AD
  8
0
 10
4777.4631118092356701
 20
548.9360240685715553
 30
0.0
 40
6.0269129478843482
 50
262.0610555401395914
 51
267.4623182447696195
  0
ARC
  5
1E4AE
  8
0
 10
4777.7271482391788595
 20
554.0603409819508443
 30
0.0
 40
11.1579561120184803
 50
267.2728833150554806
 51
269.7401330933963095
  0
ARC
  5
1E4AF
  8
0
 10
4776.2384953289347322
 20
542.5177001782326442
 30
0.0
 40
0.2357712879000017
 50
265.5104193706961269
 51
324.1705905991273085
  0
ARC
  5
1E4B0
  8
0
 10
4776.5231635768959677
 20
545.8986933629217901
 30
0.0
 40
3.6287238558841208
 50
255.844614070451513
 51
265.2082374919590961
  0
ARC
  5
1E4B1
  8
0
 10
4775.9990162062722447
 20
544.0235104782872213
 30
0.0
 40
1.6830299331763861
 50
237.3596033264707046
 51
257.5351618090992929
  0
ARC
  5
1E4B2
  8
0
 10
4776.5419387556657966
 20
542.0275485189565643
 30
0.0
 40
0.3696071228013534
 50
104.5418048425950985
 51
135.8353845485675038
  0
ARC
  5
1E4B3
  8
0
 10
4776.8746587408359119
 20
540.7290995177919513
 30
0.0
 40
1.7100059458928889
 50
98.2025185574110822
 51
104.4090668361721015
  0
ARC
  5
1E4B4
  8
0
 10
4777.4631118092356701
 20
536.4524621531938919
 30
0.0
 40
6.0269129478843482
 50
92.5376817552304232
 51
97.9389444598603944
  0
ARC
  5
1E4B5
  8
0
 10
4777.7271482391788595
 20
531.328145239814603
 30
0.0
 40
11.1579561120184803
 50
90.2598669066036337
 51
92.7271166849445052
  0
ARC
  5
1E4B6
  8
0
 10
4775.1576978119001069
 20
542.6942431108827805
 30
0.0
 40
0.1102421514652219
 50
127.0670806172084042
 51
232.9329193827499864
  0
ARC
  5
1E4B8
  8
0
 10
4798.396587576849015
 20
541.1969889124899282
 30
0.0
 40
1.184039018894087
 50
94.1354610218031524
 51
105.6405210708814053
  0
ARC
  5
1E4B9
  8
0
 10
4798.0526389527085485
 20
543.1892168590252368
 30
0.0
 40
0.8523901931905555
 50
271.662569895780905
 51
286.3766900008262155
  0
ARC
  5
1E4BA
  8
0
 10
4798.2802581353944333
 20
542.4392533970310524
 30
0.0
 40
0.0686743151288373
 50
291.3178610723388147
 51
296.7804171390293959
  0
LINE
  5
1E4BB
  8
0
 10
4798.2459708217838852
 20
542.3714091913326456
 30
0.0
 11
4798.301353604833821
 21
542.3714091913326456
 31
0.0
  0
LINE
  5
1E4BC
  8
0
 10
4798.301353604833821
 20
542.3714091913326456
 30
0.0
 11
4798.3076286772966341
 21
542.3776813840734121
 31
0.0
  0
ARC
  5
1E4BD
  8
0
 10
4775.6628234436193452
 20
541.1969889124899282
 30
0.0
 40
1.184039018894087
 50
74.3594789291186231
 51
85.8645389781968476
  0
ARC
  5
1E4BE
  8
0
 10
4776.0067720677589023
 20
543.1892168590252368
 30
0.0
 40
0.8523901931905555
 50
253.6233099991738129
 51
268.3374301042192087
  0
ARC
  5
1E4BF
  8
0
 10
4775.7791528850748364
 20
542.4392533970310524
 30
0.0
 40
0.0686743151288373
 50
243.2195828609706041
 51
248.6821389276611001
  0
LINE
  5
1E4C0
  8
0
 10
4775.8134401986835655
 20
542.3714091913326456
 30
0.0
 11
4775.7580574156336297
 21
542.3714091913326456
 31
0.0
  0
LINE
  5
1E4C1
  8
0
 10
4775.7580574156336297
 20
542.3714091913326456
 30
0.0
 11
4775.7517823431726356
 21
542.3776813840734121
 31
0.0
  0
LINE
  5
1E4C2
  8
0
 10
4799.0119553600352447
 20
542.6942431108827805
 30
0.0
 11
4775.0474556604349345
 21
542.6942431108827805
 31
0.0
  0
ENDSEC
  0
EOF
