  0
SECTION
  2
HEADER
  9
$ACADVER
  1
AC1009
  9
$INSBASE
 10
1041.7111623296329981
 20
132.9550852272691088
 30
0.0
  9
$EXTMIN
 10
1036.9639676913880066
 20
131.3921830760756961
 30
-0.0000000000000058
  9
$EXTMAX
 10
1041.7328593637880658
 20
134.3337377617272921
 30
0.0000000000000104
  9
$LIMMIN
 10
0.0
 20
0.0
  9
$LIMMAX
 10
11.6929133858000007
 20
8.2677165353999982
  9
$ORTHOMODE
 70
     1
  9
$REGENMODE
 70
     1
  9
$FILLMODE
 70
     1
  9
$QTEXTMODE
 70
     0
  9
$MIRRTEXT
 70
     0
  9
$DRAGMODE
 70
     2
  9
$LTSCALE
 40
0.6431102362
  9
$OSMODE
 70
  3999
  9
$ATTMODE
 70
     1
  9
$TEXTSIZE
 40
0.2
  9
$TRACEWID
 40
0.05
  9
$TEXTSTYLE
  7
STANDARD
  9
$CLAYER
  8
0
  9
$CELTYPE
  6
BYLAYER
  9
$CECOLOR
 62
   256
  9
$DIMSCALE
 40
1.0
  9
$DIMASZ
 40
0.1875
  9
$DIMEXO
 40
0.0625
  9
$DIMDLI
 40
0.4443307087
  9
$DIMRND
 40
0.0
  9
$DIMDLE
 40
0.0
  9
$DIMEXE
 40
0.125
  9
$DIMTP
 40
0.01
  9
$DIMTM
 40
0.01
  9
$DIMTXT
 40
1.0
  9
$DIMCEN
 40
0.1052362205
  9
$DIMTSZ
 40
0.0
  9
$DIMTOL
 70
     1
  9
$DIMLIM
 70
     0
  9
$DIMTIH
 70
     0
  9
$DIMTOH
 70
     1
  9
$DIMSE1
 70
     0
  9
$DIMSE2
 70
     0
  9
$DIMTAD
 70
     0
  9
$DIMZIN
 70
     0
  9
$DIMBLK
  1

  9
$DIMASO
 70
     1
  9
$DIMSHO
 70
     1
  9
$DIMPOST
  1
\X
  9
$DIMAPOST
  1

  9
$DIMALT
 70
     1
  9
$DIMALTD
 70
     2
  9
$DIMALTF
 40
25.3999999999999986
  9
$DIMLFAC
 40
1.0
  9
$DIMTOFL
 70
     0
  9
$DIMTVP
 40
0.0
  9
$DIMTIX
 70
     0
  9
$DIMSOXD
 70
     0
  9
$DIMSAH
 70
     0
  9
$DIMBLK1
  1

  9
$DIMBLK2
  1

  9
$DIMSTYLE
  2
STANDARD
  9
$DIMCLRD
 70
     0
  9
$DIMCLRE
 70
     0
  9
$DIMCLRT
 70
     0
  9
$DIMTFAC
 40
1.0
  9
$DIMGAP
 40
0.09
  9
$LUNITS
 70
     2
  9
$LUPREC
 70
     4
  9
$SKETCHINC
 40
0.1
  9
$FILLETRAD
 40
0.0
  9
$AUNITS
 70
     0
  9
$AUPREC
 70
     0
  9
$MENU
  1
.
  9
$ELEVATION
 40
0.0
  9
$PELEVATION
 40
0.0
  9
$THICKNESS
 40
0.0
  9
$LIMCHECK
 70
     0
  9
$BLIPMODE
 70
     0
  9
$CHAMFERA
 40
0.0
  9
$CHAMFERB
 40
0.0
  9
$SKPOLY
 70
     0
  9
$TDCREATE
 40
2458172.5207638889551163
  9
$TDUPDATE
 40
2460232.4480208340100944
  9
$TDINDWG
 40
0.4931488657
  9
$TDUSRTIMER
 40
0.4931488657
  9
$USRTIMER
 70
     1
  9
$ANGBASE
 50
0.0
  9
$ANGDIR
 70
     0
  9
$PDMODE
 70
     0
  9
$PDSIZE
 40
0.3125
  9
$PLINEWID
 40
0.0
  9
$COORDS
 70
     1
  9
$SPLFRAME
 70
     0
  9
$SPLINETYPE
 70
     6
  9
$SPLINESEGS
 70
     8
  9
$ATTDIA
 70
     1
  9
$ATTREQ
 70
     1
  9
$HANDLING
 70
     1
  9
$HANDSEED
  5
E845
  9
$SURFTAB1
 70
     6
  9
$SURFTAB2
 70
     6
  9
$SURFTYPE
 70
     6
  9
$SURFU
 70
     6
  9
$SURFV
 70
     6
  9
$UCSNAME
  2

  9
$UCSORG
 10
0.0
 20
0.0
 30
0.0
  9
$UCSXDIR
 10
1.0
 20
0.0
 30
0.0
  9
$UCSYDIR
 10
0.0
 20
1.0
 30
0.0
  9
$PUCSNAME
  2

  9
$PUCSORG
 10
0.0
 20
0.0
 30
0.0
  9
$PUCSXDIR
 10
1.0
 20
0.0
 30
0.0
  9
$PUCSYDIR
 10
0.0
 20
1.0
 30
0.0
  9
$USERI1
 70
     0
  9
$USERI2
 70
     0
  9
$USERI3
 70
     0
  9
$USERI4
 70
     0
  9
$USERI5
 70
     0
  9
$USERR1
 40
0.0
  9
$USERR2
 40
0.0
  9
$USERR3
 40
0.0
  9
$USERR4
 40
0.0
  9
$USERR5
 40
0.0
  9
$WORLDVIEW
 70
     1
  9
$SHADEDGE
 70
     3
  9
$SHADEDIF
 70
    70
  9
$TILEMODE
 70
     1
  9
$MAXACTVP
 70
    64
  9
$PLIMCHECK
 70
     0
  9
$PEXTMIN
 10
1.0000000000000000E+20
 20
1.0000000000000000E+20
 30
1.0000000000000000E+20
  9
$PEXTMAX
 10
-1.0000000000000000E+20
 20
-1.0000000000000000E+20
 30
-1.0000000000000000E+20
  9
$PLIMMIN
 10
0.0
 20
0.0
  9
$PLIMMAX
 10
12.0
 20
9.0
  9
$UNITMODE
 70
     0
  9
$VISRETAIN
 70
     1
  9
$PLINEGEN
 70
     0
  9
$PSLTSCALE
 70
     1
  0
ENDSEC
  0
SECTION
  2
TABLES
  0
TABLE
  2
VPORT
 70
     1
  0
VPORT
  2
*ACTIVE
 70
     0
 10
0.0
 20
0.0
 11
1.0
 21
1.0
 12
572.6062118197578457
 22
43.7298132989717203
 13
0.0
 23
0.0
 14
1.0
 24
1.0
 15
0.0
 25
0.0
 16
0.0
 26
0.0
 36
24.1179433675886514
 17
466.74220170783002
 27
89.133147119929788
 37
0.0
 40
2.962294201649172
 41
2.2458823529411762
 42
50.0
 43
0.0
 44
0.0
 50
0.0
 51
0.0
 71
     0
 72
   100
 73
     1
 74
     1
 75
     0
 76
     0
 77
     0
 78
     0
  0
ENDTAB
  0
TABLE
  2
LTYPE
 70
     2
  0
LTYPE
  2
CONTINUOUS
 70
     0
  3
Solid line
 72
    65
 73
     0
 40
0.0
  0
LTYPE
  2
PHANTOM2
 70
     0
  3
___ _ _ ___ _ _ ___ _ _ ___ _ _
 72
    65
 73
     6
 40
1.25
 49
0.625
 49
-0.125
 49
0.125
 49
-0.125
 49
0.125
 49
-0.125
  0
ENDTAB
  0
TABLE
  2
LAYER
 70
     2
  0
LAYER
  2
0
 70
     0
 62
   255
  6
CONTINUOUS
  0
LAYER
  2
DEFPOINTS
 70
     0
 62
     7
  6
CONTINUOUS
  0
ENDTAB
  0
TABLE
  2
STYLE
 70
     1
  0
STYLE
  2
STANDARD
 70
     0
 40
0.0
 41
0.8
 50
0.0
 71
     0
 42
0.2
  3
txt
  4

  0
ENDTAB
  0
TABLE
  2
VIEW
 70
     0
  0
ENDTAB
  0
TABLE
  2
UCS
 70
     0
  0
ENDTAB
  0
TABLE
  2
APPID
 70
    11
  0
APPID
  2
ACAD
 70
     0
  0
APPID
  2
ACAD_MLEADERVER
 70
     0
  0
APPID
  2
ACAD_EXEMPT_FROM_CAD_STANDARDS
 70
     0
  0
APPID
  2
ACAD_DSTYLE_DIMJAG
 70
     0
  0
APPID
  2
ACAD_DSTYLE_DIMTALN
 70
     0
  0
APPID
  2
ACAD_NAV_VCDISPLAY
 70
     0
  0
APPID
  2
ACAECLAYERSTANDARD
 70
     0
  0
APPID
  2
ACCMTRANSPARENCY
 70
     0
  0
APPID
  2
DCO15
 70
     0
  0
APPID
  2
ACDBATTR
 70
     0
  0
APPID
  2
ACADANNOTATIVE
 70
     0
  0
ENDTAB
  0
TABLE
  2
DIMSTYLE
 70
     1
  0
DIMSTYLE
  2
STANDARD
 70
     0
  3

  4

  5

  6

  7

 40
1.0
 41
0.1875
 42
0.0625
 43
0.38
 44
0.125
 45
0.0
 46
0.0
 47
0.01
 48
0.01
140
0.15625
141
0.09
142
0.0
143
25.3999999999999986
144
1.0
145
0.0
146
1.0
147
0.09
 71
     1
 72
     0
 73
     1
 74
     1
 75
     0
 76
     0
 77
     0
 78
     4
170
     0
171
     2
172
     0
173
     0
174
     0
175
     0
176
     0
177
     0
178
     0
  0
ENDTAB
  0
ENDSEC
  0
SECTION
  2
BLOCKS
  0
BLOCK
  8
0
  2
$MODEL_SPACE
 70
     0
 10
0.0
 20
0.0
 30
0.0
  3
$MODEL_SPACE
  1

  0
ENDBLK
  5
21
  8
0
  0
BLOCK
 67
     1
  8
0
  2
$PAPER_SPACE
 70
     0
 10
0.0
 20
0.0
 30
0.0
  3
$PAPER_SPACE
  1

  0
ENDBLK
  5
1D
 67
     1
  8
0
  0
ENDSEC
  0
SECTION
  2
ENTITIES
  0
LINE
  5
E346
  8
0
 10
1041.7111623296329981
 20
134.1468894254691122
 30
0.0
 11
1041.7111623296329981
 21
131.7632810290691054
 31
0.0
  0
LINE
  5
E347
  8
0
 10
1041.7111623296329981
 20
131.7632810290691054
 30
0.0
 11
1040.5490578726519288
 21
131.7734225610531098
 31
0.0
  0
ARC
  5
E348
  8
0
 10
1040.5497450014329388
 20
131.8521597203690874
 30
0.0
 40
0.0787401574999984
 50
179.9999999999984084
 51
269.4999999985752765
  0
LINE
  5
E349
  8
0
 10
1040.4710048439330876
 20
131.8521597203690874
 30
0.0
 11
1040.4710048439330876
 21
134.058010651069111
 31
0.0
  0
ARC
  5
E34A
  8
0
 10
1040.5497450853620194
 20
134.058010651069111
 30
0.0
 40
0.0787402414292906
 50
90.5000611556165637
 51
179.9999999999984084
  0
LINE
  5
E34B
  8
0
 10
1040.5490578718090546
 20
134.136747893577791
 30
0.0
 11
1041.7111623296329981
 21
134.1468894254691122
 31
0.0
  0
LINE
  5
E34C
  8
0
 10
1040.4710048439330876
 20
133.5948490067690955
 30
0.0
 11
1039.8607692054329164
 21
133.5948490067690955
 31
0.0
  0
LINE
  5
E34D
  8
0
 10
1039.8607692054329164
 20
133.5948490067690955
 30
0.0
 11
1039.8410840516330609
 21
133.5751638565691053
 31
0.0
  0
LINE
  5
E34E
  8
0
 10
1039.8410840516330609
 20
133.5751638565691053
 30
0.0
 11
1039.8410840516330609
 21
132.3350065980690999
 31
0.0
  0
LINE
  5
E34F
  8
0
 10
1039.8410840516330609
 20
132.3350065980690999
 30
0.0
 11
1039.8607692054329164
 21
132.3153214477690938
 31
0.0
  0
LINE
  5
E350
  8
0
 10
1039.8607692054329164
 20
132.3153214477690938
 30
0.0
 11
1040.4710048439330876
 21
132.3153214477690938
 31
0.0
  0
LINE
  5
E351
  8
0
 10
1039.8607692054329164
 20
132.3153214477690938
 30
0.0
 11
1039.8607691093329777
 21
132.7090218886690991
 31
0.0
  0
LINE
  5
E352
  8
0
 10
1039.8607691093329777
 20
132.7090218886690991
 30
0.0
 11
1039.8410840516330609
 21
132.7660049637433133
 31
0.0
  0
LINE
  5
E353
  8
0
 10
1039.8607691093329777
 20
132.7090218886690991
 30
0.0
 11
1040.2544698784329285
 21
132.7090222351691011
 31
0.0
  0
LINE
  5
E354
  8
0
 10
1040.2544698784329285
 20
132.7090222351691011
 30
0.0
 11
1040.2544698784329285
 21
133.2011482193690881
 31
0.0
  0
LINE
  5
E355
  8
0
 10
1040.2544698784329285
 20
133.2011482193690881
 30
0.0
 11
1039.8607722312810893
 21
133.2011460635908975
 31
0.0
  0
LINE
  5
E356
  8
0
 10
1039.8607722312810893
 20
133.2011460635908975
 30
0.0
 11
1039.8607692054329164
 21
133.5948490067690955
 31
0.0
  0
LINE
  5
E357
  8
0
 10
1039.8607722312810893
 20
133.2011460635908975
 30
0.0
 11
1039.8410840516330609
 21
133.1441581007406114
 31
0.0
  0
ARC
  5
E358
  8
0
 10
1039.5420008782270997
 20
132.9550852272691088
 30
0.0
 40
0.7537632734061307
 50
340.9467975853972916
 51
19.0532024146026586
  0
LINE
  5
E359
  8
0
 10
1039.8410840516330609
 20
133.3783135737691055
 30
0.0
 11
1039.787934445332894
 21
133.3783135737691055
 31
0.0
  0
LINE
  5
E35A
  8
0
 10
1039.787934445332894
 20
133.3783135737691055
 30
0.0
 11
1039.7780919256329071
 21
133.3684710540690901
 31
0.0
  0
LINE
  5
E35B
  8
0
 10
1039.7780919256329071
 20
133.3684710540690901
 30
0.0
 11
1039.7623438941329823
 21
133.3684710540690901
 31
0.0
  0
LINE
  5
E35C
  8
0
 10
1039.7623438941329823
 20
133.644085942069097
 30
0.0
 11
1039.7623438941329823
 21
132.2661331861690996
 31
0.0
  0
LINE
  5
E35D
  8
0
 10
1039.7623438941329823
 20
132.2661331861690996
 30
0.0
 11
1038.9140846972329655
 21
132.2661331861690996
 31
0.0
  0
ARC
  5
E35E
  8
0
 10
1038.9373734980179051
 20
131.5994507921643049
 30
0.0
 40
0.6670890365745999
 50
92.0006642559649777
 51
116.286211411394703
  0
ARC
  5
E35F
  8
0
 10
1036.7831723913150199
 20
135.2615342024882068
 30
0.0
 40
3.5837133561041519
 50
298.7847931749749932
 51
301.2433136181202826
  0
ARC
  5
E360
  8
0
 10
1037.987131827632993
 20
132.9550852272691088
 30
0.0
 40
0.9840786805999998
 50
100.3593849134443019
 51
79.6484372163751004
  0
ARC
  5
E361
  8
0
 10
1037.7712626019729214
 20
133.9913225209305949
 30
0.0
 40
0.0785190479467671
 50
299.4812819816160072
 51
0.0667514572769493
  0
LINE
  5
E362
  8
0
 10
1037.8497815966329654
 20
133.9914139981690937
 30
0.0
 11
1037.8497867338330707
 21
134.3038421614818958
 31
0.0
  0
ARC
  5
E363
  8
0
 10
1037.8694875145499736
 20
134.303830672930502
 30
0.0
 40
0.0197007840628272
 50
95.0300386286283754
 51
179.9666055027234961
  0
ARC
  5
E364
  8
0
 10
1037.9878905969339939
 20
133.1685028514268936
 30
0.0
 40
1.161183506404452
 50
84.1887957588611471
 51
95.9381681410712162
  0
ARC
  5
E365
  8
0
 10
1038.1036820495380653
 20
134.3029767106820884
 30
0.0
 40
0.020818422312194
 50
2.41088021570302
 51
85.096925271300293
  0
LINE
  5
E366
  8
0
 10
1038.1244820446329413
 20
134.3038524455691061
 30
0.0
 11
1038.1245914970329522
 21
133.9878443325690967
 31
0.0
  0
ARC
  5
E367
  8
0
 10
1038.2031605946199306
 20
133.9913261373582998
 30
0.0
 40
0.0786462081744901
 50
182.5374134225016007
 51
240.1017821334581868
  0
CIRCLE
  5
E368
  8
0
 10
1037.987131827632993
 20
132.9550852272691088
 30
0.0
 40
0.9473891976843608
  0
CIRCLE
  5
E369
  8
0
 10
1037.987131827632993
 20
132.9550852272691088
 30
0.0
 40
0.9174864437000001
  0
ARC
  5
E36A
  8
0
 10
1037.987131827632993
 20
132.9550852272691088
 30
0.0
 40
0.8996062991999995
 50
185.0000000030103138
 51
174.999999996989601
  0
CIRCLE
  5
E36B
  8
0
 10
1037.987131827632993
 20
132.9550852272691088
 30
0.0
 40
0.9054186931000003
  0
LINE
  5
E36C
  8
0
 10
1037.0909488020040499
 20
133.0334910825035024
 30
0.0
 11
1037.0926549104331116
 21
133.031459974869108
 31
0.0
  0
LINE
  5
E36D
  8
0
 10
1037.0926549104331116
 20
133.031459974869108
 30
0.0
 11
1037.1010114274099578
 21
133.0305264249759887
 31
0.0
  0
ARC
  5
E36E
  8
0
 10
1037.0997192632380575
 20
133.0189598317834907
 30
0.0
 40
0.0116385465727667
 50
355.000927262110622
 51
83.6256213648167659
  0
ARC
  5
E36F
  8
0
 10
1037.9871646837289063
 20
132.955086404850789
 30
0.0
 40
0.8781039314970421
 50
175.8949588678731004
 51
184.1051945897613109
  0
ARC
  5
E370
  8
0
 10
1037.0997700788989277
 20
132.8912150311745961
 30
0.0
 40
0.0115877085961386
 50
289.2109666253184059
 51
4.9992261955213433
  0
LINE
  5
E371
  8
0
 10
1037.0926549074199556
 20
132.8787104761346995
 30
0.0
 11
1037.0909488020040499
 21
132.8766793720348005
 31
0.0
  0
LINE
  5
E372
  8
0
 10
1037.0926549113210058
 20
132.8787104766923051
 30
0.0
 11
1037.1005861251239821
 21
132.8795965185015859
 31
0.0
  0
ARC
  5
E373
  8
0
 10
1037.0990413839629127
 20
132.8934239387060074
 30
0.0
 40
0.0139134386390318
 50
276.3744124672847988
 51
289.0515214157392734
  0
LINE
  5
E374
  8
0
 10
1038.9226832193330665
 20
133.222987928569097
 30
0.0
 11
1039.0008196737519484
 21
133.2223056851414924
 31
0.0
  0
ARC
  5
E375
  8
0
 10
1039.0006477966931016
 20
133.2026208286069959
 30
0.0
 40
0.0196856068869786
 50
13.7146746694933306
 51
89.4997382979938152
  0
ARC
  5
E376
  8
0
 10
1037.986345035433942
 20
132.9550852286479028
 30
0.0
 40
1.0637564688223631
 50
346.2850960903346049
 51
13.7146746694933306
  0
ARC
  5
E377
  8
0
 10
1039.0006515928150748
 20
132.7075444023228101
 30
0.0
 40
0.0196806798861882
 50
270.4903286119709946
 51
346.2850960903330133
  0
LINE
  5
E378
  8
0
 10
1039.0008200150400626
 20
132.6878644431070029
 30
0.0
 11
1038.922683095704997
 21
132.6871957428492124
 31
0.0
  0
LINE
  5
E379
  8
0
 10
1038.9267097914339502
 20
132.6872302035432938
 30
0.0
 11
1038.9148605973830399
 21
132.6549255961691074
 31
0.0
  0
ARC
  5
E37A
  8
0
 10
1039.4655286534321021
 20
132.5384603443359879
 30
0.0
 40
0.562849413997598
 50
164.6787449332472875
 51
168.0580359017461092
  0
ARC
  5
E37B
  8
0
 10
1037.9488173695249316
 20
132.9550852443543079
 30
0.0
 40
1.0100428414841429
 50
344.6188473541099029
 51
15.3811506355314407
  0
ARC
  5
E37C
  8
0
 10
1041.1731825831288916
 20
133.7858331063559945
 30
0.0
 40
2.3198150962099628
 50
193.2217280410648073
 51
194.0415229571281941
  0
ARC
  5
E37D
  8
0
 10
1038.7021246977710689
 20
133.1587855871757995
 30
0.0
 40
0.2335828631349356
 50
15.9446146061158291
 51
24.3906151122014805
  0
ARC
  5
E37E
  8
0
 10
1037.8576643080330086
 20
132.5922132082611995
 30
0.0
 40
1.373298774110008
 50
54.6273690695425103
 51
66.919415622562056
  0
ARC
  5
E37F
  8
0
 10
1038.9293121134480771
 20
134.2388627876775047
 30
0.0
 40
0.5950762486337935
 50
242.2956464118715871
 51
268.1135775770584928
  0
LINE
  5
E380
  8
0
 10
1038.9097231945490876
 20
133.6441090437259049
 30
0.0
 11
1039.7623438941329823
 21
133.644085942069097
 31
0.0
  0
LINE
  5
E381
  8
0
 10
1039.8410840516330609
 20
132.5319055544690912
 30
0.0
 11
1039.787934445332894
 21
132.5319055544690912
 31
0.0
  0
LINE
  5
E382
  8
0
 10
1039.787934445332894
 20
132.5319055544690912
 30
0.0
 11
1039.7780919256329071
 21
132.5417480741691065
 31
0.0
  0
LINE
  5
E383
  8
0
 10
1039.7780919256329071
 20
132.5417480741691065
 30
0.0
 11
1039.7623438941329823
 21
132.5417480741691065
 31
0.0
  0
LINE
  5
E384
  8
0
 10
1039.787934445332894
 20
133.3783135737691055
 30
0.0
 11
1039.787934445332894
 21
132.5319055544690912
 31
0.0
  0
LINE
  5
E385
  8
0
 10
1039.7780919256329071
 20
132.5417480741691065
 30
0.0
 11
1039.7780919256329071
 21
133.3684710540690901
 31
0.0
  0
ARC
  5
E386
  8
0
 10
1037.9885594216329991
 20
132.9597107264590079
 30
0.0
 40
0.9846204289196329
 50
99.8537565549211337
 51
169.4135002862435897
  0
ARC
  5
E387
  8
0
 10
1037.958221129418007
 20
132.8521507263957915
 30
0.0
 40
1.094787591863128
 50
66.4277520559999886
 51
79.6414862479999073
  0
LINE
  5
E388
  8
0
 10
1037.6131160796330732
 20
131.3940914949691035
 30
0.0
 11
1038.3611475757329572
 21
131.3940914949691035
 31
0.0
  0
LINE
  5
E389
  8
0
 10
1038.3611475757329572
 20
131.3940914949691035
 30
0.0
 11
1038.399651512733044
 21
131.432595431969105
 31
0.0
  0
LINE
  5
E38A
  8
0
 10
1038.399651512733044
 20
131.432595431969105
 30
0.0
 11
1038.399651512733044
 21
131.4611318480096998
 31
0.0
  0
LINE
  5
E38B
  8
0
 10
1038.399651512733044
 20
131.4770846168995035
 30
0.0
 11
1038.399651512733044
 21
131.5012481186012963
 31
0.0
  0
LINE
  5
E38C
  8
0
 10
1038.399651512733044
 20
131.5171305659434893
 30
0.0
 11
1038.399651512733044
 21
131.5412493872678965
 31
0.0
  0
LINE
  5
E38D
  8
0
 10
1038.399651512733044
 20
131.5570077816076093
 30
0.0
 11
1038.399651512733044
 21
131.5812579180930015
 31
0.0
  0
LINE
  5
E38E
  8
0
 10
1038.399651512733044
 20
131.5968483031388985
 30
0.0
 11
1038.399651512733044
 21
131.6213477595385086
 31
0.0
  0
LINE
  5
E38F
  8
0
 10
1038.399651512733044
 20
131.6367291179373069
 30
0.0
 11
1038.399651512733044
 21
131.6613302658539055
 31
0.0
  0
LINE
  5
E390
  8
0
 10
1038.399651512733044
 20
131.6766217179691125
 30
0.0
 11
1038.399651512733044
 21
131.701482531769102
 31
0.0
  0
LINE
  5
E391
  8
0
 10
1038.399651512733044
 20
131.701482531769102
 30
0.0
 11
1038.3865405929329881
 21
131.7090521248690891
 31
0.0
  0
LINE
  5
E392
  8
0
 10
1038.399651512733044
 20
131.6766217179691125
 30
0.0
 11
1038.3865498138850398
 21
131.6690685355231949
 31
0.0
  0
LINE
  5
E393
  8
0
 10
1038.3865498138850398
 20
131.6690685355231949
 30
0.0
 11
1038.399651512733044
 21
131.6613302658539055
 31
0.0
  0
LINE
  5
E394
  8
0
 10
1038.399651512733044
 20
131.6367291179373069
 30
0.0
 11
1038.3864496208238961
 21
131.6290503021463962
 31
0.0
  0
LINE
  5
E395
  8
0
 10
1038.3864496208238961
 20
131.6290503021463962
 30
0.0
 11
1038.399651512733044
 21
131.6213477595385086
 31
0.0
  0
LINE
  5
E396
  8
0
 10
1038.399651512733044
 20
131.5968483031388985
 30
0.0
 11
1038.3865793412840048
 21
131.5890352025226946
 31
0.0
  0
LINE
  5
E397
  8
0
 10
1038.3865793412840048
 20
131.5890352025226946
 30
0.0
 11
1038.399651512733044
 21
131.5812579180930015
 31
0.0
  0
LINE
  5
E398
  8
0
 10
1038.399651512733044
 20
131.5570077816076093
 30
0.0
 11
1038.3866827105171069
 21
131.5490578948260065
 31
0.0
  0
LINE
  5
E399
  8
0
 10
1038.3866827105171069
 20
131.5490578948260065
 30
0.0
 11
1038.399651512733044
 21
131.5412493872678965
 31
0.0
  0
LINE
  5
E39A
  8
0
 10
1038.399651512733044
 20
131.5171305659434893
 30
0.0
 11
1038.3865219582080499
 21
131.5090671530790019
 31
0.0
  0
LINE
  5
E39B
  8
0
 10
1038.3865219582080499
 20
131.5090671530790019
 30
0.0
 11
1038.399651512733044
 21
131.5012481186012963
 31
0.0
  0
LINE
  5
E39C
  8
0
 10
1038.399651512733044
 20
131.4770846168995035
 30
0.0
 11
1038.3864560515569337
 21
131.4690467326076941
 31
0.0
  0
LINE
  5
E39D
  8
0
 10
1038.3864560515569337
 20
131.4690467326076941
 30
0.0
 11
1038.399651512733044
 21
131.4611318480096998
 31
0.0
  0
LINE
  5
E39E
  8
0
 10
1037.5746121426329864
 20
131.7090521248690891
 30
0.0
 11
1037.5746121426329864
 21
131.6964566242141927
 31
0.0
  0
LINE
  5
E39F
  8
0
 10
1037.5746121426329864
 20
131.6818424138421051
 30
0.0
 11
1037.5746121426329864
 21
131.656326915434704
 31
0.0
  0
LINE
  5
E3A0
  8
0
 10
1037.5746121426329864
 20
131.641604986592796
 30
0.0
 11
1037.5746121426329864
 21
131.6164088101972993
 31
0.0
  0
LINE
  5
E3A1
  8
0
 10
1037.5746121426329864
 20
131.6022544797455112
 30
0.0
 11
1037.5746121426329864
 21
131.5764388902036899
 31
0.0
  0
LINE
  5
E3A2
  8
0
 10
1037.5746121426329864
 20
131.5616142263087056
 30
0.0
 11
1037.5746121426329864
 21
131.5363867651302883
 31
0.0
  0
LINE
  5
E3A3
  8
0
 10
1037.5746121426329864
 20
131.5216878153767084
 30
0.0
 11
1037.5746121426329864
 21
131.4963971031395999
 31
0.0
  0
LINE
  5
E3A4
  8
0
 10
1037.5746121426329864
 20
131.4816396727775043
 30
0.0
 11
1037.5746121426329864
 21
131.4564261396099027
 31
0.0
  0
LINE
  5
E3A5
  8
0
 10
1037.5746121426329864
 20
131.4416218992049892
 30
0.0
 11
1037.5746121426329864
 21
131.432595431969105
 31
0.0
  0
LINE
  5
E3A6
  8
0
 10
1037.5746121426329864
 20
131.432595431969105
 30
0.0
 11
1037.6131160796330732
 21
131.3940914949691035
 31
0.0
  0
LINE
  5
E3A7
  8
0
 10
1037.5746121426329864
 20
131.4416218992049892
 30
0.0
 11
1037.5876627977429507
 21
131.4490688381926873
 31
0.0
  0
LINE
  5
E3A8
  8
0
 10
1037.5876627977429507
 20
131.4490688381926873
 30
0.0
 11
1037.5746121426329864
 21
131.4564261396099027
 31
0.0
  0
LINE
  5
E3A9
  8
0
 10
1037.5746121426329864
 20
131.4816396727775043
 30
0.0
 11
1037.5875903258329345
 21
131.4890427983690984
 31
0.0
  0
LINE
  5
E3AA
  8
0
 10
1037.5875903258329345
 20
131.4890427983690984
 30
0.0
 11
1037.5746121426329864
 21
131.4963971031395999
 31
0.0
  0
LINE
  5
E3AB
  8
0
 10
1037.5746121426329864
 20
131.5216878153767084
 30
0.0
 11
1037.5877603602521049
 21
131.5290385957557078
 31
0.0
  0
LINE
  5
E3AC
  8
0
 10
1037.5877603602521049
 20
131.5290385957557078
 30
0.0
 11
1037.5746121426329864
 21
131.5363867651302883
 31
0.0
  0
LINE
  5
E3AD
  8
0
 10
1037.5746121426329864
 20
131.5616142263087056
 30
0.0
 11
1037.5877833275781086
 21
131.5690601138547891
 31
0.0
  0
LINE
  5
E3AE
  8
0
 10
1037.5877833275781086
 20
131.5690601138547891
 30
0.0
 11
1037.5746121426329864
 21
131.5764388902036899
 31
0.0
  0
LINE
  5
E3AF
  8
0
 10
1037.5746121426329864
 20
131.6022544797455112
 30
0.0
 11
1037.587634403309039
 21
131.6090675482305983
 31
0.0
  0
LINE
  5
E3B0
  8
0
 10
1037.587634403309039
 20
131.6090675482305983
 30
0.0
 11
1037.5746121426329864
 21
131.6164088101972993
 31
0.0
  0
LINE
  5
E3B1
  8
0
 10
1037.5746121426329864
 20
131.641604986592796
 30
0.0
 11
1037.5876096059630527
 21
131.6490391235620052
 31
0.0
  0
LINE
  5
E3B2
  8
0
 10
1037.5876096059630527
 20
131.6490391235620052
 30
0.0
 11
1037.5746121426329864
 21
131.656326915434704
 31
0.0
  0
LINE
  5
E3B3
  8
0
 10
1037.5746121426329864
 20
131.6818424138421051
 30
0.0
 11
1037.587782124009891
 21
131.6890411702734127
 31
0.0
  0
LINE
  5
E3B4
  8
0
 10
1037.587782124009891
 20
131.6890411702734127
 30
0.0
 11
1037.5746121426329864
 21
131.6964566242141927
 31
0.0
  0
LINE
  5
E3B5
  8
0
 10
1037.5746121426329864
 20
131.7090521248690891
 30
0.0
 11
1038.3865405929329881
 21
131.7090521248690891
 31
0.0
  0
LINE
  5
E3B6
  8
0
 10
1037.587782124009891
 20
131.6890411702734127
 30
0.0
 11
1038.3865498138850398
 21
131.6690685355231949
 31
0.0
  0
LINE
  5
E3B7
  8
0
 10
1038.3864496208238961
 20
131.6290503021463962
 30
0.0
 11
1037.5876096059630527
 21
131.6490391235620052
 31
0.0
  0
LINE
  5
E3B8
  8
0
 10
1037.587634403309039
 20
131.6090675482305983
 30
0.0
 11
1038.3865793412840048
 21
131.5890352025226946
 31
0.0
  0
LINE
  5
E3B9
  8
0
 10
1038.3866827105171069
 20
131.5490578948260065
 30
0.0
 11
1037.5877833275781086
 21
131.5690601138547891
 31
0.0
  0
LINE
  5
E3BA
  8
0
 10
1038.3865219582080499
 20
131.5090671530790019
 30
0.0
 11
1037.5877603602521049
 21
131.5290385957557078
 31
0.0
  0
LINE
  5
E3BB
  8
0
 10
1037.5875903258329345
 20
131.4890427983690984
 30
0.0
 11
1038.3864560515569337
 21
131.4690467326076941
 31
0.0
  0
LINE
  5
E3BC
  8
0
 10
1038.399651512733044
 20
131.4611318480096998
 30
0.0
 11
1037.5746121426329864
 21
131.4816396727775043
 31
0.0
  0
LINE
  5
E3BD
  8
0
 10
1037.5876627977429507
 20
131.4490688381926873
 30
0.0
 11
1038.399651512733044
 21
131.432595431969105
 31
0.0
  0
LINE
  5
E3BE
  8
0
 10
1037.5746121426329864
 20
131.432595431969105
 30
0.0
 11
1038.3333136922669837
 21
131.4277965022461103
 31
0.0
  0
LINE
  5
E3BF
  8
0
 10
1038.3333136922669837
 20
131.4277965022461103
 30
0.0
 11
1038.3799125652290058
 21
131.4329958903678914
 31
0.0
  0
LINE
  5
E3C0
  8
0
 10
1038.3799125652290058
 20
131.4329958903678914
 30
0.0
 11
1038.3373883005920106
 21
131.4401650250410967
 31
0.0
  0
LINE
  5
E3C1
  8
0
 10
1038.3373883005920106
 20
131.4401650250410967
 30
0.0
 11
1037.5746121426329864
 21
131.4564261396099027
 31
0.0
  0
LINE
  5
E3C2
  8
0
 10
1037.5746121426329864
 20
131.4416218992049892
 30
0.0
 11
1038.1713194369449411
 21
131.428821146320189
 31
0.0
  0
LINE
  5
E3C3
  8
0
 10
1037.5746121426329864
 20
131.6818424138421051
 30
0.0
 11
1038.399651512733044
 21
131.6613302658539055
 31
0.0
  0
LINE
  5
E3C4
  8
0
 10
1038.399651512733044
 20
131.6367291179373069
 30
0.0
 11
1037.5746121426329864
 21
131.656326915434704
 31
0.0
  0
LINE
  5
E3C5
  8
0
 10
1037.5746121426329864
 20
131.641604986592796
 30
0.0
 11
1038.399651512733044
 21
131.6213477595385086
 31
0.0
  0
LINE
  5
E3C6
  8
0
 10
1038.399651512733044
 20
131.5968483031388985
 30
0.0
 11
1037.5746121426329864
 21
131.6164088101972993
 31
0.0
  0
LINE
  5
E3C7
  8
0
 10
1037.5746121426329864
 20
131.6022544797455112
 30
0.0
 11
1038.399651512733044
 21
131.5812579180930015
 31
0.0
  0
LINE
  5
E3C8
  8
0
 10
1038.399651512733044
 20
131.5570077816076093
 30
0.0
 11
1037.5746121426329864
 21
131.5764388902036899
 31
0.0
  0
LINE
  5
E3C9
  8
0
 10
1037.5746121426329864
 20
131.5616142263087056
 30
0.0
 11
1038.399651512733044
 21
131.5412493872678965
 31
0.0
  0
LINE
  5
E3CA
  8
0
 10
1038.399651512733044
 20
131.5171305659434893
 30
0.0
 11
1037.5746121426329864
 21
131.5363867651302883
 31
0.0
  0
LINE
  5
E3CB
  8
0
 10
1037.5746121426329864
 20
131.5216878153767084
 30
0.0
 11
1038.399651512733044
 21
131.5012481186012963
 31
0.0
  0
LINE
  5
E3CC
  8
0
 10
1038.399651512733044
 20
131.4770846168995035
 30
0.0
 11
1037.5746121426329864
 21
131.4963971031395999
 31
0.0
  0
LINE
  5
E3CD
  8
0
 10
1037.5746121426329864
 20
131.6964566242141927
 30
0.0
 11
1038.399651512733044
 21
131.6766217179691125
 31
0.0
  0
LINE
  5
E3CE
  8
0
 10
1038.399651512733044
 20
131.701482531769102
 30
0.0
 11
1037.7653362026239847
 21
131.7090521248690891
 31
0.0
  0
LINE
  5
E3CF
  8
0
 10
1037.5146908828330652
 20
132.0918295274396996
 30
0.0
 11
1037.5146908828330652
 21
131.7877922823691108
 31
0.0
  0
LINE
  5
E3D0
  8
0
 10
1037.5146908828330652
 20
131.7877922823691108
 30
0.0
 11
1038.4595727725329652
 21
131.7877922823691108
 31
0.0
  0
LINE
  5
E3D1
  8
0
 10
1038.4595727725329652
 20
131.7877922823691108
 30
0.0
 11
1038.4595727725329652
 21
132.0918295274944114
 31
0.0
  0
ARC
  5
E3D2
  8
0
 10
1037.6072105678329081
 20
131.7681072429691085
 30
0.0
 40
0.0196850393999994
 50
359.9999999999984084
 51
89.9999669254035268
  0
LINE
  5
E3D3
  8
0
 10
1037.6268956072331093
 20
131.7681072429691085
 30
0.0
 11
1037.6268956072331093
 21
131.7287371642690914
 31
0.0
  0
ARC
  5
E3D4
  8
0
 10
1037.6072105678329081
 20
131.7287371642690914
 30
0.0
 40
0.0196850393999988
 50
270.0000499346979268
 51
359.9999999999968168
  0
ARC
  5
E3D5
  8
0
 10
1038.367053087532895
 20
131.7681072429691085
 30
0.0
 40
0.0196850393999994
 50
90.0000330745964732
 51
180.0000000000015916
  0
LINE
  5
E3D6
  8
0
 10
1038.3473680481329211
 20
131.7681072429691085
 30
0.0
 11
1038.3473680481329211
 21
131.7287371642690914
 31
0.0
  0
ARC
  5
E3D7
  8
0
 10
1038.367053087532895
 20
131.7287371642690914
 30
0.0
 40
0.0196850393999988
 50
180.0000000000015916
 51
269.9999500653020732
  0
ATTDEF
  5
E3DD
  8
DEFPOINTS
 10
1041.697643037799935
 20
132.9512263476823932
 30
0.0
 40
0.001
  1
K-37035D
  3

  2
MODELNUMBER
 70
     0
1001
ACDBATTR
1070
     0
1070
     1
  0
ATTDEF
  5
E3DE
  8
DEFPOINTS
 10
1041.697643037799935
 20
132.9495596810156997
 30
0.0
 40
0.001
  1
CUFF
  3

  2
TRADENAME
 70
     0
1001
ACDBATTR
1070
     0
1070
     1
  0
ATTDEF
  5
E3DF
  8
DEFPOINTS
 10
1041.697643037799935
 20
132.9478930143490061
 30
0.0
 40
0.001
  1
SHOWER VALVE
  3

  2
PRODUCT
 70
     0
1001
ACDBATTR
1070
     0
1070
     1
  0
ENDSEC
  0
EOF
