  0
SECTION
  2
HEADER
  9
$ACADVER
  1
AC1009
  9
$INSBASE
 10
1029.1117883692309078
 20
140.5416056831952005
 30
0.0
  9
$EXTMIN
 10
1022.7670917384150471
 20
135.8263101654140996
 30
-0.0000000349181948
  9
$EXTMAX
 10
1035.4859125697948912
 20
140.5552350991837898
 30
0.0000000814935746
  9
$LIMMIN
 10
0.0
 20
0.0
  9
$LIMMAX
 10
11.6929133858000007
 20
8.2677165353999982
  9
$ORTHOMODE
 70
     1
  9
$REGENMODE
 70
     1
  9
$FILLMODE
 70
     1
  9
$QTEXTMODE
 70
     0
  9
$MIRRTEXT
 70
     0
  9
$DRAGMODE
 70
     2
  9
$LTSCALE
 40
0.6431102362
  9
$OSMODE
 70
  3999
  9
$ATTMODE
 70
     1
  9
$TEXTSIZE
 40
0.2
  9
$TRACEWID
 40
0.05
  9
$TEXTSTYLE
  7
STANDARD
  9
$CLAYER
  8
0
  9
$CELTYPE
  6
BYLAYER
  9
$CECOLOR
 62
   256
  9
$DIMSCALE
 40
1.0
  9
$DIMASZ
 40
0.1875
  9
$DIMEXO
 40
0.0625
  9
$DIMDLI
 40
0.4443307087
  9
$DIMRND
 40
0.0
  9
$DIMDLE
 40
0.0
  9
$DIMEXE
 40
0.125
  9
$DIMTP
 40
0.01
  9
$DIMTM
 40
0.01
  9
$DIMTXT
 40
1.0
  9
$DIMCEN
 40
0.1052362205
  9
$DIMTSZ
 40
0.0
  9
$DIMTOL
 70
     1
  9
$DIMLIM
 70
     0
  9
$DIMTIH
 70
     0
  9
$DIMTOH
 70
     1
  9
$DIMSE1
 70
     0
  9
$DIMSE2
 70
     0
  9
$DIMTAD
 70
     0
  9
$DIMZIN
 70
     0
  9
$DIMBLK
  1

  9
$DIMASO
 70
     1
  9
$DIMSHO
 70
     1
  9
$DIMPOST
  1
\X
  9
$DIMAPOST
  1

  9
$DIMALT
 70
     1
  9
$DIMALTD
 70
     2
  9
$DIMALTF
 40
25.3999999999999986
  9
$DIMLFAC
 40
1.0
  9
$DIMTOFL
 70
     0
  9
$DIMTVP
 40
0.0
  9
$DIMTIX
 70
     0
  9
$DIMSOXD
 70
     0
  9
$DIMSAH
 70
     0
  9
$DIMBLK1
  1

  9
$DIMBLK2
  1

  9
$DIMSTYLE
  2
STANDARD
  9
$DIMCLRD
 70
     0
  9
$DIMCLRE
 70
     0
  9
$DIMCLRT
 70
     0
  9
$DIMTFAC
 40
1.0
  9
$DIMGAP
 40
0.09
  9
$LUNITS
 70
     2
  9
$LUPREC
 70
     4
  9
$SKETCHINC
 40
0.1
  9
$FILLETRAD
 40
0.0
  9
$AUNITS
 70
     0
  9
$AUPREC
 70
     0
  9
$MENU
  1
.
  9
$ELEVATION
 40
0.0
  9
$PELEVATION
 40
0.0
  9
$THICKNESS
 40
0.0
  9
$LIMCHECK
 70
     0
  9
$BLIPMODE
 70
     0
  9
$CHAMFERA
 40
0.0
  9
$CHAMFERB
 40
0.0
  9
$SKPOLY
 70
     0
  9
$TDCREATE
 40
2458172.5207638889551163
  9
$TDUPDATE
 40
2460232.4476273148320615
  9
$TDINDWG
 40
0.4935771065
  9
$TDUSRTIMER
 40
0.4935771065
  9
$USRTIMER
 70
     1
  9
$ANGBASE
 50
0.0
  9
$ANGDIR
 70
     0
  9
$PDMODE
 70
     0
  9
$PDSIZE
 40
0.3125
  9
$PLINEWID
 40
0.0
  9
$COORDS
 70
     1
  9
$SPLFRAME
 70
     0
  9
$SPLINETYPE
 70
     6
  9
$SPLINESEGS
 70
     8
  9
$ATTDIA
 70
     1
  9
$ATTREQ
 70
     1
  9
$HANDLING
 70
     1
  9
$HANDSEED
  5
EAC1
  9
$SURFTAB1
 70
     6
  9
$SURFTAB2
 70
     6
  9
$SURFTYPE
 70
     6
  9
$SURFU
 70
     6
  9
$SURFV
 70
     6
  9
$UCSNAME
  2

  9
$UCSORG
 10
0.0
 20
0.0
 30
0.0
  9
$UCSXDIR
 10
1.0
 20
0.0
 30
0.0
  9
$UCSYDIR
 10
0.0
 20
1.0
 30
0.0
  9
$PUCSNAME
  2

  9
$PUCSORG
 10
0.0
 20
0.0
 30
0.0
  9
$PUCSXDIR
 10
1.0
 20
0.0
 30
0.0
  9
$PUCSYDIR
 10
0.0
 20
1.0
 30
0.0
  9
$USERI1
 70
     0
  9
$USERI2
 70
     0
  9
$USERI3
 70
     0
  9
$USERI4
 70
     0
  9
$USERI5
 70
     0
  9
$USERR1
 40
0.0
  9
$USERR2
 40
0.0
  9
$USERR3
 40
0.0
  9
$USERR4
 40
0.0
  9
$USERR5
 40
0.0
  9
$WORLDVIEW
 70
     1
  9
$SHADEDGE
 70
     3
  9
$SHADEDIF
 70
    70
  9
$TILEMODE
 70
     1
  9
$MAXACTVP
 70
    64
  9
$PLIMCHECK
 70
     0
  9
$PEXTMIN
 10
1.0000000000000000E+20
 20
1.0000000000000000E+20
 30
1.0000000000000000E+20
  9
$PEXTMAX
 10
-1.0000000000000000E+20
 20
-1.0000000000000000E+20
 30
-1.0000000000000000E+20
  9
$PLIMMIN
 10
0.0
 20
0.0
  9
$PLIMMAX
 10
12.0
 20
9.0
  9
$UNITMODE
 70
     0
  9
$VISRETAIN
 70
     1
  9
$PLINEGEN
 70
     0
  9
$PSLTSCALE
 70
     1
  0
ENDSEC
  0
SECTION
  2
TABLES
  0
TABLE
  2
VPORT
 70
     1
  0
VPORT
  2
*ACTIVE
 70
     0
 10
0.0
 20
0.0
 11
1.0
 21
1.0
 12
562.3843004462752333
 22
49.0576255123692206
 13
0.0
 23
0.0
 14
1.0
 24
1.0
 15
0.0
 25
0.0
 16
0.0
 26
0.0
 36
24.1179433675886514
 17
466.74220170783002
 27
89.133147119929788
 37
0.0
 40
5.8413556440842198
 41
2.1842105263157889
 42
50.0
 43
0.0
 44
0.0
 50
0.0
 51
0.0
 71
     0
 72
   100
 73
     1
 74
     1
 75
     0
 76
     0
 77
     0
 78
     0
  0
ENDTAB
  0
TABLE
  2
LTYPE
 70
     2
  0
LTYPE
  2
CONTINUOUS
 70
     0
  3
Solid line
 72
    65
 73
     0
 40
0.0
  0
LTYPE
  2
PHANTOM2
 70
     0
  3
___ _ _ ___ _ _ ___ _ _ ___ _ _
 72
    65
 73
     6
 40
1.25
 49
0.625
 49
-0.125
 49
0.125
 49
-0.125
 49
0.125
 49
-0.125
  0
ENDTAB
  0
TABLE
  2
LAYER
 70
     2
  0
LAYER
  2
0
 70
     0
 62
   255
  6
CONTINUOUS
  0
LAYER
  2
DEFPOINTS
 70
     0
 62
     7
  6
CONTINUOUS
  0
ENDTAB
  0
TABLE
  2
STYLE
 70
     1
  0
STYLE
  2
STANDARD
 70
     0
 40
0.0
 41
0.8
 50
0.0
 71
     0
 42
0.2
  3
txt
  4

  0
ENDTAB
  0
TABLE
  2
VIEW
 70
     0
  0
ENDTAB
  0
TABLE
  2
UCS
 70
     0
  0
ENDTAB
  0
TABLE
  2
APPID
 70
    11
  0
APPID
  2
ACAD
 70
     0
  0
APPID
  2
ACAD_MLEADERVER
 70
     0
  0
APPID
  2
ACAD_EXEMPT_FROM_CAD_STANDARDS
 70
     0
  0
APPID
  2
ACAD_DSTYLE_DIMJAG
 70
     0
  0
APPID
  2
ACAD_DSTYLE_DIMTALN
 70
     0
  0
APPID
  2
ACAD_NAV_VCDISPLAY
 70
     0
  0
APPID
  2
ACAECLAYERSTANDARD
 70
     0
  0
APPID
  2
ACCMTRANSPARENCY
 70
     0
  0
APPID
  2
DCO15
 70
     0
  0
APPID
  2
ACDBATTR
 70
     0
  0
APPID
  2
ACADANNOTATIVE
 70
     0
  0
ENDTAB
  0
TABLE
  2
DIMSTYLE
 70
     1
  0
DIMSTYLE
  2
STANDARD
 70
     0
  3

  4

  5

  6

  7

 40
1.0
 41
0.1875
 42
0.0625
 43
0.38
 44
0.125
 45
0.0
 46
0.0
 47
0.01
 48
0.01
140
0.15625
141
0.09
142
0.0
143
25.3999999999999986
144
1.0
145
0.0
146
1.0
147
0.09
 71
     1
 72
     0
 73
     1
 74
     1
 75
     0
 76
     0
 77
     0
 78
     4
170
     0
171
     2
172
     0
173
     0
174
     0
175
     0
176
     0
177
     0
178
     0
  0
ENDTAB
  0
ENDSEC
  0
SECTION
  2
BLOCKS
  0
BLOCK
  8
0
  2
$MODEL_SPACE
 70
     0
 10
0.0
 20
0.0
 30
0.0
  3
$MODEL_SPACE
  1

  0
ENDBLK
  5
21
  8
0
  0
BLOCK
 67
     1
  8
0
  2
$PAPER_SPACE
 70
     0
 10
0.0
 20
0.0
 30
0.0
  3
$PAPER_SPACE
  1

  0
ENDBLK
  5
1D
 67
     1
  8
0
  0
BLOCK
  8
0
  2
_FILLED
 70
     0
 10
0.0
 20
0.0
 30
0.0
  3
_FILLED
  1

  0
SOLID
  5
E56E
  8
0
  6
BYBLOCK
 62
     0
 10
0.0
 20
0.0
 30
0.0
 11
-1.0
 21
0.1666666667
 31
0.0
 12
-1.0
 22
-0.1666666667
 32
0.0
 13
-1.0
 23
-0.1666666667
 33
0.0
  0
ENDBLK
  5
E56F
  8
0
  6
BYBLOCK
 62
     0
  0
ENDSEC
  0
SECTION
  2
ENTITIES
  0
ATTDEF
  5
DB1D
  8
DEFPOINTS
 10
1029.1123464873830926
 20
140.5456560266771078
 30
0.0
 40
0.001
  1
K-37035D
  3

  2
MODELNUMBER
 70
     0
1001
ACDBATTR
1070
     0
1070
     1
  0
ATTDEF
  5
DB1E
  8
DEFPOINTS
 10
1029.1123464873830926
 20
140.5439893600104142
 30
0.0
 40
0.001
  1
CUFF
  3

  2
TRADENAME
 70
     0
1001
ACDBATTR
1070
     0
1070
     1
  0
ATTDEF
  5
DB1F
  8
DEFPOINTS
 10
1029.1123464873830926
 20
140.5423226933438059
 30
0.0
 40
0.001
  1
SHOWER VALVE
  3

  2
PRODUCT
 70
     0
1001
ACDBATTR
1070
     0
1070
     1
  0
LINE
  5
E7D5
  8
0
 10
1024.9676162316250156
 20
135.8339383132033902
 30
0.0
 11
1033.2559603427109778
 21
135.8339383132033902
 31
0.0
  0
ARC
  5
E7D6
  8
0
 10
1024.9678763972069646
 20
135.8537930342419884
 30
0.0
 40
0.0198564255003458
 50
180.4374833184540137
 51
269.2492698948370276
  0
LINE
  5
E7D7
  8
0
 10
1024.9480205505310551
 20
135.8536414214952117
 30
0.0
 11
1024.9480205505310551
 21
137.7815033354951879
 31
0.0
  0
ARC
  5
E7D8
  8
0
 10
1024.9676795357299852
 20
137.7815875932774077
 30
0.0
 40
0.0196591657606589
 50
89.9241142343672806
 51
180.245566376139891
  0
LINE
  5
E7D9
  8
0
 10
1024.9677055734309761
 20
137.8012467417952109
 30
0.0
 11
1025.2733217633310687
 21
137.8026767747952022
 31
0.0
  0
ARC
  5
E7DA
  8
0
 10
1025.2534105908689526
 20
138.0197836683117032
 30
0.0
 40
0.2180180221936204
 50
275.2400165025877072
 51
353.5711929903259829
  0
LINE
  5
E7DB
  8
0
 10
1025.4700576611310225
 20
137.9953725038951973
 30
0.0
 11
1025.4700576611310225
 21
138.5927872476952132
 31
0.0
  0
LINE
  5
E7DC
  8
0
 10
1025.4700576611310225
 20
138.5927872476952132
 30
0.0
 11
1026.8480104170309914
 21
138.5927872476952132
 31
0.0
  0
LINE
  5
E7DD
  8
0
 10
1026.8480104170309914
 20
138.5927872476952132
 30
0.0
 11
1026.8480103943309132
 21
138.2538844152952038
 31
0.0
  0
ARC
  5
E7DE
  8
0
 10
1027.067616360772945
 20
138.2538844005858039
 30
0.0
 40
0.2196059664423041
 50
179.9999961622802118
 51
264.0422793658970022
  0
LINE
  5
E7DF
  8
0
 10
1027.0448224554309036
 20
138.0354645791952066
 30
0.0
 11
1027.6156563559309234
 21
138.042814495695211
 31
0.0
  0
LINE
  5
E7E0
  8
0
 10
1027.6157253767310067
 20
138.0380476221951938
 30
0.0
 11
1027.6157253767310067
 21
138.0577326614952085
 31
0.0
  0
LINE
  5
E7E1
  8
0
 10
1027.6157253767310067
 20
138.0577326614952085
 30
0.0
 11
1027.851945849231015
 21
138.0577326614952085
 31
0.0
  0
LINE
  5
E7E2
  8
0
 10
1027.851945849231015
 20
138.0577326614952085
 30
0.0
 11
1027.851945849231015
 21
138.0380476221951938
 31
0.0
  0
LINE
  5
E7E3
  8
0
 10
1027.851945849231015
 20
138.0380476221951938
 30
0.0
 11
1027.6157253767310067
 21
138.0380476221951938
 31
0.0
  0
LINE
  5
E7E4
  8
0
 10
1027.3508382372310734
 20
140.5416056831952005
 30
0.0
 11
1024.9672298408308961
 21
140.5416056831952005
 31
0.0
  0
LINE
  5
E7E5
  8
0
 10
1024.9672298408308961
 20
140.5416056831952005
 30
0.0
 11
1024.9773713728220628
 21
139.3795012253713139
 31
0.0
  0
ARC
  5
E7E6
  8
0
 10
1025.0561085312890555
 20
139.380188354145389
 30
0.0
 40
0.0787401566502151
 50
180.5000000014198065
 51
270.0000006129724284
  0
LINE
  5
E7E7
  8
0
 10
1025.0561085321310202
 20
139.3014481974952048
 30
0.0
 11
1027.261959463409994
 21
139.3014482210944891
 31
0.0
  0
ARC
  5
E7E8
  8
0
 10
1027.2619594625680293
 20
139.3801884629972108
 30
0.0
 40
0.0787402419027821
 50
270.0000006129853887
 51
359.4999212748813875
  0
LINE
  5
E7E9
  8
0
 10
1027.3406967053390417
 20
139.3795012252952006
 30
0.0
 11
1027.3508382372310734
 21
140.5416056831952005
 31
0.0
  0
LINE
  5
E7EA
  8
0
 10
1026.7987978185310567
 20
139.3014481974952048
 30
0.0
 11
1026.7987978185310567
 21
139.1262075051951967
 31
0.0
  0
LINE
  5
E7EB
  8
0
 10
1026.7987978185310567
 20
139.1262075051951967
 30
0.0
 11
1026.749585220130939
 21
139.0849132319951877
 31
0.0
  0
LINE
  5
E7EC
  8
0
 10
1026.749585220130939
 20
139.0849132319951877
 30
0.0
 11
1026.749585220130939
 21
138.6715274051952065
 31
0.0
  0
LINE
  5
E7ED
  8
0
 10
1026.749585220130939
 20
138.6715274051952065
 30
0.0
 11
1025.5684828579310306
 21
138.6715274051952065
 31
0.0
  0
LINE
  5
E7EE
  8
0
 10
1025.5684828579310306
 20
138.6715274051952065
 30
0.0
 11
1025.5684828579310306
 21
139.0849132319951877
 31
0.0
  0
LINE
  5
E7EF
  8
0
 10
1025.5684828579310306
 20
139.0849132319951877
 30
0.0
 11
1025.5192702595309129
 21
139.1262080700952026
 31
0.0
  0
LINE
  5
E7F0
  8
0
 10
1025.5192702595309129
 20
139.1262080700952026
 30
0.0
 11
1025.5192702595309129
 21
139.3014482024503025
 31
0.0
  0
LINE
  5
E7F1
  8
0
 10
1025.7358056926309473
 20
138.6715274051952065
 30
0.0
 11
1025.7358056926309473
 21
138.6183777988952102
 31
0.0
  0
LINE
  5
E7F2
  8
0
 10
1025.7358056926309473
 20
138.6183777988952102
 30
0.0
 11
1025.7456482122308898
 21
138.6085352791951948
 31
0.0
  0
LINE
  5
E7F3
  8
0
 10
1025.7456482122308898
 20
138.6085352791951948
 30
0.0
 11
1025.7456482122308898
 21
138.5927872476952132
 31
0.0
  0
LINE
  5
E7F4
  8
0
 10
1026.5724198658310797
 20
138.5927872476952132
 30
0.0
 11
1026.5724198658310797
 21
138.6085352791951948
 31
0.0
  0
LINE
  5
E7F5
  8
0
 10
1026.5724198658310797
 20
138.6085352791951948
 30
0.0
 11
1026.5822623855310667
 21
138.6183777988952102
 31
0.0
  0
LINE
  5
E7F6
  8
0
 10
1026.5822623855310667
 20
138.6183777988952102
 30
0.0
 11
1026.5822623855310667
 21
138.6715274051952065
 31
0.0
  0
LINE
  5
E7F7
  8
0
 10
1026.5822623855310667
 20
138.6183777988952102
 30
0.0
 11
1025.7358056926309473
 21
138.6183777988952102
 31
0.0
  0
LINE
  5
E7F8
  8
0
 10
1025.7456482122308898
 20
138.6085352791951948
 30
0.0
 11
1026.5724198658310797
 21
138.6085352791951948
 31
0.0
  0
LINE
  5
E7F9
  8
0
 10
1024.9007764560310534
 20
137.7819695719952051
 30
0.0
 11
1024.9007764560310534
 21
135.8531807903951858
 31
0.0
  0
ARC
  5
E7FA
  8
0
 10
1024.8810914166310795
 20
135.8531807903951858
 30
0.0
 40
0.0196850393999997
 50
269.5000000000995897
 51
0.0
  0
LINE
  5
E7FB
  8
0
 10
1024.8809196344359407
 20
135.8334965005410879
 30
0.0
 11
1022.8520074919309764
 21
135.8510170827306922
 31
0.0
  0
ARC
  5
E7FC
  8
0
 10
1022.8527431738590394
 20
135.871269157563006
 30
0.0
 40
0.0202654327097063
 50
183.0647963346627876
 51
267.9195739912084946
  0
ARC
  5
E7FD
  8
0
 10
1036.0266982925170396
 20
136.8159944281595131
 30
0.0
 40
13.2261049847091492
 50
176.1627313461353026
 51
183.8372699581734082
  0
ARC
  5
E7FE
  8
0
 10
1022.8525408888440325
 20
137.7638920506335012
 30
0.0
 40
0.0200628549379009
 50
91.5234617989622734
 51
176.9352034830116054
  0
LINE
  5
E7FF
  8
0
 10
1022.8520074919359786
 20
137.7839478137952085
 30
0.0
 11
1023.4657408268909649
 21
137.7893032263359885
 31
0.0
  0
ARC
  5
E800
  8
0
 10
1023.465363834990967
 20
137.77629061065889
 30
0.0
 40
0.0130180197700535
 50
75.5669421580302441
 51
88.3519655431937139
  0
ARC
  5
E801
  8
0
 10
1023.7833635520080406
 20
138.8329981878621879
 30
0.0
 40
1.0905119791771991
 50
253.2240175691624131
 51
259.4195281403440845
  0
ARC
  5
E802
  8
0
 10
1023.7610281010289555
 20
138.7403146003599943
 30
0.0
 40
0.995315292495134
 50
259.7037578043825192
 51
270.2257483241705245
  0
LINE
  5
E803
  8
0
 10
1023.7649496844310306
 20
137.7450070334951988
 30
0.0
 11
1023.9366469606890178
 21
137.7465849346802997
 31
0.0
  0
ARC
  5
E804
  8
0
 10
1023.9252794239780542
 20
138.6955736773768137
 30
0.0
 40
0.9490568237231951
 50
270.6862892033448134
 51
276.5398405551306951
  0
ARC
  5
E805
  8
0
 10
1023.9082324701359994
 20
138.8024984195457137
 30
0.0
 40
1.057238048974217
 50
276.7976920951966235
 51
287.7429190332850908
  0
ARC
  5
E806
  8
0
 10
1024.2332651256890586
 20
137.7868001816154901
 30
0.0
 40
0.0091996354203075
 50
90.0556579480292783
 51
108.0007705733484045
  0
LINE
  5
E807
  8
0
 10
1024.2332561890309535
 20
137.7959998126951859
 30
0.0
 11
1024.8810914166310795
 21
137.8016546113952074
 31
0.0
  0
ARC
  5
E808
  8
0
 10
1024.8810914166310795
 20
137.7819695719952051
 30
0.0
 40
0.0196850393999998
 50
0.0
 51
90.0
  0
LINE
  5
E809
  8
0
 10
1023.4972748642539955
 20
137.7806818668503865
 30
0.0
 11
1023.4979766301310065
 21
137.8610598747951883
 31
0.0
  0
ARC
  5
E80A
  8
0
 10
1023.5176551227000346
 20
137.8608880654288953
 30
0.0
 40
0.0196792425726772
 50
89.9835971958859488
 51
179.4997736021715866
  0
LINE
  5
E80B
  8
0
 10
1023.5176607565309723
 20
137.8805673071952071
 30
0.0
 11
1024.1814956374309986
 21
137.8805673071952071
 31
0.0
  0
ARC
  5
E80C
  8
0
 10
1024.1814955189429384
 20
137.8608822603318913
 30
0.0
 40
0.0196850468636563
 50
0.518705003209107
 51
89.9996551267363856
  0
LINE
  5
E80D
  8
0
 10
1024.2011797591310369
 20
137.8610604687951877
 30
0.0
 11
1024.2018284130240318
 21
137.7868440912832
 31
0.0
  0
ARC
  5
E80E
  8
0
 10
1023.7774242136789553
 20
138.951119359683986
 30
0.0
 40
1.101617754027904
 50
256.3608072171596177
 51
264.536906707514504
  0
ARC
  5
E80F
  8
0
 10
1023.762544301672051
 20
138.7955351705464864
 30
0.0
 40
0.945323634845735
 50
264.536906707514504
 51
270.1427600630339043
  0
LINE
  5
E810
  8
0
 10
1023.7648996989310035
 20
137.8502144700952101
 30
0.0
 11
1023.9341919147390172
 21
137.8506362850633877
 31
0.0
  0
ARC
  5
E811
  8
0
 10
1023.9315547044800496
 20
138.9090604803456017
 30
0.0
 40
1.0584274807641849
 50
270.1427600630339043
 51
283.6590481071664271
  0
ARC
  5
E812
  8
0
 10
1022.8439225578630385
 20
137.7000269103457981
 30
0.0
 40
0.0137222113782483
 50
155.2900956732970883
 51
175.414504924908897
  0
ARC
  5
E813
  8
0
 10
1024.3006386439699327
 20
137.7093178418697903
 30
0.0
 40
1.4691861363131109
 50
177.8293244641166098
 51
180.1386280692960042
  0
LINE
  5
E814
  8
0
 10
1022.8314568080689924
 20
137.7057631257507921
 30
0.0
 11
1022.8314568080689924
 21
135.9000020872746859
 31
0.0
  0
ARC
  5
E815
  8
0
 10
1022.8419507267800554
 20
135.9316426313822035
 30
0.0
 40
0.0117322634962665
 50
183.8023825694141919
 51
206.5621765621289967
  0
LINE
  5
E816
  8
0
 10
1022.8302442894309934
 20
135.9308646009538961
 30
0.0
 11
1022.8302442894309934
 21
137.7011241417951908
 31
0.0
  0
LINE
  5
E817
  8
0
 10
1022.8325067594309985
 20
135.870184744995214
 30
0.0
 11
1022.8314568080689924
 21
135.9000020872746859
 31
0.0
  0
ARC
  5
E818
  8
0
 10
1023.2664352738239586
 20
136.8176002321607996
 30
0.0
 40
0.1274898005251462
 50
90.4934508568812248
 51
269.497790188510578
  0
LINE
  5
E819
  8
0
 10
1023.265337301613954
 20
136.9450853046006102
 30
0.0
 11
1024.3981057080140999
 21
136.954841334903108
 31
0.0
  0
ARC
  5
E81A
  8
0
 10
1024.3992885915099578
 20
136.8174972501309128
 30
0.0
 40
0.1373491785024369
 50
269.495037302904791
 51
90.4934508568812248
  0
LINE
  5
E81B
  8
0
 10
1024.3980781129309889
 20
136.6801534057952097
 30
0.0
 11
1023.265317812653052
 21
136.6901153290606032
 31
0.0
  0
ARC
  5
E81C
  8
0
 10
1023.2577212491620458
 20
136.8175118146660907
 30
0.0
 40
0.1908044435702634
 50
87.7176089297405639
 51
272.2817429608475095
  0
LINE
  5
E81D
  8
0
 10
1023.2653178231309994
 20
136.6268586537952103
 30
0.0
 11
1024.3980520918310049
 21
136.6174367249952013
 31
0.0
  0
ARC
  5
E81E
  8
0
 10
1024.4031611171910754
 20
136.8175114658093037
 30
0.0
 40
0.2001399611571133
 50
268.537236690796874
 51
91.4621343507429145
  0
LINE
  5
E81F
  8
0
 10
1024.3980542881311067
 20
137.0175862626952039
 30
0.0
 11
1023.2653178262310121
 21
137.0082917086951966
 31
0.0
  0
LINE
  5
E820
  8
0
 10
1024.9480205505310551
 20
135.9522580976951929
 30
0.0
 11
1024.9123813488149608
 21
135.9516360130184864
 31
0.0
  0
ARC
  5
E821
  8
0
 10
1024.912587479630929
 20
135.9398267882951927
 30
0.0
 40
0.0118110236000005
 50
91.0000001554310955
 51
179.9999999999951115
  0
LINE
  5
E822
  8
0
 10
1024.9480205505310551
 20
137.682892264795214
 30
0.0
 11
1024.9123813488311043
 21
137.6835143493715918
 31
0.0
  0
ARC
  5
E823
  8
0
 10
1024.9125874798380664
 20
137.6953235742221864
 30
0.0
 40
0.0118110238069599
 50
180.0000006160940984
 51
268.9999989372570894
  0
ARC
  5
E824
  8
0
 10
1033.2558380018911066
 20
135.8536561251924866
 30
0.0
 40
0.0197181915224268
 50
270.3554919120703062
 51
359.9572749925922039
  0
LINE
  5
E825
  8
0
 10
1033.275556187930988
 20
135.8536414214952117
 30
0.0
 11
1033.275556187930988
 21
137.7815033354951879
 31
0.0
  0
ARC
  5
E826
  8
0
 10
1033.2558972027329673
 20
137.7815875932774077
 30
0.0
 40
0.0196591657606589
 50
359.754433623860109
 51
90.0758857656327336
  0
LINE
  5
E827
  8
0
 10
1033.255871165031067
 20
137.8012467417952109
 30
0.0
 11
1032.9502549751309743
 21
137.8026767747952022
 31
0.0
  0
ARC
  5
E828
  8
0
 10
1032.9701661475930905
 20
138.0197836683117032
 30
0.0
 40
0.2180180221936204
 50
186.4288070096739887
 51
264.7599834974124065
  0
LINE
  5
E829
  8
0
 10
1032.7535190773310205
 20
137.9953725038951973
 30
0.0
 11
1032.7535190773310205
 21
138.5927872476952132
 31
0.0
  0
LINE
  5
E82A
  8
0
 10
1032.7535190773310205
 20
138.5927872476952132
 30
0.0
 11
1031.3755663214310516
 21
138.5927872476952132
 31
0.0
  0
LINE
  5
E82B
  8
0
 10
1031.3755663214310516
 20
138.5927872476952132
 30
0.0
 11
1031.3755663441309025
 21
138.2538844152952038
 31
0.0
  0
ARC
  5
E82C
  8
0
 10
1031.1561367677370527
 20
138.2538166534625077
 30
0.0
 40
0.2194295868563391
 50
275.6877469380603998
 51
0.0176934530340504
  0
LINE
  5
E82D
  8
0
 10
1030.8727385012309696
 20
140.5416056831952005
 30
0.0
 11
1033.2563468976309196
 21
140.5416056831952005
 31
0.0
  0
LINE
  5
E82E
  8
0
 10
1033.2563468976309196
 20
140.5416056831952005
 30
0.0
 11
1033.2462053656399803
 21
139.3795012253713139
 31
0.0
  0
ARC
  5
E82F
  8
0
 10
1033.1674682071738971
 20
139.380188354145389
 30
0.0
 40
0.0787401566502151
 50
269.9999993870275716
 51
359.4999999985785735
  0
LINE
  5
E830
  8
0
 10
1033.1674682063310229
 20
139.3014481974952048
 30
0.0
 11
1030.9616172750520491
 21
139.3014482210944891
 31
0.0
  0
ARC
  5
E831
  8
0
 10
1030.9616172758940138
 20
139.3801884629972108
 30
0.0
 40
0.0787402419027821
 50
180.5000787251169072
 51
269.9999993870146113
  0
LINE
  5
E832
  8
0
 10
1030.8828800331230013
 20
139.3795012252952006
 30
0.0
 11
1030.8727385012309696
 21
140.5416056831952005
 31
0.0
  0
LINE
  5
E833
  8
0
 10
1031.4247789199309864
 20
139.3014481974952048
 30
0.0
 11
1031.4247789199309864
 21
139.1262075051951967
 31
0.0
  0
LINE
  5
E834
  8
0
 10
1031.4247789199309864
 20
139.1262075051951967
 30
0.0
 11
1031.4739915183311041
 21
139.0849132319951877
 31
0.0
  0
LINE
  5
E835
  8
0
 10
1031.4739915183311041
 20
139.0849132319951877
 30
0.0
 11
1031.4739915183311041
 21
138.6715274051952065
 31
0.0
  0
LINE
  5
E836
  8
0
 10
1031.4739915183311041
 20
138.6715274051952065
 30
0.0
 11
1032.6550938805310125
 21
138.6715274051952065
 31
0.0
  0
LINE
  5
E837
  8
0
 10
1032.6550938805310125
 20
138.6715274051952065
 30
0.0
 11
1032.6550938805310125
 21
139.0849132319951877
 31
0.0
  0
LINE
  5
E838
  8
0
 10
1032.6550938805310125
 20
139.0849132319951877
 30
0.0
 11
1032.7043064789309028
 21
139.1262080700952026
 31
0.0
  0
LINE
  5
E839
  8
0
 10
1032.7043064789309028
 20
139.1262080700952026
 30
0.0
 11
1032.7043064789309028
 21
139.3014482024503025
 31
0.0
  0
LINE
  5
E83A
  8
0
 10
1032.4877710458310958
 20
138.6715274051952065
 30
0.0
 11
1032.4877710458310958
 21
138.6183777988952102
 31
0.0
  0
LINE
  5
E83B
  8
0
 10
1032.4877710458310958
 20
138.6183777988952102
 30
0.0
 11
1032.4779285262309259
 21
138.6085352791951948
 31
0.0
  0
LINE
  5
E83C
  8
0
 10
1032.4779285262309259
 20
138.6085352791951948
 30
0.0
 11
1032.4779285262309259
 21
138.5927872476952132
 31
0.0
  0
LINE
  5
E83D
  8
0
 10
1031.6511568726309633
 20
138.5927872476952132
 30
0.0
 11
1031.6511568726309633
 21
138.6085352791951948
 31
0.0
  0
LINE
  5
E83E
  8
0
 10
1031.6511568726309633
 20
138.6085352791951948
 30
0.0
 11
1031.6413143529309764
 21
138.6183777988952102
 31
0.0
  0
LINE
  5
E83F
  8
0
 10
1031.6413143529309764
 20
138.6183777988952102
 30
0.0
 11
1031.6413143529309764
 21
138.6715274051952065
 31
0.0
  0
LINE
  5
E840
  8
0
 10
1031.6413143529309764
 20
138.6183777988952102
 30
0.0
 11
1032.4877710458310958
 21
138.6183777988952102
 31
0.0
  0
LINE
  5
E841
  8
0
 10
1032.4779285262309259
 20
138.6085352791951948
 30
0.0
 11
1031.6511568726309633
 21
138.6085352791951948
 31
0.0
  0
LINE
  5
E842
  8
0
 10
1033.3228002824309897
 20
137.7819695719952051
 30
0.0
 11
1033.3228002824309897
 21
135.8531807903951858
 31
0.0
  0
ARC
  5
E843
  8
0
 10
1033.3424853218309636
 20
135.8531807903951858
 30
0.0
 40
0.0196850393999997
 50
180.0
 51
270.4999999999002966
  0
LINE
  5
E844
  8
0
 10
1033.3426571040261024
 20
135.8334965005410879
 30
0.0
 11
1035.371569246530953
 21
135.8510170827306922
 31
0.0
  0
ARC
  5
E845
  8
0
 10
1035.37083356460289
 20
135.871269157563006
 30
0.0
 40
0.0202654327097063
 50
272.0804260087913917
 51
356.9352036653372124
  0
ARC
  5
E846
  8
0
 10
1022.1968784459460267
 20
136.8159944281595131
 30
0.0
 40
13.2261049847091492
 50
356.1627300418265918
 51
3.8372686538646752
  0
ARC
  5
E847
  8
0
 10
1035.3711283417910636
 20
137.7639870546491068
 30
0.0
 40
0.0199656280310454
 50
2.8083689813249628
 51
88.7346236163265161
  0
LINE
  5
E848
  8
0
 10
1035.3715692465270877
 20
137.7839478137952085
 30
0.0
 11
1034.7578359115709645
 21
137.7893032263359885
 31
0.0
  0
ARC
  5
E849
  8
0
 10
1034.7582129034719856
 20
137.77629061065889
 30
0.0
 40
0.0130180197700535
 50
91.6480344568062861
 51
104.4330578419696991
  0
ARC
  5
E84A
  8
0
 10
1034.4402131864540024
 20
138.8329981878621879
 30
0.0
 40
1.0905119791771991
 50
280.5804718596558018
 51
286.7759824308377006
  0
ARC
  5
E84B
  8
0
 10
1034.4625486374329739
 20
138.7403146003599943
 30
0.0
 40
0.995315292495134
 50
269.7742516758294755
 51
280.2962421956174239
  0
LINE
  5
E84C
  8
0
 10
1034.4586270540310124
 20
137.7450070334951988
 30
0.0
 11
1034.2869297777740485
 21
137.7465849346802997
 31
0.0
  0
ARC
  5
E84D
  8
0
 10
1034.2982973144839889
 20
138.6955736773768137
 30
0.0
 40
0.9490568237231951
 50
263.4601594448694186
 51
269.3137107966551866
  0
ARC
  5
E84E
  8
0
 10
1034.3153442683260437
 20
138.8024984195457137
 30
0.0
 40
1.057238048974217
 50
252.2570809667149092
 51
263.2023079048034901
  0
ARC
  5
E84F
  8
0
 10
1033.990311612773894
 20
137.7868001816154901
 30
0.0
 40
0.0091996354203075
 50
71.9992294266515955
 51
89.944342051970736
  0
LINE
  5
E850
  8
0
 10
1033.9903205494310896
 20
137.7959998126951859
 30
0.0
 11
1033.3424853218309636
 21
137.8016546113952074
 31
0.0
  0
ARC
  5
E851
  8
0
 10
1033.3424853218309636
 20
137.7819695719952051
 30
0.0
 40
0.0196850393999998
 50
90.0
 51
180.0
  0
LINE
  5
E852
  8
0
 10
1034.7263018742080476
 20
137.7806818668503865
 30
0.0
 11
1034.7256001083310366
 21
137.8610598747951883
 31
0.0
  0
ARC
  5
E853
  8
0
 10
1034.705921615762918
 20
137.8608880654288953
 30
0.0
 40
0.0196792425726772
 50
0.5002263978283573
 51
90.0164028041140654
  0
LINE
  5
E854
  8
0
 10
1034.7059159819309571
 20
137.8805673071952071
 30
0.0
 11
1034.0420811010310445
 21
137.8805673071952071
 31
0.0
  0
ARC
  5
E855
  8
0
 10
1034.0420812195191047
 20
137.8608822603318913
 30
0.0
 40
0.0196850468636563
 50
90.0003448732636002
 51
179.4812949967908935
  0
LINE
  5
E856
  8
0
 10
1034.0223969793310062
 20
137.8610604687951877
 30
0.0
 11
1034.0217483254380113
 21
137.7868440912832
 31
0.0
  0
ARC
  5
E857
  8
0
 10
1034.4461866301949158
 20
138.9508605518225011
 30
0.0
 40
1.101356874790365
 50
275.4626089171932222
 51
283.6403586108964987
  0
ARC
  5
E858
  8
0
 10
1034.4610324367909016
 20
138.7955351705464864
 30
0.0
 40
0.945323634845735
 50
269.8572399369660957
 51
275.463093292485496
  0
LINE
  5
E859
  8
0
 10
1034.4586770395310396
 20
137.8502144700952101
 30
0.0
 11
1034.2893848237229122
 21
137.8506362850633877
 31
0.0
  0
ARC
  5
E85A
  8
0
 10
1034.2920220339819934
 20
138.9090604803456017
 30
0.0
 40
1.0584274807641849
 50
256.3409518928335729
 51
269.8572399369660957
  0
ARC
  5
E85B
  8
0
 10
1035.3796541805988909
 20
137.7000269103457981
 30
0.0
 40
0.0137222113782483
 50
4.585495075091071
 51
24.70990432670283
  0
ARC
  5
E85C
  8
0
 10
1033.9229380944921104
 20
137.7093178418697903
 30
0.0
 40
1.4691861363131109
 50
359.8613719307039105
 51
2.1706755358834391
  0
LINE
  5
E85D
  8
0
 10
1035.392119930392937
 20
137.7057631257507921
 30
0.0
 11
1035.392119930392937
 21
135.9000020872746859
 31
0.0
  0
ARC
  5
E85E
  8
0
 10
1035.3816260116830108
 20
135.9316426313822035
 30
0.0
 40
0.0117322634962665
 50
333.4378234378709749
 51
356.1976174305858081
  0
LINE
  5
E85F
  8
0
 10
1035.3933324490310497
 20
135.9308646009538961
 30
0.0
 11
1035.3933324490310497
 21
137.7011241417951908
 31
0.0
  0
LINE
  5
E860
  8
0
 10
1035.3910699790310446
 20
135.870184744995214
 30
0.0
 11
1035.392119930392937
 21
135.9000020872746859
 31
0.0
  0
ARC
  5
E861
  8
0
 10
1034.9571414646391077
 20
136.8176002321607996
 30
0.0
 40
0.1274898005251462
 50
270.502209811489422
 51
89.506549143118761
  0
LINE
  5
E862
  8
0
 10
1034.9582394368480891
 20
136.9450853046006102
 30
0.0
 11
1033.8254710304479431
 21
136.954841334903108
 31
0.0
  0
ARC
  5
E863
  8
0
 10
1033.8242881469520853
 20
136.8174972501309128
 30
0.0
 40
0.1373491785024369
 50
89.506549143118761
 51
270.504962697095209
  0
LINE
  5
E864
  8
0
 10
1033.8254986255310541
 20
136.6801534057952097
 30
0.0
 11
1034.9582589258091048
 21
136.6901153290606032
 31
0.0
  0
ARC
  5
E865
  8
0
 10
1034.965855489300111
 20
136.8175118146660907
 30
0.0
 40
0.1908044435702634
 50
267.7182570391523768
 51
92.2823910702594361
  0
LINE
  5
E866
  8
0
 10
1034.9582589153310437
 20
136.6268586537952103
 30
0.0
 11
1033.8255246466310382
 21
136.6174367249952013
 31
0.0
  0
ARC
  5
E867
  8
0
 10
1033.8204156212709677
 20
136.8175114658093037
 30
0.0
 40
0.2001399611571133
 50
88.5378656492570713
 51
271.462763309203126
  0
LINE
  5
E868
  8
0
 10
1033.8255224503309364
 20
137.0175862626952039
 30
0.0
 11
1034.958258912231031
 21
137.0082917086951966
 31
0.0
  0
LINE
  5
E869
  8
0
 10
1033.275556187930988
 20
135.9522580976951929
 30
0.0
 11
1033.3111953896470823
 21
135.9516360130184864
 31
0.0
  0
ARC
  5
E86A
  8
0
 10
1033.3109892588308867
 20
135.9398267882951927
 30
0.0
 40
0.0118110236000005
 50
0.0000000000048853
 51
88.9999998445689045
  0
LINE
  5
E86B
  8
0
 10
1033.275556187930988
 20
137.682892264795214
 30
0.0
 11
1033.3111953896309387
 21
137.6835143493715918
 31
0.0
  0
ARC
  5
E86C
  8
0
 10
1033.3109892586239766
 20
137.6953235742221864
 30
0.0
 40
0.0118110238069599
 50
271.0000010627429106
 51
359.9999993839059016
  0
LINE
  5
E86E
  8
0
 10
1027.851945849231015
 20
138.0459288926952013
 30
0.0
 11
1031.1778837645229032
 21
138.0354673651220025
 31
0.0
  0
ENDSEC
  0
EOF
