  0
SECTION
  2
HEADER
  9
$ACADVER
  1
AC1009
  9
$INSBASE
 10
4823.5358338626010664
 20
523.9784813012714721
 30
0.0
  9
$EXTMIN
 10
4795.6981871058096658
 20
523.9407179218749206
 30
-0.0000000000000058
  9
$EXTMAX
 10
4823.7909922404887766
 20
555.800439442872289
 30
0.0000000000000104
  9
$LIMMIN
 10
0.0
 20
0.0
  9
$LIMMAX
 10
11.6929133858000007
 20
8.2677165353999982
  9
$ORTHOMODE
 70
     0
  9
$REGENMODE
 70
     1
  9
$FILLMODE
 70
     1
  9
$QTEXTMODE
 70
     0
  9
$MIRRTEXT
 70
     0
  9
$DRAGMODE
 70
     2
  9
$LTSCALE
 40
0.6431102362
  9
$OSMODE
 70
     7
  9
$ATTMODE
 70
     1
  9
$TEXTSIZE
 40
0.2
  9
$TRACEWID
 40
0.05
  9
$TEXTSTYLE
  7
STANDARD
  9
$CLAYER
  8
0
  9
$CELTYPE
  6
BYLAYER
  9
$CECOLOR
 62
   256
  9
$DIMSCALE
 40
1.0
  9
$DIMASZ
 40
0.1875
  9
$DIMEXO
 40
0.0625
  9
$DIMDLI
 40
0.4443307087
  9
$DIMRND
 40
0.0
  9
$DIMDLE
 40
0.0
  9
$DIMEXE
 40
0.125
  9
$DIMTP
 40
0.01
  9
$DIMTM
 40
0.01
  9
$DIMTXT
 40
2.0
  9
$DIMCEN
 40
0.1052362205
  9
$DIMTSZ
 40
0.0
  9
$DIMTOL
 70
     1
  9
$DIMLIM
 70
     0
  9
$DIMTIH
 70
     1
  9
$DIMTOH
 70
     1
  9
$DIMSE1
 70
     0
  9
$DIMSE2
 70
     0
  9
$DIMTAD
 70
     0
  9
$DIMZIN
 70
     0
  9
$DIMBLK
  1

  9
$DIMASO
 70
     1
  9
$DIMSHO
 70
     1
  9
$DIMPOST
  1
\X
  9
$DIMAPOST
  1

  9
$DIMALT
 70
     1
  9
$DIMALTD
 70
     2
  9
$DIMALTF
 40
25.3999999999999986
  9
$DIMLFAC
 40
1.0
  9
$DIMTOFL
 70
     0
  9
$DIMTVP
 40
0.0
  9
$DIMTIX
 70
     0
  9
$DIMSOXD
 70
     0
  9
$DIMSAH
 70
     0
  9
$DIMBLK1
  1

  9
$DIMBLK2
  1

  9
$DIMSTYLE
  2
STANDARD
  9
$DIMCLRD
 70
     0
  9
$DIMCLRE
 70
     0
  9
$DIMCLRT
 70
     0
  9
$DIMTFAC
 40
1.0
  9
$DIMGAP
 40
0.09
  9
$LUNITS
 70
     2
  9
$LUPREC
 70
     4
  9
$SKETCHINC
 40
0.1
  9
$FILLETRAD
 40
0.0
  9
$AUNITS
 70
     0
  9
$AUPREC
 70
     0
  9
$MENU
  1
.
  9
$ELEVATION
 40
0.0
  9
$PELEVATION
 40
0.0
  9
$THICKNESS
 40
0.0
  9
$LIMCHECK
 70
     0
  9
$BLIPMODE
 70
     0
  9
$CHAMFERA
 40
0.0
  9
$CHAMFERB
 40
0.0
  9
$SKPOLY
 70
     0
  9
$TDCREATE
 40
2458060.468368056230247
  9
$TDUPDATE
 40
2459350.9332986110821366
  9
$TDINDWG
 40
1.5125895139000001
  9
$TDUSRTIMER
 40
1.5125895139000001
  9
$USRTIMER
 70
     1
  9
$ANGBASE
 50
0.0
  9
$ANGDIR
 70
     0
  9
$PDMODE
 70
     0
  9
$PDSIZE
 40
0.3125
  9
$PLINEWID
 40
0.0
  9
$COORDS
 70
     1
  9
$SPLFRAME
 70
     0
  9
$SPLINETYPE
 70
     6
  9
$SPLINESEGS
 70
     8
  9
$ATTDIA
 70
     1
  9
$ATTREQ
 70
     1
  9
$HANDLING
 70
     1
  9
$HANDSEED
  5
1D177
  9
$SURFTAB1
 70
     6
  9
$SURFTAB2
 70
     6
  9
$SURFTYPE
 70
     6
  9
$SURFU
 70
     6
  9
$SURFV
 70
     6
  9
$UCSNAME
  2

  9
$UCSORG
 10
0.0
 20
0.0
 30
0.0
  9
$UCSXDIR
 10
1.0
 20
0.0
 30
0.0
  9
$UCSYDIR
 10
0.0
 20
1.0
 30
0.0
  9
$PUCSNAME
  2

  9
$PUCSORG
 10
0.0
 20
0.0
 30
0.0
  9
$PUCSXDIR
 10
1.0
 20
0.0
 30
0.0
  9
$PUCSYDIR
 10
0.0
 20
1.0
 30
0.0
  9
$USERI1
 70
     0
  9
$USERI2
 70
     0
  9
$USERI3
 70
     0
  9
$USERI4
 70
     0
  9
$USERI5
 70
     0
  9
$USERR1
 40
0.0
  9
$USERR2
 40
0.0
  9
$USERR3
 40
0.0
  9
$USERR4
 40
0.0
  9
$USERR5
 40
0.0
  9
$WORLDVIEW
 70
     1
  9
$SHADEDGE
 70
     3
  9
$SHADEDIF
 70
    70
  9
$TILEMODE
 70
     1
  9
$MAXACTVP
 70
    64
  9
$PLIMCHECK
 70
     0
  9
$PEXTMIN
 10
1.0000000000000000E+20
 20
1.0000000000000000E+20
 30
1.0000000000000000E+20
  9
$PEXTMAX
 10
-1.0000000000000000E+20
 20
-1.0000000000000000E+20
 30
-1.0000000000000000E+20
  9
$PLIMMIN
 10
0.0
 20
0.0
  9
$PLIMMAX
 10
12.0
 20
9.0
  9
$UNITMODE
 70
     0
  9
$VISRETAIN
 70
     1
  9
$PLINEGEN
 70
     0
  9
$PSLTSCALE
 70
     1
  0
ENDSEC
  0
SECTION
  2
TABLES
  0
TABLE
  2
VPORT
 70
     1
  0
VPORT
  2
*ACTIVE
 70
     0
 10
0.0
 20
0.0
 11
1.0
 21
1.0
 12
898.3792332278370623
 22
407.2909735798344855
 13
0.0
 23
0.0
 14
1.0
 24
1.0
 15
0.0
 25
0.0
 16
0.0
 26
0.0
 36
60.4960186965801583
 17
3911.3653564453120453
 27
132.5796051025390057
 37
0.0
 40
32.1044825057938397
 41
2.3461538461538458
 42
50.0
 43
0.0
 44
0.0
 50
0.0
 51
0.0
 71
     0
 72
   100
 73
     1
 74
     1
 75
     0
 76
     0
 77
     0
 78
     0
  0
ENDTAB
  0
TABLE
  2
LTYPE
 70
     2
  0
LTYPE
  2
CONTINUOUS
 70
     0
  3
Solid line
 72
    65
 73
     0
 40
0.0
  0
LTYPE
  2
PHANTOM2
 70
     0
  3
___ _ _ ___ _ _ ___ _ _ ___ _ _
 72
    65
 73
     6
 40
1.25
 49
0.625
 49
-0.125
 49
0.125
 49
-0.125
 49
0.125
 49
-0.125
  0
ENDTAB
  0
TABLE
  2
LAYER
 70
     2
  0
LAYER
  2
0
 70
     0
 62
   255
  6
CONTINUOUS
  0
LAYER
  2
DEFPOINTS
 70
     0
 62
     7
  6
CONTINUOUS
  0
ENDTAB
  0
TABLE
  2
STYLE
 70
     1
  0
STYLE
  2
STANDARD
 70
     0
 40
0.0
 41
0.8
 50
0.0
 71
     0
 42
0.2
  3
txt
  4

  0
ENDTAB
  0
TABLE
  2
VIEW
 70
     0
  0
ENDTAB
  0
TABLE
  2
UCS
 70
     0
  0
ENDTAB
  0
TABLE
  2
APPID
 70
    11
  0
APPID
  2
ACAD
 70
     0
  0
APPID
  2
ACAD_MLEADERVER
 70
     0
  0
APPID
  2
ACAD_EXEMPT_FROM_CAD_STANDARDS
 70
     0
  0
APPID
  2
ACAD_NAV_VCDISPLAY
 70
     0
  0
APPID
  2
ACAECLAYERSTANDARD
 70
     0
  0
APPID
  2
ACCMTRANSPARENCY
 70
     0
  0
APPID
  2
ACAD_DSTYLE_DIMJAG
 70
     0
  0
APPID
  2
ACAD_DSTYLE_DIMTALN
 70
     0
  0
APPID
  2
ACDBATTR
 70
     0
  0
APPID
  2
ACADANNOTATIVE
 70
     0
  0
APPID
  2
DCO15
 70
     0
  0
ENDTAB
  0
TABLE
  2
DIMSTYLE
 70
     1
  0
DIMSTYLE
  2
STANDARD
 70
     0
  3

  4

  5

  6

  7

 40
1.0
 41
0.1875
 42
0.0625
 43
0.38
 44
0.125
 45
0.0
 46
0.0
 47
0.01
 48
0.01
140
0.15625
141
0.09
142
0.0
143
25.3999999999999986
144
1.0
145
0.0
146
1.0
147
0.09
 71
     1
 72
     0
 73
     1
 74
     1
 75
     0
 76
     0
 77
     0
 78
     4
170
     0
171
     2
172
     0
173
     0
174
     0
175
     0
176
     0
177
     0
178
     0
  0
ENDTAB
  0
ENDSEC
  0
SECTION
  2
BLOCKS
  0
BLOCK
  8
0
  2
$MODEL_SPACE
 70
     0
 10
0.0
 20
0.0
 30
0.0
  3
$MODEL_SPACE
  1

  0
ENDBLK
  5
21
  8
0
  0
BLOCK
 67
     1
  8
0
  2
$PAPER_SPACE
 70
     0
 10
0.0
 20
0.0
 30
0.0
  3
$PAPER_SPACE
  1

  0
ENDBLK
  5
1D
 67
     1
  8
0
  0
ENDSEC
  0
SECTION
  2
ENTITIES
  0
ATTDEF
  5
159BF
  8
DEFPOINTS
 10
4823.5358352351277063
 20
523.9818151817404441
 30
0.0
 40
0.001
  1
K-3654T-CW
  3

  2
MODELNUMBER
 70
     0
1001
ACDBATTR
1070
     0
1070
     1
  0
ATTDEF
  5
159C0
  8
DEFPOINTS
 10
4823.5358352351277063
 20
523.9801483413613141
 30
0.0
 40
0.001
  1
PERSUADE
  3

  2
TRADENAME
 70
     0
1001
ACDBATTR
1070
     0
1070
     1
  0
ATTDEF
  5
159C1
  8
DEFPOINTS
 10
4823.5358352351277063
 20
523.9784818484070001
 30
0.0
 40
0.001
  1
TOILET
  3

  2
PRODUCT
 70
     0
1001
ACDBATTR
1070
     0
1070
     1
  0
LINE
  5
1D03D
  8
0
 10
4800.3861869428019418
 20
523.9784813012714721
 30
0.0
 11
4823.5358338626010664
 21
523.9784813012714721
 31
0.0
  0
LINE
  5
1D03E
  8
0
 10
4823.5358338626010664
 20
540.8265127973712652
 30
0.0
 11
4823.5358338626010664
 21
523.9784813012714721
 31
0.0
  0
LINE
  5
1D03F
  8
0
 10
4818.063178322046042
 20
539.7265127973714698
 30
0.0
 11
4796.1631672581852399
 21
539.7265127973714698
 31
0.0
  0
LINE
  5
1D040
  8
0
 10
4812.7395322271258919
 20
540.0440704173214499
 30
0.0
 11
4796.0487936521030861
 21
540.0440704173214499
 31
0.0
  0
LINE
  5
1D041
  8
0
 10
4818.8502814312423652
 20
555.7950167343713019
 30
0.0
 11
4820.6613050528303575
 21
555.7950167343713019
 31
0.0
  0
LINE
  5
1D042
  8
0
 10
4823.3357932419949066
 20
555.7084025610714662
 30
0.0
 11
4816.9257037042616503
 21
555.7084025610714662
 31
0.0
  0
LINE
  5
1D043
  8
0
 10
4816.9184447509187521
 20
553.7005285453714123
 30
0.0
 11
4823.47380003563012
 21
553.7005285453714123
 31
0.0
  0
ARC
  5
1D044
  8
0
 10
4797.8187584406350652
 20
541.8732666421088879
 30
0.0
 40
0.1009674118081696
 50
90.6086107251215083
 51
114.3727784015622007
  0
ARC
  5
1D045
  8
0
 10
4798.1313793339004405
 20
507.477799709862893
 30
0.0
 40
34.4978549042393112
 50
87.7439637851287273
 51
90.5210049787679338
  0
LINE
  5
1D046
  8
0
 10
4797.7770920460006892
 20
541.9652358206714098
 30
0.0
 11
4796.3465641270013293
 21
541.313625408771486
 31
0.0
  0
ARC
  5
1D047
  8
0
 10
4796.3880220491773798
 20
541.2226170706769608
 30
0.0
 40
0.1000063843658406
 50
114.4911545080545068
 51
164.9982739864659038
  0
LINE
  5
1D048
  8
0
 10
4796.2914240795007572
 20
541.2485035375714233
 30
0.0
 11
4796.2701400469013606
 21
541.1690704498713558
 31
0.0
  0
LINE
  5
1D049
  8
0
 10
4796.2701400469013606
 20
541.1690704498713558
 30
0.0
 11
4796.2701391308173697
 21
541.1540704494758529
 31
0.0
  0
ARC
  5
1D04A
  8
0
 10
4796.330165957949248
 20
541.1540972768059419
 30
0.0
 40
0.0600268331270998
 50
180.025606762168394
 51
269.9652463090333754
  0
LINE
  5
1D04B
  8
0
 10
4796.330129547695833
 20
541.0940704547214182
 30
0.0
 11
4796.536578093726348
 21
541.0940704547214182
 31
0.0
  0
LINE
  5
1D04C
  8
0
 10
4796.5970036453009016
 20
540.9398322667714183
 30
0.0
 11
4796.3715791465010625
 21
540.8443040470714323
 31
0.0
  0
LINE
  5
1D04D
  8
0
 10
4796.0958715663009571
 20
540.518691149071401
 30
0.0
 11
4795.9887935139022375
 21
540.1190704527714388
 31
0.0
  0
LINE
  5
1D04E
  8
0
 10
4795.9887935139022375
 20
540.1190704527714388
 30
0.0
 11
4795.9887935139022375
 21
540.1040705308805627
 31
0.0
  0
ARC
  5
1D04F
  8
0
 10
4796.0487936521030861
 20
540.104070555523208
 30
0.0
 40
0.0600001382017241
 50
180.0000235319178898
 51
270.000000000104194
  0
ARC
  5
1D050
  8
0
 10
4796.5788357494147931
 20
540.3892808218190567
 30
0.0
 40
0.5000014349684762
 50
114.4885895806357041
 51
164.999948595595697
  0
ARC
  5
1D051
  8
0
 10
4796.1633698458917934
 20
539.4904674034449954
 30
0.0
 40
0.2360454808624783
 50
90.0491745152878167
 51
185.4702662645867974
  0
ARC
  5
1D052
  8
0
 10
4799.9464626752105687
 20
539.8700144518812749
 30
0.0
 40
4.0381278136730154
 50
185.7140201903110892
 51
199.6024534123305898
  0
ARC
  5
1D053
  8
0
 10
4813.5742790692565904
 20
544.7233191352361246
 30
0.0
 40
18.5043625006710499
 50
199.6024534123305898
 51
214.7833201522811919
  0
ARC
  5
1D054
  8
0
 10
4767.4641845056366947
 20
512.6958722494466656
 30
0.0
 40
37.6374060383410622
 50
30.2464002239834997
 51
34.7833201522811635
  0
ARC
  5
1D055
  8
0
 10
4797.0569931954223648
 20
529.6467985777275089
 30
0.0
 40
3.5444157993673602
 50
6.9889552347809802
 51
34.5038730281992514
  0
ARC
  5
1D056
  8
0
 10
4781.1051516143006666
 20
527.9099984394603098
 30
0.0
 40
19.5902625289592898
 50
359.2596694859772128
 51
6.3540079737602841
  0
ARC
  5
1D057
  8
0
 10
4852.3256208472494109
 20
526.9896929368057954
 30
0.0
 40
51.6361525147554588
 50
179.2596694859772128
 51
180.7833629475740054
  0
ARC
  5
1D058
  8
0
 10
4794.9148152048092015
 20
526.2047084085801316
 30
0.0
 40
5.7800194686119779
 50
346.905240017192682
 51
0.7833629475740703
  0
ARC
  5
1D059
  8
0
 10
4804.7240738110649545
 20
523.7011844700757592
 30
0.0
 40
4.3467408496983797
 50
164.0566839336948988
 51
176.3423781276765965
  0
ARC
  5
1D05A
  8
0
 10
4818.8502814312423652
 20
555.755646655329997
 30
0.0
 40
0.0393700790413831
 50
90.0000003513270173
 51
179.9999996487088083
  0
LINE
  5
1D05B
  8
0
 10
4818.8109113522014013
 20
555.7556466555713541
 30
0.0
 11
4818.8109113522014013
 21
555.7084025610714662
 31
0.0
  0
ARC
  5
1D05C
  8
0
 10
4816.9257037042443699
 20
555.5084071322172576
 30
0.0
 40
0.1999954288540167
 50
89.9999999949453269
 51
182.4714201532528932
  0
LINE
  5
1D05D
  8
0
 10
4816.7258943001015723
 20
555.4997831204714203
 30
0.0
 11
4816.7985563627016745
 21
553.8153568480714739
 31
0.0
  0
ARC
  5
1D05E
  8
0
 10
4816.9185282316148005
 20
553.8206155832097011
 30
0.0
 40
0.1200870668548392
 50
182.5098432272255025
 51
269.9601697913773819
  0
ARC
  5
1D05F
  8
0
 10
4816.984235050598727
 20
553.6384845043063478
 30
0.0
 40
0.0620440477326889
 50
89.9734371376093947
 51
180.8226263005888939
  0
LINE
  5
1D060
  8
0
 10
4816.9221973976009394
 20
553.6375937351714356
 30
0.0
 11
4817.0379151110009843
 21
541.0243629324712629
 31
0.0
  0
LINE
  5
1D061
  8
0
 10
4823.5358338626010664
 20
540.8265127973712652
 30
0.0
 11
4817.0397279126000285
 21
540.8265127973712652
 31
0.0
  0
LINE
  5
1D062
  8
0
 10
4817.0397279126000285
 20
540.8265127973712652
 30
0.0
 11
4816.8064684444016166
 21
540.0118459418714565
 31
0.0
  0
ARC
  5
1D063
  8
0
 10
4816.4279738321210971
 20
540.1202166578923425
 30
0.0
 40
0.3937034208842372
 50
271.7749005746159128
 51
344.0225042028689018
  0
ARC
  5
1D064
  8
0
 10
4817.2379441594875971
 20
541.0265538439881539
 30
0.0
 40
0.20004104661753
 50
180.6275336741167052
 51
269.999855121167684
  0
ARC
  5
1D065
  8
0
 10
4818.2835899719430017
 20
555.3370616249479781
 30
0.0
 40
1.512702197408283
 50
5.5259016584187997
 51
14.2103114311626797
  0
LINE
  5
1D066
  8
0
 10
4819.7892622909012061
 20
555.4827283883714699
 30
0.0
 11
4819.9321986181012107
 21
553.8051072834714432
 31
0.0
  0
ARC
  5
1D067
  8
0
 10
4819.6815913278387598
 20
553.8072068616837669
 30
0.0
 40
0.250616085201252
 50
334.8072823709007935
 51
359.5199893995077787
  0
ARC
  5
1D068
  8
0
 10
4819.8532722610580095
 20
553.6392178381204303
 30
0.0
 40
0.1508847251822683
 50
357.2867138133507865
 51
23.9744878925121085
  0
LINE
  5
1D069
  8
0
 10
4820.0039878331008367
 20
553.6320752449713609
 30
0.0
 11
4819.3447904180011392
 21
541.0073826508713637
 31
0.0
  0
LINE
  5
1D06A
  8
0
 10
4819.3447904180011392
 20
541.0073826508713637
 30
0.0
 11
4819.3425953618016138
 21
540.8265241902713569
 31
0.0
  0
ARC
  5
1D06B
  8
0
 10
4818.0311576464237078
 20
540.3330304335617029
 30
0.0
 40
0.607362302647355
 50
273.0220850485299025
 51
314.576549365262224
  0
ARC
  5
1D06C
  8
0
 10
4818.2438398466756553
 20
540.0889397747921521
 30
0.0
 40
0.2849101361387072
 50
318.5658955125852003
 51
344.2094466231695264
  0
ARC
  5
1D06D
  8
0
 10
4829.3878130106213575
 20
538.0552481771673001
 30
0.0
 40
11.0444302437700603
 50
165.4680607394030005
 51
169.7980953792483092
  0
ARC
  5
1D06E
  8
0
 10
4823.3357932420021825
 20
541.0265127973714243
 30
0.0
 40
0.2000000000000095
 50
272.308250670726693
 51
359.9999999999935199
  0
ARC
  5
1D06F
  8
0
 10
4823.3357932420021825
 20
555.5084025610714207
 30
0.0
 40
0.2000000000000028
 50
359.9999999962514039
 51
90.0
  0
ARC
  5
1D070
  8
0
 10
4812.4872378775326069
 20
540.128473081054949
 30
0.0
 40
2.7108180265607911
 50
71.3458604931157225
 51
72.9311318834144942
  0
ARC
  5
1D071
  8
0
 10
4813.3112042500024472
 20
542.5636088726438402
 30
0.0
 40
0.1400701140285186
 50
39.9793767766463191
 51
72.078460301731738
  0
ARC
  5
1D072
  8
0
 10
4813.3199931306307917
 20
542.5720129465663604
 30
0.0
 40
0.1279381477765539
 50
2.2528503240114879
 51
39.624292132711382
  0
ARC
  5
1D073
  8
0
 10
4867.1532640753848682
 20
544.3565381816116542
 30
0.0
 40
53.7349048422492714
 50
181.897765680089492
 51
182.102232219609391
  0
ARC
  5
1D074
  8
0
 10
4813.5457348948057188
 20
542.3887479841852155
 30
0.0
 40
0.0912716402778314
 50
182.102232219609391
 51
205.9999445412933881
  0
ARC
  5
1D075
  8
0
 10
4816.7767355267151288
 20
543.9646084146828571
 30
0.0
 40
3.68608751592441
 50
205.9999445412933881
 51
215.9732000089200881
  0
ARC
  5
1D076
  8
0
 10
4813.3977333845778048
 20
541.5120336583996732
 30
0.0
 40
0.4891703697308536
 50
10.1024220243371303
 51
35.9732000089201378
  0
LINE
  5
1D077
  8
0
 10
4813.8793195424013902
 20
541.5978382224714096
 30
0.0
 11
4814.0327773819017239
 21
540.3140703028713006
 31
0.0
  0
LINE
  5
1D078
  8
0
 10
4814.0327773819017239
 20
540.3140703028713006
 30
0.0
 11
4814.0853766719010309
 21
540.2959589142714094
 31
0.0
  0
LINE
  5
1D079
  8
0
 10
4814.0853766719010309
 20
540.2959589142714094
 30
0.0
 11
4814.0798619446022713
 21
540.3743150451714428
 31
0.0
  0
ARC
  5
1D07A
  8
0
 10
4814.0798620290879626
 20
540.4243149271377433
 30
0.0
 40
0.0499998819664261
 50
269.9999031851222071
 51
326.0699916597718016
  0
ARC
  5
1D07B
  8
0
 10
4814.1379755713842314
 20
540.3852200515749473
 30
0.0
 40
0.0200400573074372
 50
83.1388160539612784
 51
146.0699916597662877
  0
ARC
  5
1D07C
  8
0
 10
4813.0398068932418028
 20
531.2586056373705787
 30
0.0
 40
9.2124861469627106
 50
80.6808032916848958
 51
83.1388160539612784
  0
ARC
  5
1D07D
  8
0
 10
4812.6698313770375535
 20
529.0040366330263168
 30
0.0
 40
11.4972100423030508
 50
75.821220609910057
 51
80.6808032916848958
  0
ARC
  5
1D07E
  8
0
 10
4815.4678799927705768
 20
540.0938151088688528
 30
0.0
 40
0.0600006513471932
 50
0.4563658068363128
 51
72.3687075084743725
  0
ARC
  5
1D07F
  8
0
 10
4815.4171979070333691
 20
540.0877033147970678
 30
0.0
 40
0.1108768285431074
 50
352.9047272537699769
 51
3.4072456223929501
  0
ARC
  5
1D080
  8
0
 10
4815.4433508005304247
 20
540.091256672263853
 30
0.0
 40
0.0856300943798798
 50
304.5817922185851216
 51
348.3791673294801967
  0
ARC
  5
1D081
  8
0
 10
4815.6904666683876712
 20
539.7252995086549845
 30
0.0
 40
0.3559525769533041
 50
123.8966930095321999
 51
137.9573156488378913
  0
ARC
  5
1D082
  8
0
 10
4815.5697470475652153
 20
539.840432649557556
 30
0.0
 40
0.1892551493918275
 50
139.3679939647774972
 51
165.0550206523653003
  0
ARC
  5
1D083
  8
0
 10
4815.5359628188980423
 20
539.853343299914286
 30
0.0
 40
0.1533303034842337
 50
166.4606573242068066
 51
176.4169281476204958
  0
LINE
  5
1D084
  8
0
 10
4815.3829322399024022
 20
539.8629257765713874
 30
0.0
 11
4815.3757047744011288
 21
539.7265230621712817
 31
0.0
  0
LINE
  5
1D085
  8
0
 10
4814.0853766719010309
 20
540.2959589142714094
 30
0.0
 11
4814.2064161745011006
 21
539.7265127973714698
 31
0.0
  0
LINE
  5
1D086
  8
0
 10
4813.8793195424013902
 20
541.5978382224714096
 30
0.0
 11
4814.0386075558017183
 21
540.2437792016714866
 31
0.0
  0
LINE
  5
1D087
  8
0
 10
4814.0386075558017183
 20
540.2437792016714866
 30
0.0
 11
4813.3199011360011355
 21
540.1246459265713611
 31
0.0
  0
LINE
  5
1D088
  8
0
 10
4813.0741438902014124
 20
540.2278720187714498
 30
0.0
 11
4812.613920651700937
 21
540.8851389341714366
 31
0.0
  0
LINE
  5
1D089
  8
0
 10
4812.9917678215751948
 20
540.082666915332652
 30
0.0
 11
4812.4196718273024089
 21
540.8997046796713448
 31
0.0
  0
LINE
  5
1D08A
  8
0
 10
4813.2529015148084
 20
540.1226249795134891
 30
0.0
 11
4812.5582665386509689
 21
540.0163335675714507
 31
0.0
  0
ARC
  5
1D08B
  8
0
 10
4813.2789319029716353
 20
540.3712661228084926
 30
0.0
 40
0.2499999984940743
 50
214.9999988285769064
 51
279.431999449671423
  0
ARC
  5
1D08C
  8
0
 10
4811.1897502451756736
 20
549.7423276804688612
 30
0.0
 40
9.8218021935703224
 50
276.0574844913344918
 51
278.0093408023763004
  0
ARC
  5
1D08D
  8
0
 10
4812.4602095984409971
 20
537.3243194818586517
 30
0.0
 40
2.6613531878663941
 50
95.0442954782076157
 51
108.5336224720628024
  0
ARC
  5
1D08E
  8
0
 10
4812.6519531748799636
 20
536.6080800808567801
 30
0.0
 40
3.371802490410075
 50
101.2463823521205057
 51
104.2454757507551051
  0
LINE
  5
1D08F
  8
0
 10
4811.9943559471012122
 20
539.929669777571462
 30
0.0
 11
4811.9943559470011678
 21
539.9151358590714835
 31
0.0
  0
LINE
  5
1D090
  8
0
 10
4811.9904184461011027
 20
539.9289118538714547
 30
0.0
 11
4811.9904184461011027
 21
539.9143504625642436
 31
0.0
  0
LINE
  5
1D091
  8
0
 10
4811.8222309467009836
 20
539.89128811707144
 30
0.0
 11
4811.8222309467009836
 21
539.8762008035967028
 31
0.0
  0
LINE
  5
1D092
  8
0
 10
4811.8261684458011587
 20
539.8931387462713474
 30
0.0
 11
4811.8261684458011587
 21
539.8771979459019121
 31
0.0
  0
ARC
  5
1D093
  8
0
 10
4812.7407059283741546
 20
536.3033438572330169
 30
0.0
 40
3.7040155131688728
 50
98.5256311273136447
 51
107.4932255174015978
  0
ARC
  5
1D094
  8
0
 10
4812.1907930831357589
 20
539.9713669185966864
 30
0.0
 40
0.0050003690756559
 50
279.0410286496236267
 51
359.9963788845757904
  0
LINE
  5
1D095
  8
0
 10
4812.1957934522006326
 20
539.9713666025712655
 30
0.0
 11
4812.1957934522006326
 21
539.9725046891608145
 31
0.0
  0
ARC
  5
1D096
  8
0
 10
4811.6257931845038911
 20
539.8408224716035875
 30
0.0
 40
0.0049985659247645
 50
179.9945900962779888
 51
287.6008609744700948
  0
LINE
  5
1D097
  8
0
 10
4811.6207946186013942
 20
539.8408229435714247
 30
0.0
 11
4811.6207948133733225
 21
539.8428857594454939
 31
0.0
  0
ARC
  5
1D098
  8
0
 10
4811.6157907772667386
 20
539.8428794192919895
 30
0.0
 40
0.005004040123034
 50
0.0725941332406534
 51
107.6880275754194969
  0
ARC
  5
1D099
  8
0
 10
4812.4697200364316814
 20
537.1527749253153843
 30
0.0
 40
2.8273902702477161
 50
107.6113403195398064
 51
114.4548950969463021
  0
ARC
  5
1D09A
  8
0
 10
4813.2111600971320513
 20
542.2861664466227012
 30
0.0
 40
0.4396165790985136
 50
80.6054352027558281
 51
99.3945647972441861
  0
ARC
  5
1D09B
  8
0
 10
4815.53577789517567
 20
527.9983841790963197
 30
0.0
 40
14.9152694377319897
 50
99.2455583653807878
 51
101.9744918381608016
  0
ARC
  5
1D09C
  8
0
 10
4806.6742857717335937
 20
569.7914546944157337
 30
0.0
 40
27.8069354309743915
 50
277.8526906999933885
 51
281.9695452088291177
  0
ARC
  5
1D09D
  8
0
 10
4806.5563171247868013
 20
572.440957919003381
 30
0.0
 40
30.4486976389631607
 50
272.1451050969720882
 51
277.3914202977554169
  0
ARC
  5
1D09E
  8
0
 10
4797.7553236777112033
 20
783.2666879055309437
 30
0.0
 40
241.4578039872270097
 50
271.7173131238989754
 51
272.359506242217094
  0
ARC
  5
1D09F
  8
0
 10
4802.6351324751340144
 20
612.1167522888795247
 30
0.0
 40
70.2383162063530762
 50
267.4330527050544219
 51
269.3838109390335944
  0
ARC
  5
1D0A0
  8
0
 10
4802.6297379758825628
 20
613.8783649951163852
 30
0.0
 40
71.9997731393050344
 50
269.4031794688027048
 51
271.8796931635899909
  0
ARC
  5
1D0A1
  8
0
 10
4796.8235143146721384
 20
536.7900521798889031
 30
0.0
 40
4.5486477373590599
 50
89.6866208676718344
 51
96.0188344586781426
  0
ARC
  5
1D0A2
  8
0
 10
4795.9734568622998268
 20
633.7564699705324074
 30
0.0
 40
92.4219795858653441
 50
270.5424131528621956
 51
271.4033857833467209
  0
ARC
  5
1D0A3
  8
0
 10
4823.9298193960948993
 20
-1202.8506774140169
 30
0.0
 40
1744.4021119945789451
 50
90.622948368671473
 51
90.8439247350508055
  0
ARC
  5
1D0A4
  8
0
 10
4784.9356455927800198
 20
2667.4928075329457897
 30
0.0
 40
2126.1388138647771484
 50
270.5397425178780964
 51
270.7781126552097817
  0
ARC
  5
1D0A5
  8
0
 10
4813.8169215096022526
 20
541.4740092761860524
 30
0.0
 40
0.0764524253718137
 50
7.8272266738966101
 51
95.9036799893042655
  0
LINE
  5
1D0A6
  8
0
 10
4810.5385218829378573
 20
541.0090703672714199
 30
0.0
 11
4809.3406921765563311
 21
541.0090703672714199
 31
0.0
  0
ARC
  5
1D0A7
  8
0
 10
4799.3318495661724228
 20
540.9178353034380962
 30
0.0
 40
0.0450619346101079
 50
5.0731597568808553
 51
89.3812526904697648
  0
LINE
  5
1D0A8
  8
0
 10
4799.3767349751005895
 20
540.9218200262713481
 30
0.0
 11
4799.3769955959023719
 21
540.9188411159714178
 31
0.0
  0
ARC
  5
1D0A9
  8
0
 10
4799.4367672829948788
 20
540.9240704624791078
 30
0.0
 40
0.0600000053577541
 50
185.0000014148002947
 51
269.9999944599554169
  0
ARC
  5
1D0AA
  8
0
 10
4796.6420127708543077
 20
539.0893857871003547
 30
0.0
 40
1.775632970796529
 50
92.9447096727803341
 51
98.7603927324054496
  0
ARC
  5
1D0AB
  8
0
 10
4796.9327494765393567
 20
528.829595424596846
 30
0.0
 40
12.0391392381526199
 50
88.604860183524778
 51
91.8180769150242355
  0
ARC
  5
1D0AC
  8
0
 10
4798.7145012086975839
 20
-525.675038688836139
 30
0.0
 40
1066.5412433352519201
 50
89.9619995942775716
 51
90.0799708964380272
  0
LINE
  5
1D0AD
  8
0
 10
4799.4367672829948788
 20
540.8640704571214428
 30
0.0
 11
4800.4861527034827304
 21
540.8640704571214428
 31
0.0
  0
ARC
  5
1D0AE
  8
0
 10
4800.6474366745078441
 20
540.9187139693564177
 30
0.0
 40
0.1020376735488244
 50
144.1502313221569125
 51
163.26863598812389
  0
ARC
  5
1D0AF
  8
0
 10
4800.6083789155582053
 20
540.9304551672828438
 30
0.0
 40
0.0612533105773583
 50
163.268635988126988
 51
173.1993119083919055
  0
LINE
  5
1D0B0
  8
0
 10
4800.5475565780016041
 20
540.937708532771353
 30
0.0
 11
4800.5459058922006079
 21
540.9188411090714226
 31
0.0
  0
ARC
  5
1D0B1
  8
0
 10
4800.4861342102485651
 20
540.9240704544042728
 30
0.0
 40
0.0600000001328326
 50
269.9999994689449068
 51
354.9999992749350781
  0
LINE
  5
1D0B2
  8
0
 10
4812.9709651669008963
 20
540.0790815148714046
 30
0.0
 11
4812.9586531924023802
 21
539.7265127973714698
 31
0.0
  0
LINE
  5
1D0B3
  8
0
 10
4800.2042638569009796
 20
540.0440704592714383
 30
0.0
 11
4800.185052468401409
 21
539.824483309471475
 31
0.0
  0
ARC
  5
1D0B4
  8
0
 10
4800.0754710516812338
 20
539.8340704424053911
 30
0.0
 40
0.1100000000373506
 50
282.0962996150092863
 51
354.9999993576799966
  0
ARC
  5
1D0B5
  8
0
 10
4795.7955784633431904
 20
283.2515641087435938
 30
0.0
 40
256.5346268617284977
 50
88.7641071700817861
 51
89.0284015225287533
  0
ARC
  5
1D0B6
  8
0
 10
4796.9324399152828846
 20
539.0181446101880738
 30
0.0
 40
1.677002517979949
 50
26.9166825815152002
 51
37.7180400743610633
  0
ARC
  5
1D0B7
  8
0
 10
4798.4814759986020363
 20
539.8040807664191334
 30
0.0
 40
0.0600104428297994
 50
206.4893970291693108
 51
269.0809068753792985
  0
ARC
  5
1D0B8
  8
0
 10
4767.7223715832706148
 20
-1294.412983430722079
 30
0.0
 40
1834.4149447295139908
 50
89.0179269739811332
 51
89.0392608260290643
  0
ARC
  5
1D0B9
  8
0
 10
4799.0336076638459417
 20
540.0006940373762063
 30
0.0
 40
0.0468996028535776
 50
5.8752245168010822
 51
64.9961773615061986
  0
LINE
  5
1D0BA
  8
0
 10
4799.0802609112006394
 20
540.0054947934713709
 30
0.0
 11
4799.0960973603014281
 21
539.824483330571411
 31
0.0
  0
ARC
  5
1D0BB
  8
0
 10
4799.2056787772189637
 20
539.8340704612024865
 30
0.0
 40
0.1100000000342499
 50
184.9999994384008914
 51
257.9037471148553777
  0
LINE
  5
1D0BC
  8
0
 10
4808.7416174329146088
 20
539.7840703741713924
 30
0.0
 11
4809.2169003708049786
 21
539.7840703741713924
 31
0.0
  0
ARC
  5
1D0BD
  8
0
 10
4808.4586283765183907
 20
539.7548684387571711
 30
0.0
 40
0.2313500733408737
 50
56.482461030860911
 51
98.5888602169229387
  0
ARC
  5
1D0BE
  8
0
 10
4808.5114775879637818
 20
539.834661806233612
 30
0.0
 40
0.1356420765822534
 50
14.3476951973678499
 51
56.482461030860911
  0
ARC
  5
1D0BF
  8
0
 10
4808.7416335574016557
 20
539.8840703728714061
 30
0.0
 40
0.1000000000000073
 50
189.0883354514006953
 51
269.9907613502998061
  0
ARC
  5
1D0C0
  8
0
 10
4808.5612343496595713
 20
540.0980821571150727
 30
0.0
 40
0.1786409054077242
 50
197.5986906661536864
 51
219.8452509827077961
  0
ARC
  5
1D0C1
  8
0
 10
4809.5065275075339741
 20
539.8513181501349436
 30
0.0
 40
0.1927553413729204
 50
90.2733114030522756
 51
103.5128065123583951
  0
ARC
  5
1D0C2
  8
0
 10
4809.5123063978016944
 20
539.8272710196276876
 30
0.0
 40
0.2174871035093237
 50
103.5128065123583951
 51
148.5182640100238132
  0
LINE
  5
1D0C3
  8
0
 10
4809.3167633265011318
 20
539.8788367788713458
 30
0.0
 11
4809.31834890330083
 21
539.9090918998714415
 31
0.0
  0
ARC
  5
1D0C4
  8
0
 10
4809.3897609372979787
 20
539.9070272603942158
 30
0.0
 40
0.0714418738255528
 50
151.7440844508633973
 51
178.3439460009959134
  0
ARC
  5
1D0C5
  8
0
 10
4809.2169003708049786
 20
539.8840703764940372
 30
0.0
 40
0.1000000023226475
 50
270.0000011771174968
 51
356.9999989231992004
  0
ARC
  5
1D0C6
  8
0
 10
4808.8434693361932659
 20
539.8648450980740563
 30
0.0
 40
0.1883538069234177
 50
358.710285739524295
 51
72.0890082674850845
  0
ARC
  5
1D0C7
  8
0
 10
4809.1171901185725801
 20
539.8694814773047028
 30
0.0
 40
0.0858746165785615
 50
185.9325665236237057
 51
264.0442805952899903
  0
ARC
  5
1D0C8
  8
0
 10
4809.2712579363151235
 20
541.0475690065607068
 30
0.0
 40
0.0274529824426082
 50
40.4757971837464865
 51
68.0276877761569665
  0
ARC
  5
1D0C9
  8
0
 10
4809.2714833219715729
 20
541.0445534155890073
 30
0.0
 40
0.0293406863446301
 50
5.5341598180071907
 51
45.2464794439449705
  0
LINE
  5
1D0CA
  8
0
 10
4809.3006872478008518
 20
541.0473830076714421
 30
0.0
 11
4809.3008443747876299
 21
541.0455841439020332
 31
0.0
  0
ARC
  5
1D0CB
  8
0
 10
4809.3406921765499646
 20
541.0490703818120437
 30
0.0
 40
0.0400000145407435
 50
185.0000075682422107
 51
270.000000009015082
  0
ARC
  5
1D0CC
  8
0
 10
4810.6075974456452968
 20
541.0586794960370298
 30
0.0
 40
0.0279997874067452
 50
90.6284842303190743
 51
175.0001709714022127
  0
LINE
  5
1D0CD
  8
0
 10
4810.5797041986015756
 20
541.0611197550714451
 30
0.0
 11
4810.5783450073013228
 21
541.0455841295713526
 31
0.0
  0
ARC
  5
1D0CE
  8
0
 10
4810.5384972193860449
 20
541.0490703596946105
 30
0.0
 40
0.0400000000267734
 50
270.0353279368627
 51
354.999999409185591
  0
ARC
  5
1D0CF
  8
0
 10
4812.3366326452687645
 20
540.8412940776370306
 30
0.0
 40
0.1015248943977897
 50
35.1229419011430224
 51
80.1880126374378506
  0
ARC
  5
1D0D0
  8
0
 10
4812.1607240320081473
 20
540.1481781800408726
 30
0.0
 40
0.8163492551586005
 50
76.3095788361713403
 51
90.3985494058471062
  0
LINE
  5
1D0D1
  8
0
 10
4812.1550455529022656
 20
540.964507685371359
 30
0.0
 11
4811.8786525131999952
 21
540.9615378466714901
 31
0.0
  0
ARC
  5
1D0D2
  8
0
 10
4827.2181191024073996
 20
-846.5053285448827864
 30
0.0
 40
1387.5516583427229307
 50
90.6334211727020858
 51
90.6945936010992
  0
ARC
  5
1D0D3
  8
0
 10
4837.7832593252896913
 20
-1717.9620895039840889
 30
0.0
 40
2259.0724603946628122
 50
90.6945936010992
 51
90.8084380797608475
  0
ARC
  5
1D0D4
  8
0
 10
4802.1845107813387585
 20
590.6000505738567199
 30
0.0
 40
49.7478884601150781
 50
268.0902238533083732
 51
268.9134956865501067
  0
ARC
  5
1D0D5
  8
0
 10
4802.4893069476311211
 20
820.8511369005635743
 30
0.0
 40
280.0009851415289859
 50
269.4287069286910992
 51
269.9438271151179265
  0
ARC
  5
1D0D6
  8
0
 10
4802.3643411817756714
 20
598.1143630251771128
 30
0.0
 40
57.2642719742189925
 50
268.8761630364405164
 51
269.8503698892714056
  0
ARC
  5
1D0D7
  8
0
 10
4801.7566712573279801
 20
782.735461022009531
 30
0.0
 40
241.8856085298193079
 50
270.1085161215190737
 51
270.9836200356601807
  0
ARC
  5
1D0D8
  8
0
 10
4796.4559052044960481
 20
541.066996863775671
 30
0.0
 40
0.0850946201791613
 50
8.9136771060803568
 51
18.5516053746138603
  0
ARC
  5
1D0D9
  8
0
 10
4795.7626470795794376
 20
540.9744695849341269
 30
0.0
 40
0.7844802975838863
 50
4.904986173728048
 51
7.7444327683130281
  0
ARC
  5
1D0DA
  8
0
 10
4796.6638857711795936
 20
541.036272340438245
 30
0.0
 40
0.1173622876864602
 50
195.1211213298649909
 51
268.9265584540445957
  0
ARC
  5
1D0DB
  8
0
 10
4796.7764535298074406
 20
541.0640140224151082
 30
0.0
 40
0.2332835703022569
 50
185.5269657995442003
 51
194.4866346817794067
  0
ARC
  5
1D0DC
  8
0
 10
4797.2271730485772423
 20
494.4443962894014248
 30
0.0
 40
46.477974550669849
 50
90.4587677764850326
 51
90.6971206804976759
  0
ARC
  5
1D0DD
  8
0
 10
4700.5500899407561519
 20
6263.4217923031792452
 30
0.0
 40
5723.3112200441837558
 50
270.9641493670991963
 51
270.9882636202220851
  0
ARC
  5
1D0DE
  8
0
 10
4805.3921715065953322
 20
110.3443168972846991
 30
0.0
 40
430.6612138047740928
 50
90.6422631928283948
 51
90.8153992513435639
  0
ARC
  5
1D0DF
  8
0
 10
4840.1627228997176644
 20
-3015.2582087761920775
 30
0.0
 40
3556.4571334169650072
 50
90.6044396869383633
 51
90.6379508296450496
  0
ARC
  5
1D0E0
  8
0
 10
4776.2190356057635654
 20
2905.9657648175480062
 30
0.0
 40
2365.1123726006321704
 50
270.6401856278992
 51
270.695103953269097
  0
ARC
  5
1D0E1
  8
0
 10
4823.5941140697059382
 20
-1040.4187636271269639
 30
0.0
 40
1581.5565550592300497
 50
90.5185156794753993
 51
90.6768384669024243
  0
ARC
  5
1D0E2
  8
0
 10
4798.2803385427132525
 20
1673.984417825329956
 30
0.0
 40
1132.9648024318059925
 50
270.5563559673080931
 51
270.62340528544172
  0
ARC
  5
1D0E3
  8
0
 10
4804.5079211894108084
 20
1103.2910395567780597
 30
0.0
 40
562.2374470877899739
 50
270.6215789520729231
 51
270.7784687798356913
  0
ARC
  5
1D0E4
  8
0
 10
4812.1866114277963788
 20
540.5845948651814297
 30
0.0
 40
0.5224173716861933
 50
35.1202894377796966
 51
94.3795190803016339
  0
LINE
  5
1D0E5
  8
0
 10
4823.5357932420010911
 20
541.0265127973714243
 30
0.0
 11
4823.5357932420010911
 21
553.6385285451081018
 31
0.0
  0
LINE
  5
1D0E6
  8
0
 10
4823.5357932420010911
 20
553.8204823907386753
 30
0.0
 11
4823.5357932420010911
 21
555.5084025610583467
 31
0.0
  0
ARC
  5
1D0E7
  8
0
 10
4820.6613050528303575
 20
555.7556466555007546
 30
0.0
 40
0.0393700788707001
 50
0.0000001028948624
 51
89.9999997515906358
  0
LINE
  5
1D0E8
  8
0
 10
4820.7006751317012458
 20
555.7556466555713541
 30
0.0
 11
4820.7006751317012458
 21
555.7084025610714662
 31
0.0
  0
ARC
  5
1D0E9
  8
0
 10
4816.8610487944051783
 20
525.0985356411479188
 30
0.0
 40
0.354386749949323
 50
269.8072970570771076
 51
88.5689505576945351
  0
ARC
  5
1D0EA
  8
0
 10
4816.8684179943411436
 20
525.098431213238996
 30
0.0
 40
0.3543837412165989
 50
89.7605182839175626
 51
268.6157293308605176
  0
ARC
  5
1D0EB
  8
0
 10
4816.8360816885742679
 20
525.0999647522859277
 30
0.0
 40
0.3000534583088283
 50
6.946215708028987
 51
89.819537428756945
  0
ARC
  5
1D0EC
  8
0
 10
4816.8356723103433978
 20
525.0976863435125779
 30
0.0
 40
0.3007435131324944
 50
270.2580412639886731
 51
7.3676695490434634
  0
ARC
  5
1D0ED
  8
0
 10
4816.8383269743380879
 20
525.0992461228340744
 30
0.0
 40
0.3007734098214552
 50
90.2476857945253244
 51
187.3590363873892102
  0
ARC
  5
1D0EE
  8
0
 10
4816.8379343395426986
 20
525.0970554087388109
 30
0.0
 40
0.3001109129121355
 50
186.9538384895076035
 51
269.8267279548833812
  0
ARC
  5
1D0EF
  8
0
 10
4812.1923250829504468
 20
543.2624477395846725
 30
0.0
 40
2.3267331081280971
 50
273.9828266759761846
 51
278.7656905541243759
  0
ARC
  5
1D0F0
  8
0
 10
4823.4158163130796311
 20
553.8205054742956008
 30
0.0
 40
0.1199769311424364
 50
269.9889822541528019
 51
359.9889762941648996
  0
ARC
  5
1D0F1
  8
0
 10
4823.4737932413645467
 20
553.6385285451081018
 30
0.0
 40
0.0620000006355497
 50
359.9999999999088232
 51
89.9937212472385255
  0
ENDSEC
  0
EOF
