  0
SECTION
  2
HEADER
  9
$ACADVER
  1
AC1009
  9
$INSBASE
 10
4763.2101363154642968
 20
545.4928912460526362
 30
0.0
  9
$EXTMIN
 10
4755.8298642361696693
 20
517.8799222690054194
 30
-0.0000000000112498
  9
$EXTMAX
 10
4770.6685284838158623
 20
545.5005163664785641
 30
0.0000000000002956
  9
$LIMMIN
 10
0.0
 20
0.0
  9
$LIMMAX
 10
11.6929133858000007
 20
8.2677165353999982
  9
$ORTHOMODE
 70
     0
  9
$REGENMODE
 70
     1
  9
$FILLMODE
 70
     1
  9
$QTEXTMODE
 70
     0
  9
$MIRRTEXT
 70
     0
  9
$DRAGMODE
 70
     2
  9
$LTSCALE
 40
0.6431102362
  9
$OSMODE
 70
     7
  9
$ATTMODE
 70
     1
  9
$TEXTSIZE
 40
0.2
  9
$TRACEWID
 40
0.05
  9
$TEXTSTYLE
  7
STANDARD
  9
$CLAYER
  8
0
  9
$CELTYPE
  6
BYLAYER
  9
$CECOLOR
 62
   256
  9
$DIMSCALE
 40
1.0
  9
$DIMASZ
 40
0.1875
  9
$DIMEXO
 40
0.0625
  9
$DIMDLI
 40
0.4443307087
  9
$DIMRND
 40
0.0
  9
$DIMDLE
 40
0.0
  9
$DIMEXE
 40
0.125
  9
$DIMTP
 40
0.01
  9
$DIMTM
 40
0.01
  9
$DIMTXT
 40
2.0
  9
$DIMCEN
 40
0.1052362205
  9
$DIMTSZ
 40
0.0
  9
$DIMTOL
 70
     1
  9
$DIMLIM
 70
     0
  9
$DIMTIH
 70
     1
  9
$DIMTOH
 70
     1
  9
$DIMSE1
 70
     0
  9
$DIMSE2
 70
     0
  9
$DIMTAD
 70
     0
  9
$DIMZIN
 70
     0
  9
$DIMBLK
  1

  9
$DIMASO
 70
     1
  9
$DIMSHO
 70
     1
  9
$DIMPOST
  1
\X
  9
$DIMAPOST
  1

  9
$DIMALT
 70
     1
  9
$DIMALTD
 70
     2
  9
$DIMALTF
 40
25.3999999999999986
  9
$DIMLFAC
 40
1.0
  9
$DIMTOFL
 70
     0
  9
$DIMTVP
 40
0.0
  9
$DIMTIX
 70
     0
  9
$DIMSOXD
 70
     0
  9
$DIMSAH
 70
     0
  9
$DIMBLK1
  1

  9
$DIMBLK2
  1

  9
$DIMSTYLE
  2
STANDARD
  9
$DIMCLRD
 70
     0
  9
$DIMCLRE
 70
     0
  9
$DIMCLRT
 70
     0
  9
$DIMTFAC
 40
1.0
  9
$DIMGAP
 40
0.09
  9
$LUNITS
 70
     2
  9
$LUPREC
 70
     4
  9
$SKETCHINC
 40
0.1
  9
$FILLETRAD
 40
0.0
  9
$AUNITS
 70
     0
  9
$AUPREC
 70
     0
  9
$MENU
  1
.
  9
$ELEVATION
 40
0.0
  9
$PELEVATION
 40
0.0
  9
$THICKNESS
 40
0.0
  9
$LIMCHECK
 70
     0
  9
$BLIPMODE
 70
     0
  9
$CHAMFERA
 40
0.0
  9
$CHAMFERB
 40
0.0
  9
$SKPOLY
 70
     0
  9
$TDCREATE
 40
2458060.468368056230247
  9
$TDUPDATE
 40
2459350.9322685180231929
  9
$TDINDWG
 40
1.5097885879999999
  9
$TDUSRTIMER
 40
1.5097885879999999
  9
$USRTIMER
 70
     1
  9
$ANGBASE
 50
0.0
  9
$ANGDIR
 70
     0
  9
$PDMODE
 70
     0
  9
$PDSIZE
 40
0.3125
  9
$PLINEWID
 40
0.0
  9
$COORDS
 70
     1
  9
$SPLFRAME
 70
     0
  9
$SPLINETYPE
 70
     6
  9
$SPLINESEGS
 70
     8
  9
$ATTDIA
 70
     1
  9
$ATTREQ
 70
     1
  9
$HANDLING
 70
     1
  9
$HANDSEED
  5
1CFB6
  9
$SURFTAB1
 70
     6
  9
$SURFTAB2
 70
     6
  9
$SURFTYPE
 70
     6
  9
$SURFU
 70
     6
  9
$SURFV
 70
     6
  9
$UCSNAME
  2

  9
$UCSORG
 10
0.0
 20
0.0
 30
0.0
  9
$UCSXDIR
 10
1.0
 20
0.0
 30
0.0
  9
$UCSYDIR
 10
0.0
 20
1.0
 30
0.0
  9
$PUCSNAME
  2

  9
$PUCSORG
 10
0.0
 20
0.0
 30
0.0
  9
$PUCSXDIR
 10
1.0
 20
0.0
 30
0.0
  9
$PUCSYDIR
 10
0.0
 20
1.0
 30
0.0
  9
$USERI1
 70
     0
  9
$USERI2
 70
     0
  9
$USERI3
 70
     0
  9
$USERI4
 70
     0
  9
$USERI5
 70
     0
  9
$USERR1
 40
0.0
  9
$USERR2
 40
0.0
  9
$USERR3
 40
0.0
  9
$USERR4
 40
0.0
  9
$USERR5
 40
0.0
  9
$WORLDVIEW
 70
     1
  9
$SHADEDGE
 70
     3
  9
$SHADEDIF
 70
    70
  9
$TILEMODE
 70
     1
  9
$MAXACTVP
 70
    64
  9
$PLIMCHECK
 70
     0
  9
$PEXTMIN
 10
1.0000000000000000E+20
 20
1.0000000000000000E+20
 30
1.0000000000000000E+20
  9
$PEXTMAX
 10
-1.0000000000000000E+20
 20
-1.0000000000000000E+20
 30
-1.0000000000000000E+20
  9
$PLIMMIN
 10
0.0
 20
0.0
  9
$PLIMMAX
 10
12.0
 20
9.0
  9
$UNITMODE
 70
     0
  9
$VISRETAIN
 70
     1
  9
$PLINEGEN
 70
     0
  9
$PSLTSCALE
 70
     1
  0
ENDSEC
  0
SECTION
  2
TABLES
  0
TABLE
  2
VPORT
 70
     1
  0
VPORT
  2
*ACTIVE
 70
     0
 10
0.0
 20
0.0
 11
1.0
 21
1.0
 12
851.8838399146806069
 22
399.1106142152029861
 13
0.0
 23
0.0
 14
1.0
 24
1.0
 15
0.0
 25
0.0
 16
0.0
 26
0.0
 36
60.4960186965801583
 17
3911.3653564453120453
 27
132.5796051025390057
 37
0.0
 40
27.8327881622425402
 41
2.3461538461538458
 42
50.0
 43
0.0
 44
0.0
 50
0.0
 51
0.0
 71
     0
 72
   100
 73
     1
 74
     1
 75
     0
 76
     0
 77
     0
 78
     0
  0
ENDTAB
  0
TABLE
  2
LTYPE
 70
     2
  0
LTYPE
  2
CONTINUOUS
 70
     0
  3
Solid line
 72
    65
 73
     0
 40
0.0
  0
LTYPE
  2
PHANTOM2
 70
     0
  3
___ _ _ ___ _ _ ___ _ _ ___ _ _
 72
    65
 73
     6
 40
1.25
 49
0.625
 49
-0.125
 49
0.125
 49
-0.125
 49
0.125
 49
-0.125
  0
ENDTAB
  0
TABLE
  2
LAYER
 70
     2
  0
LAYER
  2
0
 70
     0
 62
   255
  6
CONTINUOUS
  0
LAYER
  2
DEFPOINTS
 70
     0
 62
     7
  6
CONTINUOUS
  0
ENDTAB
  0
TABLE
  2
STYLE
 70
     1
  0
STYLE
  2
STANDARD
 70
     0
 40
0.0
 41
0.8
 50
0.0
 71
     0
 42
0.2
  3
txt
  4

  0
ENDTAB
  0
TABLE
  2
VIEW
 70
     0
  0
ENDTAB
  0
TABLE
  2
UCS
 70
     0
  0
ENDTAB
  0
TABLE
  2
APPID
 70
    11
  0
APPID
  2
ACAD
 70
     0
  0
APPID
  2
ACAD_MLEADERVER
 70
     0
  0
APPID
  2
ACAD_EXEMPT_FROM_CAD_STANDARDS
 70
     0
  0
APPID
  2
ACAD_NAV_VCDISPLAY
 70
     0
  0
APPID
  2
ACAECLAYERSTANDARD
 70
     0
  0
APPID
  2
ACCMTRANSPARENCY
 70
     0
  0
APPID
  2
ACAD_DSTYLE_DIMJAG
 70
     0
  0
APPID
  2
ACAD_DSTYLE_DIMTALN
 70
     0
  0
APPID
  2
ACDBATTR
 70
     0
  0
APPID
  2
ACADANNOTATIVE
 70
     0
  0
APPID
  2
DCO15
 70
     0
  0
ENDTAB
  0
TABLE
  2
DIMSTYLE
 70
     1
  0
DIMSTYLE
  2
STANDARD
 70
     0
  3

  4

  5

  6

  7

 40
1.0
 41
0.1875
 42
0.0625
 43
0.38
 44
0.125
 45
0.0
 46
0.0
 47
0.01
 48
0.01
140
0.15625
141
0.09
142
0.0
143
25.3999999999999986
144
1.0
145
0.0
146
1.0
147
0.09
 71
     1
 72
     0
 73
     1
 74
     1
 75
     0
 76
     0
 77
     0
 78
     4
170
     0
171
     2
172
     0
173
     0
174
     0
175
     0
176
     0
177
     0
178
     0
  0
ENDTAB
  0
ENDSEC
  0
SECTION
  2
BLOCKS
  0
BLOCK
  8
0
  2
$MODEL_SPACE
 70
     0
 10
0.0
 20
0.0
 30
0.0
  3
$MODEL_SPACE
  1

  0
ENDBLK
  5
21
  8
0
  0
BLOCK
 67
     1
  8
0
  2
$PAPER_SPACE
 70
     0
 10
0.0
 20
0.0
 30
0.0
  3
$PAPER_SPACE
  1

  0
ENDBLK
  5
1D
 67
     1
  8
0
  0
ENDSEC
  0
SECTION
  2
ENTITIES
  0
ATTDEF
  5
159BF
  8
DEFPOINTS
 10
4763.2101363222991495
 20
545.4962245882397838
 30
0.0
 40
0.001
  1
K-3654T-CW
  3

  2
MODELNUMBER
 70
     0
1001
ACDBATTR
1070
     0
1070
     1
  0
ATTDEF
  5
159C0
  8
DEFPOINTS
 10
4763.2101363222991495
 20
545.4945577478606538
 30
0.0
 40
0.001
  1
PERSUADE
  3

  2
TRADENAME
 70
     0
1001
ACDBATTR
1070
     0
1070
     1
  0
ATTDEF
  5
159C1
  8
DEFPOINTS
 10
4763.2101363222991495
 20
545.4928912549064535
 30
0.0
 40
0.001
  1
TOILET
  3

  2
PRODUCT
 70
     0
1001
ACDBATTR
1070
     0
1070
     1
  0
LINE
  5
1CE60
  8
0
 10
4757.1104214925398992
 20
545.4928912460526362
 30
0.0
 11
4769.3098511383886944
 21
545.4928912460526362
 31
0.0
  0
ARC
  5
1CE61
  8
0
 10
4757.110952937701768
 20
545.0913430123870285
 30
0.0
 40
0.4015485853466643
 50
90.0758303598876466
 51
168.4409675099036008
  0
LINE
  5
1CE62
  8
0
 10
4756.7175482501643273
 20
545.1718042963525477
 30
0.0
 11
4756.0251888227639938
 21
541.7469218488525939
 31
0.0
  0
ARC
  5
1CE63
  8
0
 10
4756.5704650755142211
 20
541.6361377750464499
 30
0.0
 40
0.5564164832401107
 50
168.515502497472113
 51
230.9509967434939881
  0
CIRCLE
  5
1CE64
  8
0
 10
4763.2101363549636517
 20
541.7128912460525498
 30
0.0
 40
0.9448818898000004
  0
ARC
  5
1CE65
  8
0
 10
4764.5816810427522796
 20
551.4574464034909624
 30
0.0
 40
13.2307067981854996
 50
230.8024837886918021
 51
239.4927543660153049
  0
ARC
  5
1CE66
  8
0
 10
4762.8051669639880856
 20
548.4404394587975275
 30
0.0
 40
9.7295167383667902
 50
239.4869055917498031
 51
252.0958054369864954
  0
LINE
  5
1CE67
  8
0
 10
4757.6327191682357807
 20
540.1985152265957595
 30
0.0
 11
4757.6456177596091948
 21
539.9426833489027331
 31
0.0
  0
LINE
  5
1CE68
  8
0
 10
4757.6456177596091948
 20
539.9426833489027331
 30
0.0
 11
4757.8002410185636109
 21
537.8836484729524727
 31
0.0
  0
ARC
  5
1CE69
  8
0
 10
4748.3802864427643726
 20
537.4036643657773311
 30
0.0
 40
9.4321751973383314
 50
347.7495116607555019
 51
2.9169249125793408
  0
ARC
  5
1CE6A
  8
0
 10
4716.4759804811947106
 20
544.3227672919840643
 30
0.0
 40
42.078135276598033
 50
343.0585089309677187
 51
347.7605369685280721
  0
ARC
  5
1CE6B
  8
0
 10
4768.102456719586371
 20
528.2932712079297062
 30
0.0
 40
11.9823262811215905
 50
161.6708980969704896
 51
198.3291019030295104
  0
LINE
  5
1CE6C
  8
0
 10
4759.0543106837640153
 20
535.9949004906526397
 30
0.0
 11
4758.7370903152368555
 21
535.9949004906526397
 31
0.0
  0
ARC
  5
1CE6D
  8
0
 10
4758.745253637530368
 20
535.8733073302316825
 30
0.0
 40
0.1218668802094814
 50
93.8408664128525629
 51
118.1818345406293957
  0
ARC
  5
1CE6E
  8
0
 10
4758.7349052181207298
 20
535.8926217522357547
 30
0.0
 40
0.0999548588143094
 50
118.1818345406310016
 51
141.635109810273093
  0
LINE
  5
1CE6F
  8
0
 10
4758.6565332183272403
 20
535.9546604776328422
 30
0.0
 11
4758.2034957135429067
 21
535.300040973211253
 31
0.0
  0
ARC
  5
1CE70
  8
0
 10
4758.9549443933074144
 20
534.7584773174572774
 30
0.0
 40
0.9262647092236655
 50
144.219978866832605
 51
161.1294833874565882
  0
ARC
  5
1CE71
  8
0
 10
4758.2045945801755806
 20
535.0149481776163611
 30
0.0
 40
0.1332942531680722
 50
161.1294833874565882
 51
174.1441087474958067
  0
LINE
  5
1CE72
  8
0
 10
4758.0719959022126204
 20
535.0285477559316405
 30
0.0
 11
4758.0182705330507815
 21
534.5895829204051779
 31
0.0
  0
ARC
  5
1CE73
  8
0
 10
4756.6066959185563974
 20
534.8390043212425553
 30
0.0
 40
1.4334412884669301
 50
331.1541308901586262
 51
349.979424241861409
  0
ARC
  5
1CE74
  8
0
 10
4768.6590769010435906
 20
528.2812552232852568
 30
0.0
 40
12.2712163562788792
 50
158.1024480730532957
 51
201.8975519269467043
  0
ARC
  5
1CE75
  8
0
 10
4771.1058725846041852
 20
527.3187830556569224
 30
0.0
 40
14.9004460468073496
 50
152.7235058987660068
 51
158.1774148304502035
  0
LINE
  5
1CE76
  8
0
 10
4758.0622747205989072
 20
534.949120532722759
 30
0.0
 11
4758.0357231316647812
 21
534.9491258864526344
 31
0.0
  0
ARC
  5
1CE77
  8
0
 10
4758.0361336693549674
 20
534.8530927397911228
 30
0.0
 40
0.0960340241732321
 50
90.2449355716501032
 51
119.2492678307707052
  0
ARC
  5
1CE78
  8
0
 10
4758.2754401248257636
 20
534.7026272152252204
 30
0.0
 40
0.3698689185183329
 50
140.7024965248791091
 51
153.8551415689782118
  0
ARC
  5
1CE79
  8
0
 10
4771.2016453200621982
 20
527.4538597445557571
 30
0.0
 40
15.1892944406166492
 50
150.7935037057112879
 51
162.341563942756494
  0
ARC
  5
1CE7A
  8
0
 10
4759.0639109613857727
 20
535.7505735286308663
 30
0.0
 40
0.2445154999199901
 50
77.3533928054175277
 51
92.2501510547542409
  0
ARC
  5
1CE7B
  8
0
 10
4759.116191039509431
 20
535.9835707114644947
 30
0.0
 40
0.0057250190022264
 50
39.9063998217638272
 51
77.3533928054189488
  0
LINE
  5
1CE7C
  8
0
 10
4759.1205826643636101
 20
535.9872435133524959
 30
0.0
 11
4759.1292712995636975
 21
535.8707078253526106
 31
0.0
  0
LINE
  5
1CE7D
  8
0
 10
4760.0458414510649163
 20
535.4458914694524765
 30
0.0
 11
4766.3744675777206794
 21
535.4458914694524765
 31
0.0
  0
ARC
  5
1CE7E
  8
0
 10
4760.0458232522187245
 20
536.4452363310123246
 30
0.0
 40
0.9993448617254491
 50
226.7971463614771892
 51
270.0010434006605919
  0
ARC
  5
1CE7F
  8
0
 10
2000.5465536045899171
 20
-2401.8297430442448785
 30
0.0
 40
4029.9181776892460221
 50
46.7971463614772105
 51
46.7992332288694826
  0
ARC
  5
1CE80
  8
0
 10
4759.1363969748963427
 20
535.6912917062128372
 30
0.0
 40
0.1728068814066203
 50
46.7992332288694826
 51
84.901242080490718
  0
ARC
  5
1CE81
  8
0
 10
4759.156469251958697
 20
535.9162522390332697
 30
0.0
 40
0.0530473583882973
 50
239.1554374008264858
 51
264.9012420804907038
  0
LINE
  5
1CE82
  8
0
 10
4759.2118143917650741
 20
535.9957055690524612
 30
0.0
 11
4759.602311699763959
 21
535.9957109264524888
 31
0.0
  0
LINE
  5
1CE83
  8
0
 10
4759.1517011199457556
 20
535.8634196056607379
 30
0.0
 11
4759.1517993543648117
 21
535.9364269983525446
 31
0.0
  0
ARC
  5
1CE84
  8
0
 10
4759.2115014329074256
 20
535.9360028037888242
 30
0.0
 40
0.0597035855153799
 50
89.6996611907900672
 51
179.5929094964664898
  0
ARC
  5
1CE85
  8
0
 10
4759.604306173256191
 20
535.795756422683894
 30
0.0
 40
0.1999644505953975
 50
76.1099729683489983
 51
90.5714856211191517
  0
LINE
  5
1CE86
  8
0
 10
4759.652309454263559
 20
535.9898735690526337
 30
0.0
 11
4759.6574952742639653
 21
535.9193557661526484
 31
0.0
  0
LINE
  5
1CE87
  8
0
 10
4759.6574952742639653
 20
535.9193557661526484
 30
0.0
 11
4759.6577986958636757
 21
535.9100069019525563
 31
0.0
  0
ARC
  5
1CE88
  8
0
 10
4731.8937144206220182
 20
535.5307370059909999
 30
0.0
 40
27.7666746532016795
 50
359.9844712422934094
 51
0.7826374741030439
  0
ARC
  5
1CE89
  8
0
 10
4763.2101363154642968
 20
486.9716748921758267
 30
0.0
 40
48.2847176292836835
 50
88.0393707413534372
 51
91.960629258646577
  0
ARC
  5
1CE8A
  8
0
 10
4768.3373279088791605
 20
528.8802905243986743
 30
0.0
 40
11.0491014021623002
 50
162.736090369994713
 51
197.2639096300052017
  0
ARC
  5
1CE8B
  8
0
 10
4761.0157075536690172
 20
532.209912844518044
 30
0.0
 40
2.936759750660463
 50
112.9849757102279995
 51
152.5476566117806101
  0
ARC
  5
1CE8C
  8
0
 10
4765.3855517148704166
 20
529.6254737784021245
 30
0.0
 40
8.0108453199656218
 50
150.5526805550034908
 51
161.5601914713911924
  0
ARC
  5
1CE8D
  8
0
 10
4761.6438692020537928
 20
530.0756583223460439
 30
0.0
 40
5.1531794224812186
 50
90.9527490185700742
 51
110.1473198061494969
  0
ARC
  5
1CE8E
  8
0
 10
4763.2101363154642968
 20
522.8312246240062677
 30
0.0
 40
3.0970751945537671
 50
243.0546115543253904
 51
296.9453884456746096
  0
ARC
  5
1CE8F
  8
0
 10
4769.4889759135912755
 20
529.1270269792859153
 30
0.0
 40
12.2225511178384494
 50
196.7662652013140132
 51
207.8534663471866111
  0
ARC
  5
1CE90
  8
0
 10
4767.5699223423453077
 20
528.1129350854836275
 30
0.0
 40
10.0520329819119301
 50
207.8534663471866111
 51
222.8826521150398889
  0
ARC
  5
1CE91
  8
0
 10
4764.2320234258868368
 20
524.9722106388802558
 30
0.0
 40
5.4690128848383708
 50
222.5691368089183868
 51
243.6750252491706021
  0
ARC
  5
1CE92
  8
0
 10
4763.2101363154642968
 20
522.9790974995296438
 30
0.0
 40
5.0332466021770719
 50
248.6405821760230879
 51
291.3594178239769121
  0
ARC
  5
1CE93
  8
0
 10
4763.2101363154642968
 20
521.82899896684944
 30
0.0
 40
3.9446172183678629
 50
248.6519919075865914
 51
291.3480080924134086
  0
ARC
  5
1CE94
  8
0
 10
4770.7996645668426936
 20
529.0651648850409856
 30
0.0
 40
14.7858855282959691
 50
197.8816428605369993
 51
208.783401660816196
  0
ARC
  5
1CE95
  8
0
 10
4769.6057040668783884
 20
528.4092298960675862
 30
0.0
 40
13.4236108183954794
 50
208.783401660816196
 51
219.3521150336208052
  0
ARC
  5
1CE96
  8
0
 10
4763.5447231988882777
 20
523.4391614693061001
 30
0.0
 40
5.58543059280459
 50
219.3521150336208052
 51
247.1628219942870999
  0
ARC
  5
1CE97
  8
0
 10
4769.392891616002089
 20
528.2652464638316587
 30
0.0
 40
12.9493323115618804
 50
200.6208190028148977
 51
209.7561723491581063
  0
ARC
  5
1CE98
  8
0
 10
4768.1266984211515592
 20
527.5413764572705304
 30
0.0
 40
11.4908286286451702
 50
209.7561723491581063
 51
221.7481363339848031
  0
ARC
  5
1CE99
  8
0
 10
4763.4186130053367378
 20
523.2197876294917478
 30
0.0
 40
5.1014451501611582
 50
220.7447572668361033
 51
246.2427372877664027
  0
ARC
  5
1CE9A
  8
0
 10
4761.6246965304853802
 20
519.1381050392438965
 30
0.0
 40
0.6429452692336949
 50
246.0237856448005971
 51
262.0802890213329874
  0
ARC
  5
1CE9B
  8
0
 10
4761.4741559491858425
 20
517.6951974693250804
 30
0.0
 40
0.8084717886165671
 50
71.8853779748200452
 51
85.6051881468838332
  0
CIRCLE
  5
1CE9C
  8
0
 10
4763.2101363549636517
 20
541.7128912460525498
 30
0.0
 40
0.6822648631999968
  0
ARC
  5
1CE9D
  8
0
 10
4763.2101363549636517
 20
541.7128912460525498
 30
0.0
 40
0.6692913385999973
 50
89.7014659309658668
 51
270.2985355560712151
  0
ARC
  5
1CE9E
  8
0
 10
4759.4995064336635551
 20
541.7128912460525498
 30
0.0
 40
3.8162633976999998
 50
350.0691934608033193
 51
9.7987989383240155
  0
ARC
  5
1CE9F
  8
0
 10
4759.4995064336635551
 20
541.7128912460525498
 30
0.0
 40
3.8282233706999991
 50
350.3333571119356975
 51
9.6666428877954917
  0
ARC
  5
1CEA0
  8
0
 10
4763.2174698346452715
 20
542.3752713050355396
 30
0.0
 40
0.0079014988922865
 50
89.4167602826963446
 51
119.1285498922963058
  0
ARC
  5
1CEA1
  8
0
 10
4763.2101363549636517
 20
541.7128912460366337
 30
0.0
 40
0.6703221495159563
 50
87.2651556642252757
 51
89.3662830855588908
  0
ARC
  5
1CEA2
  8
0
 10
4763.2412175201907303
 20
542.3635560459231328
 30
0.0
 40
0.0189154250778503
 50
356.4253724520950186
 51
87.2651556642252757
  0
ARC
  5
1CEA3
  8
0
 10
4763.2174638286505797
 20
541.0504875101493099
 30
0.0
 40
0.0078778868116217
 50
240.8258943714579914
 51
270.628708762590577
  0
LINE
  5
1CEA4
  8
0
 10
4763.21755027126801
 20
541.0426100976116004
 30
0.0
 11
4763.2421200491817217
 21
541.0433325649688641
 31
0.0
  0
ARC
  5
1CEA5
  8
0
 10
4763.2412175200206548
 20
541.0622264463974034
 30
0.0
 40
0.0189154253010257
 50
272.7348448280474145
 51
336.6957668174651985
  0
ARC
  5
1CEA6
  8
0
 10
4763.2101363549636517
 20
541.7128912460525498
 30
0.0
 40
0.6692913385999999
 50
277.4958185490141886
 51
82.5057387819315977
  0
ARC
  5
1CEA7
  8
0
 10
4763.2948407536487139
 20
542.3546063049658414
 30
0.0
 40
0.0214946949805036
 50
125.6513667803378951
 51
177.0587971486849028
  0
ARC
  5
1CEA8
  8
0
 10
4763.2948817000160489
 20
542.3570267647861556
 30
0.0
 40
0.0196050009520894
 50
82.5316127484418303
 51
129.8754147944171109
  0
ARC
  5
1CEA9
  8
0
 10
4763.2948407536650848
 20
541.0711761871524459
 30
0.0
 40
0.0214946949999717
 50
182.9412029304999976
 51
233.6951094114918988
  0
ARC
  5
1CEAA
  8
0
 10
4763.2948896701918784
 20
541.0688613491097385
 30
0.0
 40
0.0197086826055526
 50
229.5925615619784139
 51
277.458388203493314
  0
ARC
  5
1CEAB
  8
0
 10
4763.3371507748643126
 20
542.1096826383526377
 30
0.0
 40
0.0357824095000002
 50
152.6687620203711901
 51
219.1374253611444942
  0
ARC
  5
1CEAC
  8
0
 10
4763.5939946226635584
 20
541.7128912460525498
 30
0.0
 40
0.2791457053000003
 50
184.4940322334863083
 51
196.8771640390930031
  0
ARC
  5
1CEAD
  8
0
 10
4763.5939946226635584
 20
541.7128912460525498
 30
0.0
 40
0.2791457053000003
 50
163.1228359609069969
 51
175.5059677665103948
  0
ARC
  5
1CEAE
  8
0
 10
4763.3371518625635872
 20
541.3161073247524655
 30
0.0
 40
0.0357789404999998
 50
140.871981071911307
 51
207.3220555925960866
  0
ARC
  5
1CEAF
  8
0
 10
4763.3781139910643105
 20
542.339792318752643
 30
0.0
 40
0.0333271255000007
 50
21.3139199604562499
 51
70.9796381905072167
  0
ARC
  5
1CEB0
  8
0
 10
4763.3781139910643105
 20
542.339792318752643
 30
0.0
 40
0.0333271255000007
 50
79.020361820431134
 51
128.6860800505093039
  0
ARC
  5
1CEB1
  8
0
 10
4763.6690597914648606
 20
542.1718146825526219
 30
0.0
 40
0.0333271254999983
 50
49.0203609368751287
 51
98.6860799701191951
  0
ARC
  5
1CEB2
  8
0
 10
4763.6690597914648606
 20
542.1718146825526219
 30
0.0
 40
0.0333271254999983
 50
351.3139200298656988
 51
40.9796390631317209
  0
ARC
  5
1CEB3
  8
0
 10
4763.8370374276646544
 20
541.8808688822524573
 30
0.0
 40
0.0333271254999996
 50
19.0203624852730897
 51
68.6860801049926692
  0
ARC
  5
1CEB4
  8
0
 10
4763.8370374276646544
 20
541.8808688822524573
 30
0.0
 40
0.0333271254999996
 50
321.3139199011358187
 51
10.9796375208336805
  0
ARC
  5
1CEB5
  8
0
 10
4763.5939946226635584
 20
541.7128912460525498
 30
0.0
 40
0.2969642898999998
 50
338.7033731452888219
 51
21.2966268547112207
  0
ARC
  5
1CEB6
  8
0
 10
4763.8370374276646544
 20
541.5449136098526424
 30
0.0
 40
0.0333271255000002
 50
291.3139198950073023
 51
340.9796375147176946
  0
ARC
  5
1CEB7
  8
0
 10
4763.8370374276646544
 20
541.5449136098526424
 30
0.0
 40
0.0333271255000002
 50
349.0203624791760149
 51
38.6860800988641884
  0
ARC
  5
1CEB8
  8
0
 10
4763.6690597914648606
 20
541.2539678095525915
 30
0.0
 40
0.0333271255000004
 50
261.3139200298288074
 51
310.9796390628329732
  0
ARC
  5
1CEB9
  8
0
 10
4763.6690597914648606
 20
541.2539678095525915
 30
0.0
 40
0.0333271255000004
 50
319.0203609371844209
 51
8.6860799701600921
  0
ARC
  5
1CEBA
  8
0
 10
4763.3781139910643105
 20
541.0859901733524566
 30
0.0
 40
0.0333271254999981
 50
289.0203618096030027
 51
338.6860800395527917
  0
ARC
  5
1CEBB
  8
0
 10
4763.3781139910643105
 20
541.0859901733524566
 30
0.0
 40
0.0333271254999981
 50
231.3139199494885929
 51
280.9796381794628246
  0
ARC
  5
1CEBC
  8
0
 10
4763.1536910018648996
 20
541.0677179081526447
 30
0.0
 40
0.0343579363999978
 50
212.8970342980709916
 51
317.1029656976205047
  0
ARC
  5
1CEBD
  8
0
 10
4762.8025646843643699
 20
541.2095821489525633
 30
0.0
 40
0.0343579364000014
 50
178.8970341722630906
 51
283.1029658268155913
  0
ARC
  5
1CEBE
  8
0
 10
4762.5907972511640764
 20
541.5235402798525683
 30
0.0
 40
0.0343579363999998
 50
144.8970341721980901
 51
249.1029658178640034
  0
ARC
  5
1CEBF
  8
0
 10
4762.8262780871637005
 20
541.7128912460525498
 30
0.0
 40
0.2969642899000004
 50
158.7033730538749126
 51
201.2966269461250022
  0
ARC
  5
1CEC0
  8
0
 10
4762.5907972511640764
 20
541.902242212252645
 30
0.0
 40
0.0343579364000006
 50
110.8970341821348029
 51
215.1029658278044963
  0
ARC
  5
1CEC1
  8
0
 10
4762.8025646843643699
 20
542.21620034315265
 30
0.0
 40
0.0343579363999976
 50
76.8970341731843234
 51
181.1029658277369094
  0
ARC
  5
1CEC2
  8
0
 10
4763.1536910018648996
 20
542.3580645839525687
 30
0.0
 40
0.0343579363999972
 50
42.8970343023795024
 51
147.1029657019290084
  0
LINE
  5
1CEC3
  8
0
 10
4763.2597789010333145
 20
542.3671986338948727
 30
0.0
 11
4763.2764423838543735
 21
542.3657203456873503
 31
0.0
  0
LINE
  5
1CEC4
  8
0
 10
4763.2592532819608095
 20
541.0585442759017951
 30
0.0
 11
4763.2764423335829633
 21
541.0600622296373103
 31
0.0
  0
LINE
  5
1CEC5
  8
0
 10
4760.2002341876650462
 20
537.4850913009526039
 30
0.0
 11
4760.7170385012641418
 21
537.4850913006524706
 31
0.0
  0
ARC
  5
1CEC6
  8
0
 10
4760.1886473394461063
 20
537.0086320227791248
 30
0.0
 40
0.4766001456244702
 50
88.6069183539930947
 51
108.7747664383469015
  0
ARC
  5
1CEC7
  8
0
 10
4760.2205557773067994
 20
536.9147661160344569
 30
0.0
 40
0.5757412413200198
 50
108.7747664383469015
 51
129.0503454584132044
  0
ARC
  5
1CEC8
  8
0
 10
4760.1782651217972671
 20
536.9851191534352211
 30
0.0
 40
0.4945955953072163
 50
130.3803519330556924
 51
179.7336247528292859
  0
ARC
  5
1CEC9
  8
0
 10
4721.5056914159376902
 20
537.0348298261508262
 30
0.0
 40
38.178012894488937
 50
358.7048319061478878
 51
359.928847399687811
  0
LINE
  5
1CECA
  8
0
 10
4759.6739505554642164
 20
536.1718913406525644
 30
0.0
 11
4759.6886363952644388
 21
536.0413563536526453
 31
0.0
  0
LINE
  5
1CECB
  8
0
 10
4759.758802498764453
 20
536.0971394071525538
 30
0.0
 11
4761.1584702498639672
 21
536.0971393323526399
 31
0.0
  0
LINE
  5
1CECC
  8
0
 10
4759.7103819850653963
 20
536.0369599504524558
 30
0.0
 11
4761.2068883991641997
 21
536.0369599549526356
 31
0.0
  0
ARC
  5
1CECD
  8
0
 10
4759.7087545029307876
 20
536.2080704776799394
 30
0.0
 40
0.1711182667809493
 50
264.6208086189141113
 51
270.544940438613196
  0
ARC
  5
1CECE
  8
0
 10
4759.6931442684181093
 20
536.0422888383143345
 30
0.0
 40
0.0046033083769506
 50
191.6871904869165917
 51
264.6208086189662936
  0
LINE
  5
1CECF
  8
0
 10
4759.6918586113961283
 20
536.0378687100316029
 30
0.0
 11
4759.6917143959635723
 21
535.9898753940525467
 31
0.0
  0
LINE
  5
1CED0
  8
0
 10
4759.6917143959635723
 20
535.9898753940525467
 30
0.0
 11
4759.6865676934639851
 21
535.9174628300526138
 31
0.0
  0
LINE
  5
1CED1
  8
0
 10
4759.6865676934639851
 20
535.9174628300526138
 30
0.0
 11
4759.6838072292157449
 21
535.5138619379524698
 31
0.0
  0
ARC
  5
1CED2
  8
0
 10
4759.7368808182045541
 20
536.0510695857905148
 30
0.0
 40
0.043596699396499
 50
96.8316201864493138
 51
158.7163868178110988
  0
ARC
  5
1CED3
  8
0
 10
4759.7572822586816983
 20
535.9785217627147631
 30
0.0
 40
0.1186273859690736
 50
89.2657199333813338
 51
102.4563138235336055
  0
ARC
  5
1CED4
  8
0
 10
4759.7966643775343982
 20
536.0340863282930286
 30
0.0
 40
0.1056309279561015
 50
161.9050474131103101
 51
177.7906800669570089
  0
ARC
  5
1CED5
  8
0
 10
4761.1803919407229841
 20
536.0510695857905148
 30
0.0
 40
0.043596699396499
 50
21.2836131821888515
 51
83.1683798135506862
  0
ARC
  5
1CED6
  8
0
 10
4761.1599913995605675
 20
535.9785273407504747
 30
0.0
 40
0.1186217452586698
 50
77.5435291930823922
 51
90.7347543767498621
  0
ARC
  5
1CED7
  8
0
 10
4761.1206414343369033
 20
536.0340946450589854
 30
0.0
 40
0.1055969266095439
 50
2.1153321083707182
 51
18.0962334006713412
  0
ARC
  5
1CED8
  8
0
 10
4761.2092666699572874
 20
536.1730569021751762
 30
0.0
 40
0.1361177255732969
 50
268.9988679844784087
 51
277.1319759940273002
  0
ARC
  5
1CED9
  8
0
 10
4760.728625331566036
 20
537.0086320513529472
 30
0.0
 40
0.476600116323586
 50
71.2252332508522557
 51
91.3930795770891251
  0
ARC
  5
1CEDA
  8
0
 10
4760.6967168867222426
 20
536.9147661160344569
 30
0.0
 40
0.5757412413200198
 50
50.9496545415867885
 51
71.2252335616530559
  0
ARC
  5
1CEDB
  8
0
 10
4760.7390068122831508
 20
536.9851185977386194
 30
0.0
 40
0.4945964915190471
 50
0.2665808055443415
 51
49.6196253577281894
  0
ARC
  5
1CEDC
  8
0
 10
4799.4036462314643359
 20
537.0347277433172621
 30
0.0
 40
38.170077597805637
 50
180.0710123236835898
 51
181.2952841241074111
  0
LINE
  5
1CEDD
  8
0
 10
4761.2433221085648256
 20
536.1718913406525644
 30
0.0
 11
4761.2286362687636938
 21
536.0413563536526453
 31
0.0
  0
ARC
  5
1CEDE
  8
0
 10
4761.225181372348743
 20
536.0413042550328555
 30
0.0
 40
0.0034552892073501
 50
286.5635608763028017
 51
0.8639346697636222
  0
LINE
  5
1CEDF
  8
0
 10
4759.6865676934639851
 20
535.9174628300526138
 30
0.0
 11
4766.7337049331854359
 21
535.9174628219526539
 31
0.0
  0
ARC
  5
1CEE0
  8
0
 10
4769.3093196932268256
 20
545.0913430123870285
 30
0.0
 40
0.4015485853466643
 50
11.5590324900964205
 51
89.9241696401123676
  0
LINE
  5
1CEE1
  8
0
 10
4769.7027243807642662
 20
545.1718042963525477
 30
0.0
 11
4770.3950838081636903
 21
541.7469218488525939
 31
0.0
  0
ARC
  5
1CEE2
  8
0
 10
4769.8498075554161915
 20
541.6361377750464499
 30
0.0
 40
0.5564164832401107
 50
309.0490032565058982
 51
11.4844975025278906
  0
ARC
  5
1CEE3
  8
0
 10
4761.8385915881772235
 20
551.4574464034909624
 30
0.0
 40
13.2307067981854996
 50
300.5072456339846099
 51
309.1975162113081979
  0
ARC
  5
1CEE4
  8
0
 10
4763.6151056669395984
 20
548.4404394587975275
 30
0.0
 40
9.7295167383667902
 50
287.9041945630135046
 51
300.5130944082503106
  0
LINE
  5
1CEE5
  8
0
 10
4768.7875534626937224
 20
540.1985152265957595
 30
0.0
 11
4768.7746548713193988
 21
539.9426833489027331
 31
0.0
  0
LINE
  5
1CEE6
  8
0
 10
4768.7746548713193988
 20
539.9426833489027331
 30
0.0
 11
4768.6200316123649827
 21
537.8836484729524727
 31
0.0
  0
ARC
  5
1CEE7
  8
0
 10
4778.0399861881651304
 20
537.4036643657773311
 30
0.0
 40
9.4321751973383314
 50
177.0830750874206103
 51
192.2504883392444128
  0
ARC
  5
1CEE8
  8
0
 10
4809.9442921497329735
 20
544.3227672919840643
 30
0.0
 40
42.078135276598033
 50
192.2394630314717858
 51
196.9414910690323097
  0
ARC
  5
1CEE9
  8
0
 10
4758.3178159113422225
 20
528.2932712079297062
 30
0.0
 40
11.9823262811215105
 50
341.6708980969705181
 51
18.3291019030295104
  0
LINE
  5
1CEEA
  8
0
 10
4767.3659619471645783
 20
535.9949004906526397
 30
0.0
 11
4767.6831823156908285
 21
535.9949004906526397
 31
0.0
  0
ARC
  5
1CEEB
  8
0
 10
4767.6750189933991351
 20
535.8733073302316825
 30
0.0
 40
0.1218668802094814
 50
61.8181654593705616
 51
86.1591335871474371
  0
ARC
  5
1CEEC
  8
0
 10
4767.6853674128078637
 20
535.8926217522357547
 30
0.0
 40
0.0999548588143094
 50
38.3648901897268573
 51
61.8181654593690411
  0
LINE
  5
1CEED
  8
0
 10
4767.7637394126022627
 20
535.9546604776328422
 30
0.0
 11
4768.2167769173865963
 21
535.300040973211253
 31
0.0
  0
ARC
  5
1CEEE
  8
0
 10
4767.4653282376220886
 20
534.7584773174572774
 30
0.0
 40
0.9262647092236655
 50
18.8705166125433585
 51
35.7800211331674092
  0
ARC
  5
1CEEF
  8
0
 10
4768.2156780507530129
 20
535.0149481776163611
 30
0.0
 40
0.1332942531680722
 50
5.855891252504156
 51
18.8705166125433585
  0
LINE
  5
1CEF0
  8
0
 10
4768.3482767287150637
 20
535.0285477559316405
 30
0.0
 11
4768.402002097877812
 21
534.5895829204051779
 31
0.0
  0
ARC
  5
1CEF1
  8
0
 10
4769.8135767123721962
 20
534.8390043212425553
 30
0.0
 40
1.4334412884669301
 50
190.020575758138591
 51
208.8458691098414022
  0
ARC
  5
1CEF2
  8
0
 10
4757.7611957298859124
 20
528.2812552232852568
 30
0.0
 40
12.2712163562789094
 50
338.1024480730533242
 51
21.8975519269466901
  0
ARC
  5
1CEF3
  8
0
 10
4755.3144000463262273
 20
527.3187830556569224
 30
0.0
 40
14.9004460468073496
 50
21.8225851695497894
 51
27.2764941012339399
  0
LINE
  5
1CEF4
  8
0
 10
4768.3579979103296864
 20
534.949120532722759
 30
0.0
 11
4768.3845494992638123
 21
534.9491258864526344
 31
0.0
  0
ARC
  5
1CEF5
  8
0
 10
4768.3841389615736261
 20
534.8530927397911228
 30
0.0
 40
0.0960340241732321
 50
60.7507321692292805
 51
89.7550644283498968
  0
ARC
  5
1CEF6
  8
0
 10
4768.1448325061010109
 20
534.7026272152252204
 30
0.0
 40
0.3698689185183329
 50
26.1448584310217704
 51
39.297503475120827
  0
ARC
  5
1CEF7
  8
0
 10
4755.2186273108673049
 20
527.4538597445557571
 30
0.0
 40
15.1892944406166492
 50
17.6584360572434491
 51
29.2064962942886588
  0
ARC
  5
1CEF8
  8
0
 10
4767.3563616695428209
 20
535.7505735286308663
 30
0.0
 40
0.2445154999199901
 50
87.7498489452457733
 51
102.6466071945825007
  0
ARC
  5
1CEF9
  8
0
 10
4767.3040815914191626
 20
535.9835707114644947
 30
0.0
 40
0.0057250190022264
 50
102.6466071945809944
 51
140.0936001782361018
  0
LINE
  5
1CEFA
  8
0
 10
4767.2996899665649835
 20
535.9872435133524959
 30
0.0
 11
4767.2910013313639865
 21
535.8707078253526106
 31
0.0
  0
ARC
  5
1CEFB
  8
0
 10
4766.3744493787107785
 20
536.4452363310124383
 30
0.0
 40
0.9993448617255019
 50
270.0010434100403813
 51
313.2028536385228108
  0
ARC
  5
1CEFC
  8
0
 10
7525.8737190263400407
 20
-2401.8297430442448785
 30
0.0
 40
4029.9181776892460221
 50
133.2007667711305032
 51
133.2028536385228108
  0
ARC
  5
1CEFD
  8
0
 10
4767.2838756560322508
 20
535.6912917062128372
 30
0.0
 40
0.1728068814066203
 50
95.098757919509282
 51
133.2007667711305032
  0
ARC
  5
1CEFE
  8
0
 10
4767.2638033789698966
 20
535.9162522390332697
 30
0.0
 40
0.0530473583882973
 50
275.0987579195092962
 51
300.8445625991718089
  0
LINE
  5
1CEFF
  8
0
 10
4767.208458239164429
 20
535.9957055690524612
 30
0.0
 11
4766.8179609311646345
 21
535.9957109264524888
 31
0.0
  0
LINE
  5
1CF00
  8
0
 10
4767.2685715109828379
 20
535.8634196056607379
 30
0.0
 11
4767.2684732765646913
 21
535.9364269983525446
 31
0.0
  0
ARC
  5
1CF01
  8
0
 10
4767.2087711980211679
 20
535.9360028037888242
 30
0.0
 40
0.0597035855153799
 50
0.4070905035334945
 51
90.300338809209947
  0
ARC
  5
1CF02
  8
0
 10
4766.8159664576733121
 20
535.795756422683894
 30
0.0
 40
0.1999644505953975
 50
89.4285143788808767
 51
103.8900270316510017
  0
LINE
  5
1CF03
  8
0
 10
4766.7679631766650346
 20
535.9898735690526337
 30
0.0
 11
4766.7627773566646283
 21
535.9193557661526484
 31
0.0
  0
LINE
  5
1CF04
  8
0
 10
4766.7627773566646283
 20
535.9193557661526484
 30
0.0
 11
4766.7624739350649179
 21
535.9100069019525563
 31
0.0
  0
ARC
  5
1CF05
  8
0
 10
4794.5265582103065753
 20
535.5307370059909999
 30
0.0
 40
27.7666746532016795
 50
179.2173625258969025
 51
180.0155287577032936
  0
ARC
  5
1CF06
  8
0
 10
4758.082944722049433
 20
528.8802905243986743
 30
0.0
 40
11.0491014021623002
 50
342.7360903699948267
 51
17.2639096300052302
  0
ARC
  5
1CF07
  8
0
 10
4765.4045650772586669
 20
532.209912844518044
 30
0.0
 40
2.936759750660463
 50
27.4523433882194183
 51
67.0150242897719579
  0
ARC
  5
1CF08
  8
0
 10
4761.0347209160572675
 20
529.6254737784021245
 30
0.0
 40
8.0108453199656218
 50
18.4398085286088182
 51
29.4473194449964311
  0
ARC
  5
1CF09
  8
0
 10
4764.7764034288738912
 20
530.0756583223460439
 30
0.0
 40
5.1531794224812186
 50
69.8526801938504747
 51
89.0472509814299542
  0
ARC
  5
1CF0A
  8
0
 10
4756.9312967173382276
 20
529.1270269792859153
 30
0.0
 40
12.2225511178384494
 50
332.1465336528133889
 51
343.2337347986859868
  0
ARC
  5
1CF0B
  8
0
 10
4758.8503502885832859
 20
528.1129350854836275
 30
0.0
 40
10.0520329819119301
 50
317.1173478849602247
 51
332.1465336528133889
  0
ARC
  5
1CF0C
  8
0
 10
4762.1882492050408473
 20
524.9722106388802558
 30
0.0
 40
5.4690128848383708
 50
296.3249747508294263
 51
317.4308631910815848
  0
ARC
  5
1CF0D
  8
0
 10
4755.6206080640859
 20
529.0651648850409856
 30
0.0
 40
14.7858855282959691
 50
331.2165983391836903
 51
342.1183571394630007
  0
ARC
  5
1CF0E
  8
0
 10
4756.8145685640502052
 20
528.4092298960675862
 30
0.0
 40
13.4236108183954794
 50
320.6478849663791948
 51
331.2165983391836903
  0
ARC
  5
1CF0F
  8
0
 10
4762.8755494320412254
 20
523.4391614693061001
 30
0.0
 40
5.58543059280459
 50
292.8371780057128717
 51
320.6478849663791948
  0
ARC
  5
1CF10
  8
0
 10
4757.0273810149274141
 20
528.2652464638316587
 30
0.0
 40
12.9493323115618804
 50
330.2438276508419221
 51
339.3791809971851876
  0
ARC
  5
1CF11
  8
0
 10
4758.2935742097752154
 20
527.5413764572705304
 30
0.0
 40
11.4908286286451702
 50
318.2518636660151969
 51
330.2438276508419221
  0
ARC
  5
1CF12
  8
0
 10
4763.0016596255909462
 20
523.2197876294917478
 30
0.0
 40
5.1014451501611582
 50
293.7572627122336257
 51
319.2552427331639251
  0
ARC
  5
1CF13
  8
0
 10
4764.7955761004441229
 20
519.1381050392438965
 30
0.0
 40
0.6429452692336949
 50
277.9197109786670126
 51
293.9762143551993745
  0
ARC
  5
1CF14
  8
0
 10
4764.9461166817427511
 20
517.6951974693250804
 30
0.0
 40
0.8084717886165671
 50
94.3948118531161526
 51
108.1146220251798979
  0
LINE
  5
1CF15
  8
0
 10
4766.2200384432635474
 20
537.4850913009526039
 30
0.0
 11
4765.7032341296653613
 21
537.4850913006524706
 31
0.0
  0
ARC
  5
1CF16
  8
0
 10
4766.2316252914833967
 20
537.0086320227791248
 30
0.0
 40
0.4766001456244702
 50
71.2252335616530559
 51
91.3930816460069053
  0
ARC
  5
1CF17
  8
0
 10
4766.1997168536217941
 20
536.9147661160344569
 30
0.0
 40
0.5757412413200198
 50
50.9496545415867885
 51
71.2252335616530559
  0
ARC
  5
1CF18
  8
0
 10
4766.242007509132236
 20
536.9851191534352211
 30
0.0
 40
0.4945955953072163
 50
0.2663752471674099
 51
49.6196480669442508
  0
ARC
  5
1CF19
  8
0
 10
4804.9145812149899939
 20
537.0348298261508262
 30
0.0
 40
38.178012894488937
 50
180.071152600312189
 51
181.2951680938521122
  0
LINE
  5
1CF1A
  8
0
 10
4766.7463220754652866
 20
536.1718913406525644
 30
0.0
 11
4766.7316362356650643
 21
536.0413563536526453
 31
0.0
  0
LINE
  5
1CF1B
  8
0
 10
4766.66147013216505
 20
536.0971394071525538
 30
0.0
 11
4765.2618023810637169
 21
536.0971393323526399
 31
0.0
  0
LINE
  5
1CF1C
  8
0
 10
4766.7098906458650163
 20
536.0369599504524558
 30
0.0
 11
4765.2133842317643939
 21
536.0369599549526356
 31
0.0
  0
ARC
  5
1CF1D
  8
0
 10
4766.711518127997806
 20
536.2080704776799394
 30
0.0
 40
0.1711182667809493
 50
269.455059561386804
 51
275.3791913810858887
  0
ARC
  5
1CF1E
  8
0
 10
4766.7271283625113938
 20
536.0422888383143345
 30
0.0
 40
0.0046033083769506
 50
275.3791913810335927
 51
348.3128095130833799
  0
LINE
  5
1CF1F
  8
0
 10
4766.7284140195315558
 20
536.0378687100316029
 30
0.0
 11
4766.7285582349650213
 21
535.9898753940525467
 31
0.0
  0
LINE
  5
1CF20
  8
0
 10
4766.7285582349650213
 20
535.9898753940525467
 30
0.0
 11
4766.7337049331854359
 21
535.9174628219526539
 31
0.0
  0
LINE
  5
1CF21
  8
0
 10
4766.7337049331854359
 20
535.9174628219526539
 30
0.0
 11
4766.7364654017119392
 21
535.5138619379524698
 31
0.0
  0
ARC
  5
1CF22
  8
0
 10
4766.68339181272313
 20
536.0510695857905148
 30
0.0
 40
0.043596699396499
 50
21.2836131821888515
 51
83.1683798135506862
  0
ARC
  5
1CF23
  8
0
 10
4766.6629903722450763
 20
535.9785217627147631
 30
0.0
 40
0.1186273859690736
 50
77.5436861764663803
 51
90.7342800666186662
  0
ARC
  5
1CF24
  8
0
 10
4766.6236082533960143
 20
536.0340863282930286
 30
0.0
 40
0.1056309279561015
 50
2.209319933042964
 51
18.0949525868896615
  0
ARC
  5
1CF25
  8
0
 10
4765.2398806902046999
 20
536.0510695857905148
 30
0.0
 40
0.043596699396499
 50
96.8316201864493138
 51
158.7163868178110988
  0
ARC
  5
1CF26
  8
0
 10
4765.2602812313671166
 20
535.9785273407504747
 30
0.0
 40
0.1186217452586698
 50
89.2652456232501237
 51
102.4564708069175936
  0
ARC
  5
1CF27
  8
0
 10
4765.2996311965898713
 20
536.0340946450589854
 30
0.0
 40
0.1055969266095439
 50
161.9037665993286055
 51
177.8846678916293058
  0
ARC
  5
1CF28
  8
0
 10
4765.2110059609722157
 20
536.1730569021751762
 30
0.0
 40
0.1361177255732969
 50
262.8680240059726998
 51
271.0011320155214776
  0
ARC
  5
1CF29
  8
0
 10
4765.6916472993625575
 20
537.0086320513529472
 30
0.0
 40
0.476600116323586
 50
88.6069204229108749
 51
108.7747667491477017
  0
ARC
  5
1CF2A
  8
0
 10
4765.7235557442072604
 20
536.9147661160344569
 30
0.0
 40
0.5757412413200198
 50
108.7747664383469015
 51
129.0503454584132044
  0
ARC
  5
1CF2B
  8
0
 10
4765.6812658186463523
 20
536.9851185977386194
 30
0.0
 40
0.4945964915190471
 50
130.3803746422717893
 51
179.7334191944557062
  0
ARC
  5
1CF2C
  8
0
 10
4727.0166263994651672
 20
537.0347277433172621
 30
0.0
 40
38.170077597805637
 50
358.7047158758925889
 51
359.9289876763164102
  0
LINE
  5
1CF2D
  8
0
 10
4765.1769505223646775
 20
536.1718913406525644
 30
0.0
 11
4765.1916363621648998
 21
536.0413563536526453
 31
0.0
  0
ARC
  5
1CF2E
  8
0
 10
4765.1950912585789411
 20
536.0413042550328555
 30
0.0
 40
0.0034552892073501
 50
179.1360653302363062
 51
253.4364391236971983
  0
ARC
  5
1CF2F
  8
0
 10
4763.2101363154642968
 20
523.0071066767038701
 30
0.0
 40
4.7799097043934111
 50
251.9049704804037901
 51
288.0950295195962099
  0
ARC
  5
1CF31
  8
0
 10
4763.2101363154642968
 20
550.4810500823746224
 30
0.0
 40
11.7982844235328699
 50
253.271010040640391
 51
286.7289899593595806
  0
ENDSEC
  0
EOF
