  0
SECTION
  2
HEADER
  9
$ACADVER
  1
AC1009
  9
$INSBASE
 10
4255.9057638777148895
 20
210.1904372017905871
 30
0.0
  9
$EXTMIN
 10
4225.9169188302666953
 20
210.1858360528864864
 30
0.0
  9
$EXTMAX
 10
4255.9053945361592923
 20
240.0053976741907036
 30
0.0
  9
$LIMMIN
 10
0.0
 20
0.0
  9
$LIMMAX
 10
11.6929133858000007
 20
8.2677165353999982
  9
$ORTHOMODE
 70
     1
  9
$REGENMODE
 70
     1
  9
$FILLMODE
 70
     1
  9
$QTEXTMODE
 70
     0
  9
$MIRRTEXT
 70
     0
  9
$DRAGMODE
 70
     2
  9
$LTSCALE
 40
0.6431102362
  9
$OSMODE
 70
  3839
  9
$ATTMODE
 70
     1
  9
$TEXTSIZE
 40
0.2
  9
$TRACEWID
 40
0.05
  9
$TEXTSTYLE
  7
STANDARD
  9
$CLAYER
  8
0
  9
$CELTYPE
  6
BYLAYER
  9
$CECOLOR
 62
     1
  9
$DIMSCALE
 40
1.0
  9
$DIMASZ
 40
0.1875
  9
$DIMEXO
 40
0.0625
  9
$DIMDLI
 40
0.4443307087
  9
$DIMRND
 40
0.0
  9
$DIMDLE
 40
0.0
  9
$DIMEXE
 40
0.125
  9
$DIMTP
 40
0.01
  9
$DIMTM
 40
0.01
  9
$DIMTXT
 40
2.0
  9
$DIMCEN
 40
0.1052362205
  9
$DIMTSZ
 40
0.0
  9
$DIMTOL
 70
     1
  9
$DIMLIM
 70
     0
  9
$DIMTIH
 70
     1
  9
$DIMTOH
 70
     1
  9
$DIMSE1
 70
     0
  9
$DIMSE2
 70
     0
  9
$DIMTAD
 70
     0
  9
$DIMZIN
 70
     0
  9
$DIMBLK
  1

  9
$DIMASO
 70
     1
  9
$DIMSHO
 70
     1
  9
$DIMPOST
  1
\X
  9
$DIMAPOST
  1

  9
$DIMALT
 70
     1
  9
$DIMALTD
 70
     2
  9
$DIMALTF
 40
25.3999999999999986
  9
$DIMLFAC
 40
1.0
  9
$DIMTOFL
 70
     0
  9
$DIMTVP
 40
0.0
  9
$DIMTIX
 70
     0
  9
$DIMSOXD
 70
     0
  9
$DIMSAH
 70
     0
  9
$DIMBLK1
  1

  9
$DIMBLK2
  1

  9
$DIMSTYLE
  2
STANDARD
  9
$DIMCLRD
 70
     0
  9
$DIMCLRE
 70
     0
  9
$DIMCLRT
 70
     0
  9
$DIMTFAC
 40
1.0
  9
$DIMGAP
 40
0.09
  9
$LUNITS
 70
     2
  9
$LUPREC
 70
     4
  9
$SKETCHINC
 40
0.1
  9
$FILLETRAD
 40
0.0
  9
$AUNITS
 70
     0
  9
$AUPREC
 70
     0
  9
$MENU
  1
.
  9
$ELEVATION
 40
0.0
  9
$PELEVATION
 40
0.0
  9
$THICKNESS
 40
0.0
  9
$LIMCHECK
 70
     0
  9
$BLIPMODE
 70
     0
  9
$CHAMFERA
 40
0.0
  9
$CHAMFERB
 40
0.0
  9
$SKPOLY
 70
     0
  9
$TDCREATE
 40
2458060.468368056230247
  9
$TDUPDATE
 40
2459035.8345138891600072
  9
$TDINDWG
 40
0.5654237269
  9
$TDUSRTIMER
 40
0.5654237269
  9
$USRTIMER
 70
     1
  9
$ANGBASE
 50
0.0
  9
$ANGDIR
 70
     0
  9
$PDMODE
 70
     0
  9
$PDSIZE
 40
0.3125
  9
$PLINEWID
 40
0.0
  9
$COORDS
 70
     1
  9
$SPLFRAME
 70
     0
  9
$SPLINETYPE
 70
     6
  9
$SPLINESEGS
 70
     8
  9
$ATTDIA
 70
     1
  9
$ATTREQ
 70
     1
  9
$HANDLING
 70
     1
  9
$HANDSEED
  5
9665
  9
$SURFTAB1
 70
     6
  9
$SURFTAB2
 70
     6
  9
$SURFTYPE
 70
     6
  9
$SURFU
 70
     6
  9
$SURFV
 70
     6
  9
$UCSNAME
  2

  9
$UCSORG
 10
0.0
 20
0.0
 30
0.0
  9
$UCSXDIR
 10
1.0
 20
0.0
 30
0.0
  9
$UCSYDIR
 10
0.0
 20
1.0
 30
0.0
  9
$PUCSNAME
  2

  9
$PUCSORG
 10
0.0
 20
0.0
 30
0.0
  9
$PUCSXDIR
 10
1.0
 20
0.0
 30
0.0
  9
$PUCSYDIR
 10
0.0
 20
1.0
 30
0.0
  9
$USERI1
 70
     0
  9
$USERI2
 70
     0
  9
$USERI3
 70
     0
  9
$USERI4
 70
     0
  9
$USERI5
 70
     0
  9
$USERR1
 40
0.0
  9
$USERR2
 40
0.0
  9
$USERR3
 40
0.0
  9
$USERR4
 40
0.0
  9
$USERR5
 40
0.0
  9
$WORLDVIEW
 70
     1
  9
$SHADEDGE
 70
     3
  9
$SHADEDIF
 70
    70
  9
$TILEMODE
 70
     1
  9
$MAXACTVP
 70
    64
  9
$PLIMCHECK
 70
     0
  9
$PEXTMIN
 10
1.0000000000000000E+20
 20
1.0000000000000000E+20
 30
1.0000000000000000E+20
  9
$PEXTMAX
 10
-1.0000000000000000E+20
 20
-1.0000000000000000E+20
 30
-1.0000000000000000E+20
  9
$PLIMMIN
 10
0.0
 20
0.0
  9
$PLIMMAX
 10
12.0
 20
9.0
  9
$UNITMODE
 70
     0
  9
$VISRETAIN
 70
     1
  9
$PLINEGEN
 70
     0
  9
$PSLTSCALE
 70
     1
  0
ENDSEC
  0
SECTION
  2
TABLES
  0
TABLE
  2
VPORT
 70
     1
  0
VPORT
  2
*ACTIVE
 70
     0
 10
0.0
 20
0.0
 11
1.0
 21
1.0
 12
0.0
 22
0.0
 13
0.0
 23
0.0
 14
1.0
 24
1.0
 15
0.0
 25
0.0
 16
0.0
 26
0.0
 36
175.5722252468708859
 17
4240.9111933619878982
 27
225.0956188321073057
 37
0.0
 40
42.2907881877152789
 41
3.314341846758349
 42
50.0
 43
0.0
 44
0.0
 50
0.0
 51
0.0
 71
     0
 72
   100
 73
     1
 74
     1
 75
     0
 76
     0
 77
     0
 78
     0
  0
ENDTAB
  0
TABLE
  2
LTYPE
 70
     2
  0
LTYPE
  2
CONTINUOUS
 70
     0
  3
Solid line
 72
    65
 73
     0
 40
0.0
  0
LTYPE
  2
PHANTOM2
 70
     0
  3
___ _ _ ___ _ _ ___ _ _ ___ _ _
 72
    65
 73
     6
 40
1.25
 49
0.625
 49
-0.125
 49
0.125
 49
-0.125
 49
0.125
 49
-0.125
  0
ENDTAB
  0
TABLE
  2
LAYER
 70
     2
  0
LAYER
  2
0
 70
     0
 62
   255
  6
CONTINUOUS
  0
LAYER
  2
DEFPOINTS
 70
     0
 62
     7
  6
CONTINUOUS
  0
ENDTAB
  0
TABLE
  2
STYLE
 70
     1
  0
STYLE
  2
STANDARD
 70
     0
 40
0.0
 41
0.8
 50
0.0
 71
     0
 42
0.2
  3
txt
  4

  0
ENDTAB
  0
TABLE
  2
VIEW
 70
     0
  0
ENDTAB
  0
TABLE
  2
UCS
 70
     0
  0
ENDTAB
  0
TABLE
  2
APPID
 70
     9
  0
APPID
  2
ACAD
 70
     0
  0
APPID
  2
ACAD_MLEADERVER
 70
     0
  0
APPID
  2
ACAD_EXEMPT_FROM_CAD_STANDARDS
 70
     0
  0
APPID
  2
ACAD_NAV_VCDISPLAY
 70
     0
  0
APPID
  2
ACAECLAYERSTANDARD
 70
     0
  0
APPID
  2
ACCMTRANSPARENCY
 70
     0
  0
APPID
  2
ACAD_DSTYLE_DIMJAG
 70
     0
  0
APPID
  2
ACAD_DSTYLE_DIMTALN
 70
     0
  0
APPID
  2
ACDBATTR
 70
     0
  0
ENDTAB
  0
TABLE
  2
DIMSTYLE
 70
     1
  0
DIMSTYLE
  2
STANDARD
 70
     0
  3

  4

  5

  6

  7

 40
1.0
 41
0.1875
 42
0.0625
 43
0.38
 44
0.125
 45
0.0
 46
0.0
 47
0.01
 48
0.01
140
0.15625
141
0.09
142
0.0
143
25.3999999999999986
144
1.0
145
0.0
146
1.0
147
0.09
 71
     1
 72
     0
 73
     1
 74
     1
 75
     0
 76
     0
 77
     0
 78
     4
170
     0
171
     2
172
     0
173
     0
174
     0
175
     0
176
     0
177
     0
178
     0
  0
ENDTAB
  0
ENDSEC
  0
SECTION
  2
BLOCKS
  0
BLOCK
  8
0
  2
$MODEL_SPACE
 70
     0
 10
0.0
 20
0.0
 30
0.0
  3
$MODEL_SPACE
  1

  0
ENDBLK
  5
21
  8
0
  0
BLOCK
 67
     1
  8
0
  2
$PAPER_SPACE
 70
     0
 10
0.0
 20
0.0
 30
0.0
  3
$PAPER_SPACE
  1

  0
ENDBLK
  5
1D
 67
     1
  8
0
  0
BLOCK
  8
0
  2
_FILLED
 70
     0
 10
0.0
 20
0.0
 30
0.0
  3
_FILLED
  1

  0
SOLID
  5
6F59
  8
0
  6
BYBLOCK
 62
     0
 10
0.0
 20
0.0
 30
0.0
 11
-1.0
 21
0.1666666667
 31
0.0
 12
-1.0
 22
-0.1666666667
 32
0.0
 13
-1.0
 23
-0.1666666667
 33
0.0
  0
ENDBLK
  5
6F5A
  8
0
  6
BYBLOCK
 62
     0
  0
ENDSEC
  0
SECTION
  2
ENTITIES
  0
ATTDEF
  5
3930
  8
DEFPOINTS
 10
4255.8947278694913621
 20
210.189169386219902
 30
0.0
 40
0.001
  1
K-3567T-S2
  3

  2
MODELNUMBER
 70
     0
1001
ACDBATTR
1070
     0
1070
     1
  0
ATTDEF
  5
3931
  8
DEFPOINTS
 10
4255.8947278694913621
 20
210.1875027195532084
 30
0.0
 40
0.001
  1
PATIO
  3

  2
TRADENAME
 70
     0
1001
ACDBATTR
1070
     0
1070
     1
  0
ATTDEF
  5
3932
  8
DEFPOINTS
 10
4255.8947278694913621
 20
210.1858360528864864
 30
0.0
 40
0.001
  1
TOILET
  3

  2
PRODUCT
 70
     0
1001
ACDBATTR
1070
     0
1070
     1
  0
LINE
  5
90D0
  8
0
 10
4230.7360892731621789
 20
210.1904372017905871
 30
0.0
 11
4248.4723801609379734
 21
210.1904372017905871
 31
0.0
  0
LINE
  5
90D1
  8
0
 10
4225.954543560901584
 20
225.8794135796906914
 30
0.0
 11
4242.4571266865659709
 21
225.8794135796906914
 31
0.0
  0
LINE
  5
90D2
  8
0
 10
4226.4390828220630283
 20
225.7416183040905935
 30
0.0
 11
4253.4605498831006116
 21
225.7416183040905935
 31
0.0
  0
LINE
  5
90D3
  8
0
 10
4246.9444964441627235
 20
238.261303185990613
 30
0.0
 11
4254.9608949641187792
 21
238.261303185990613
 31
0.0
  0
LINE
  5
90D4
  8
0
 10
4247.1415094081130519
 20
238.1544043216906061
 30
0.0
 11
4254.8443729165928744
 21
238.1544043216906061
 31
0.0
  0
LINE
  5
90D5
  8
0
 10
4249.3778919719152327
 20
240.0053976741907036
 30
0.0
 11
4251.1889155940152705
 21
240.0053976741907036
 31
0.0
  0
ARC
  5
90D6
  8
0
 10
4254.9608937989878541
 20
238.3006732647004924
 30
0.0
 40
0.0393700787270987
 50
270.0016957699168074
 51
359.9999781183749974
  0
LINE
  5
90D7
  8
0
 10
4255.0002638777150423
 20
238.3006732496648112
 30
0.0
 11
4254.9582228844137717
 21
238.5425345529905883
 31
0.0
  0
ARC
  5
90D8
  8
0
 10
4254.3808554982806527
 20
238.4421749746771866
 30
0.0
 40
0.5860248659662223
 50
9.8607844927684294
 51
44.9975866276440186
  0
LINE
  5
90D9
  8
0
 10
4254.795255108893798
 20
238.8565396766657898
 30
0.0
 11
4254.0415974832112624
 21
239.6102607950917047
 31
0.0
  0
ARC
  5
90DA
  8
0
 10
4253.6151879744447797
 20
239.183887206653111
 30
0.0
 40
0.6030087114494215
 50
44.9975866276440186
 51
80.7222396306832621
  0
ARC
  5
90DB
  8
0
 10
4250.8159840525977415
 20
220.3273441041062881
 30
0.0
 40
19.6661249153067814
 50
81.5306846902866198
 51
88.8209024334770731
  0
ARC
  5
90DC
  8
0
 10
4251.1889155940152705
 20
239.9660275954906865
 30
0.0
 40
0.0393700786999745
 50
36.2452248196938882
 51
90.0000000000521254
  0
ARC
  5
90DD
  8
0
 10
4249.3778919719152327
 20
239.9660275954906012
 30
0.0
 40
0.0393700786999922
 50
90.0
 51
180.0000000000098055
  0
LINE
  5
90DE
  8
0
 10
4249.3385218932153293
 20
239.9660275954906012
 30
0.0
 11
4249.3385218932153293
 21
239.9382224671905988
 31
0.0
  0
ARC
  5
90DF
  8
0
 10
4250.813482701934845
 20
220.3105742718211957
 30
0.0
 40
19.6829896882676287
 50
94.2975342067542357
 51
99.5311593167630804
  0
ARC
  5
90E0
  8
0
 10
4247.6520908158991006
 20
239.1394441335787064
 30
0.0
 40
0.5905634693154928
 50
99.5319042609250459
 51
169.9992029525674013
  0
LINE
  5
90E1
  8
0
 10
4247.0705007593151095
 20
239.2420024943905901
 30
0.0
 11
4246.9057244853147495
 21
238.3075098071905984
 31
0.0
  0
ARC
  5
90E2
  8
0
 10
4246.9444964441627235
 20
238.3006732647920103
 30
0.0
 40
0.039370078801304
 50
170.0000000587461102
 51
269.9999999312665864
  0
ARC
  5
90E3
  8
0
 10
4276.2093183763518027
 20
603.3334404245921405
 30
0.0
 40
364.7389424134649971
 50
265.4940223916980813
 51
266.546734131370215
  0
ARC
  5
90E4
  8
0
 10
4254.1567786555297062
 20
238.6993870349203064
 30
0.0
 40
0.5634858119873378
 50
48.1941984059535571
 51
81.5587483213509046
  0
ARC
  5
90E5
  8
0
 10
4247.0760239779201584
 20
238.3400500770111989
 30
0.0
 40
0.1968570243501988
 50
289.429989293323672
 51
336.4205254452385248
  0
ARC
  5
90E6
  8
0
 10
4247.182192599992959
 20
238.0015176196490074
 30
0.0
 40
0.1582070344918981
 50
104.9011149839173953
 51
180.9220394026492045
  0
LINE
  5
90E7
  8
0
 10
4247.0240060506966984
 20
237.9989717633100099
 30
0.0
 11
4247.2364335394149748
 21
226.0137200457907056
 31
0.0
  0
ARC
  5
90E8
  8
0
 10
4247.4332714928123096
 20
226.0172274922881002
 30
0.0
 40
0.1968692004314889
 50
181.0208428419309996
 51
269.997019134877803
  0
LINE
  5
90E9
  8
0
 10
4247.4332616738147408
 20
225.820358304090604
 30
0.0
 11
4254.3072726174150375
 21
225.820358304090604
 31
0.0
  0
ARC
  5
90EA
  8
0
 10
4254.3072726174150375
 20
226.0171966741820029
 30
0.0
 40
0.1968383700914353
 50
270.0
 51
357.8537866699775236
  0
LINE
  5
90EB
  8
0
 10
4254.5039729079153403
 20
226.0098251304144981
 30
0.0
 11
4254.9532625467227263
 21
237.9985489661715974
 31
0.0
  0
ARC
  5
90EC
  8
0
 10
4254.7957287899389485
 20
238.0044527041887079
 30
0.0
 40
0.1576443422691097
 50
357.8537866699791721
 51
72.0269986784789182
  0
ARC
  5
90ED
  8
0
 10
4254.9098521387468281
 20
238.3400344780854994
 30
0.0
 40
0.1968402486714389
 50
203.57665170531439
 51
250.570204397114594
  0
ARC
  5
90EE
  8
0
 10
4242.3286595361778382
 20
229.7006778682813888
 30
0.0
 40
3.8234231484349648
 50
271.9255025980189089
 51
287.3035316888917237
  0
ARC
  5
90EF
  8
0
 10
4243.3153137034860265
 20
226.5414523730727012
 30
0.0
 40
0.5137175108756357
 50
287.0424988477822126
 51
350.4567438545259961
  0
LINE
  5
90F0
  8
0
 10
4243.8219217317182483
 20
226.4562820336867048
 30
0.0
 11
4243.7440815708869195
 21
227.6905832427831911
 31
0.0
  0
LINE
  5
90F1
  8
0
 10
4243.7440815708869195
 20
227.6905832427831911
 30
0.0
 11
4243.8679423732146461
 21
227.7232244000906007
 31
0.0
  0
ARC
  5
90F2
  8
0
 10
4243.8579605960512708
 20
227.7611918621643952
 30
0.0
 40
0.0392576623303866
 50
284.7299281421239243
 51
3.7188100139075528
  0
LINE
  5
90F3
  8
0
 10
4243.8971355966150441
 20
227.7637381108906993
 30
0.0
 11
4243.8803988311146895
 21
228.0297613817907063
 31
0.0
  0
ARC
  5
90F4
  8
0
 10
4243.7625918022831684
 20
228.0223752509984081
 30
0.0
 40
0.1180383453374568
 50
3.5875695955115301
 51
88.7409313658327363
  0
ARC
  5
90F5
  8
0
 10
4246.3377203132340583
 20
0.2188592069529136
 30
0.0
 40
227.9360434413893017
 50
90.6466661265495048
 51
94.3390596822577265
  0
ARC
  5
90F6
  8
0
 10
4230.0055419822547265
 20
212.8747586394918017
 30
0.0
 40
14.6553053212684503
 50
93.5722227752020359
 51
103.2529743096831965
  0
ARC
  5
90F7
  8
0
 10
4226.8554213484212596
 20
226.258921332691898
 30
0.0
 40
0.9054326255633472
 50
103.3863061206057949
 51
175.0036437750453047
  0
LINE
  5
90F8
  8
0
 10
4225.9534291505970032
 20
226.3377776228601874
 30
0.0
 11
4225.9169188302666953
 21
225.9187706662430912
 31
0.0
  0
ARC
  5
90F9
  8
0
 10
4225.9563157982611301
 20
225.9187706662434039
 30
0.0
 40
0.0393969679944348
 50
180.0000000003720118
 51
267.4217305680260779
  0
LINE
  5
90FA
  8
0
 10
4243.8165746862823653
 20
226.4290107966625953
 30
0.0
 11
4243.8168683499152394
 21
226.0926497406906037
 31
0.0
  0
ARC
  5
90FB
  8
0
 10
4243.9745528597823068
 20
226.0927874088455098
 30
0.0
 40
0.1576845699632657
 50
180.0500226829506971
 51
247.9256646479894073
  0
ARC
  5
90FC
  8
0
 10
4243.8560342351902364
 20
225.8005357550732981
 30
0.0
 40
0.1576845685199533
 50
0.0500223064168733
 51
67.9256646479893931
  0
LINE
  5
90FD
  8
0
 10
4244.0137187436148452
 20
225.8006734221906129
 30
0.0
 11
4244.0137531158134152
 21
225.7613033584950131
 31
0.0
  0
LINE
  5
90FE
  8
0
 10
4244.0137531158134152
 20
225.7613033584950131
 30
0.0
 11
4242.6160809483153571
 21
225.7613033584950131
 31
0.0
  0
LINE
  5
90FF
  8
0
 10
4243.9271497787149201
 20
225.7613033584950131
 30
0.0
 11
4243.9271497787149201
 21
225.7416183040905935
 31
0.0
  0
LINE
  5
9100
  8
0
 10
4242.7026951215138979
 20
225.7416183040905935
 30
0.0
 11
4242.7026951215138979
 21
225.7613033584950131
 31
0.0
  0
LINE
  5
9101
  8
0
 10
4242.6160809483153571
 20
225.7613033584950131
 30
0.0
 11
4242.6160809483153571
 21
225.8006734221906129
 31
0.0
  0
ARC
  5
9102
  8
0
 10
4242.7735612633241544
 20
225.8006734221891918
 30
0.0
 40
0.157480315009248
 50
145.316615999419696
 51
179.9999999994903135
  0
ARC
  5
9103
  8
0
 10
4226.4547810981566727
 20
225.5443273309167012
 30
0.0
 40
0.1979145370309565
 50
94.549391823871531
 51
179.8724532031700107
  0
LINE
  5
9104
  8
0
 10
4226.256867051514746
 20
225.5447679103907035
 30
0.0
 11
4226.2564288411049347
 21
225.3479180786434881
 31
0.0
  0
ARC
  5
9105
  8
0
 10
4236.6118752306174429
 20
227.182684010700001
 30
0.0
 40
10.5167312389107597
 50
190.0473290453709865
 51
239.4383216298978994
  0
ARC
  5
9106
  8
0
 10
4231.091270146165698
 20
217.8637881092080875
 30
0.0
 40
0.3150174492312738
 50
355.0062785134081764
 51
56.6440100046898891
  0
LINE
  5
9107
  8
0
 10
4231.4050918656148497
 20
217.8363669180907038
 30
0.0
 11
4230.7360892731621789
 21
210.1904372017905871
 31
0.0
  0
ARC
  5
9108
  8
0
 10
4253.4286895904915582
 20
225.542978304123011
 30
0.0
 40
0.2011788453895472
 50
0.5096869817101833
 51
80.8878178598449011
  0
LINE
  5
9109
  8
0
 10
4253.6298604759149384
 20
225.5447679103907035
 30
0.0
 11
4253.6302106963348706
 21
225.5053993894316022
 31
0.0
  0
ARC
  5
910A
  8
0
 10
4253.4741139993775505
 20
225.5040107609198969
 30
0.0
 40
0.1561028734195232
 50
269.3636012791909025
 51
0.5096869817069266
  0
LINE
  5
910B
  8
0
 10
4253.472380160915236
 20
225.3479175166905861
 30
0.0
 11
4251.1465572537154003
 21
225.3479034897906104
 31
0.0
  0
ARC
  5
910C
  8
0
 10
4251.1501246867046575
 20
225.2424785059799035
 30
0.0
 40
0.1054853249965302
 50
91.9380689901690431
 51
182.4890550420747104
  0
ARC
  5
910D
  8
0
 10
4267.3972675922695998
 20
224.3365558087226077
 30
0.0
 40
16.3773505762776317
 50
176.8450832780287953
 51
181.9491956644866946
  0
ARC
  5
910E
  8
0
 10
4247.7925727434676446
 20
223.660131456873188
 30
0.0
 40
3.23902113504418
 50
357.3399902943421012
 51
2.1121524584415718
  0
ARC
  5
910F
  8
0
 10
4250.734321197751342
 20
223.5487460816140981
 30
0.0
 40
0.2963514871328089
 50
294.1688739613268808
 51
352.450555275209922
  0
ARC
  5
9110
  8
0
 10
4253.4594887792809459
 20
217.2984377859885967
 30
0.0
 40
6.522235807750655
 50
113.5296766600534966
 51
131.7126891036461984
  0
ARC
  5
9111
  8
0
 10
4250.9645191912632072
 20
220.1229385812027886
 30
0.0
 40
2.7536819213107711
 50
132.0651349582279863
 51
181.8641360027048961
  0
LINE
  5
9112
  8
0
 10
4248.2122945915152741
 20
220.0333624889906901
 30
0.0
 11
4248.2092190394150748
 21
219.7376107853905864
 31
0.0
  0
ARC
  5
9113
  8
0
 10
4248.5342278100142721
 20
219.7524220061465883
 30
0.0
 40
0.3253460822367661
 50
182.6092640537592899
 51
198.2060789955368989
  0
ARC
  5
9114
  8
0
 10
4247.6564278829000614
 20
219.4977358559175116
 30
0.0
 40
0.588970711055498
 50
3.588178939190477
 51
15.0603939742883508
  0
LINE
  5
9115
  8
0
 10
4248.2442440122322296
 20
219.534596357510992
 30
0.0
 11
4248.4723801609379734
 21
210.1904372017905871
 31
0.0
  0
LINE
  5
9116
  8
0
 10
4229.5169289366149314
 20
225.8794135796906914
 30
0.0
 11
4229.52718617521532
 21
225.7958750744907093
 31
0.0
  0
ARC
  5
9117
  8
0
 10
4229.5662624544365826
 20
225.8006730382394949
 30
0.0
 40
0.0393697352541998
 50
186.9999999463069003
 51
270.0015177455007915
  0
LINE
  5
9118
  8
0
 10
4229.5662634973277818
 20
225.7613033029990959
 30
0.0
 11
4230.3594052912358165
 21
225.7613243130525973
 31
0.0
  0
ARC
  5
9119
  8
0
 10
4230.3594042482118311
 20
225.8006990747944087
 30
0.0
 40
0.0393747617556483
 50
270.0015177455007915
 51
352.9627254389209838
  0
LINE
  5
911A
  8
0
 10
4230.3984823864147984
 20
225.7958750745906116
 30
0.0
 11
4230.4087396251152313
 21
225.8794135796906914
 31
0.0
  0
LINE
  5
911B
  8
0
 10
4241.0172591471118722
 20
212.2182937289767892
 30
0.0
 11
4241.0509150418747595
 21
214.1790832434465131
 31
0.0
  0
ARC
  5
911C
  8
0
 10
4239.8503334092456498
 20
214.2022347606923063
 30
0.0
 40
1.200804834000017
 50
358.8952689200913255
 51
181.0452813130100083
  0
LINE
  5
911D
  8
0
 10
4238.6497284010138173
 20
214.1803289721906083
 30
0.0
 11
4238.6845016668376047
 21
212.1881699099909042
 31
0.0
  0
ARC
  5
911E
  8
0
 10
4239.8506186327213072
 20
212.2235033477556954
 30
0.0
 40
1.166652146076647
 50
181.7355357241713136
 51
359.7441481062671755
  0
ARC
  5
9121
  8
0
 10
4236.8037976969380907
 20
219.9391423577039006
 30
0.0
 40
2.0243275685588409
 50
267.877824184261101
 51
297.8116962487466139
  0
ARC
  5
9122
  8
0
 10
4219.9494739553938416
 20
245.966728850375091
 30
0.0
 40
33.0248831255848998
 50
302.6122879035763731
 51
308.8253270789119824
  0
ARC
  5
9123
  8
0
 10
4101.7664220504757395
 20
298.3329795588284128
 30
0.0
 40
159.338114972780005
 50
330.6515931161574144
 51
332.0996701634639976
  0
LINE
  5
9124
  8
0
 10
4242.5835424075867195
 20
223.7731143670906135
 30
0.0
 11
4249.6283688441153572
 21
223.7731143670906135
 31
0.0
  0
ARC
  5
9125
  8
0
 10
4249.6431412846040985
 20
216.7902737811693044
 30
0.0
 40
6.982856211707956
 50
84.7448864486623847
 51
90.1212110200639955
  0
ARC
  5
9126
  8
0
 10
4250.1862894950199916
 20
222.695528940601406
 30
0.0
 40
1.0526750613149389
 50
66.2138908869875138
 51
84.7448864486623847
  0
ARC
  5
9127
  8
0
 10
4250.4600950635540357
 20
223.2927996307271883
 30
0.0
 40
0.3958236009403295
 50
357.9111225101523814
 51
67.611533450919481
  0
LINE
  5
9128
  8
0
 10
4240.6543666177039995
 20
220.2383335389538104
 30
0.0
 11
4244.8259360920146719
 21
220.2383335389538104
 31
0.0
  0
ARC
  5
9129
  8
0
 10
4244.7253427657642533
 20
220.9057008303184091
 30
0.0
 40
0.6749060074332296
 50
278.5717552820159995
 51
317.5867112800657992
  0
LINE
  5
912A
  8
0
 10
4245.2236251479043858
 20
220.4504945182816016
 30
0.0
 11
4245.196740267714631
 21
223.5814256022906079
 31
0.0
  0
ARC
  5
912B
  8
0
 10
4244.8921779339898421
 20
223.5180382165561923
 30
0.0
 40
0.3110332526731465
 50
11.7589217376826696
 51
55.0940907303994791
  0
ARC
  5
92E5
  8
0
 10
4241.9367568494853913
 20
578.490064415513757
 30
0.0
 40
360.6114693565647826
 50
268.318705174715376
 51
269.1725103288304126
  0
LINE
  5
92E6
  8
0
 10
4250.1365335222626527
 20
225.8203583040923093
 30
0.0
 11
4250.1435550203632374
 21
225.8149021424924001
 31
0.0
  0
ARC
  5
92E7
  8
0
 10
4250.1401669516453694
 20
225.8105420593776955
 30
0.0
 40
0.0055217148062598
 50
307.8495349209997016
 51
52.150465078857799
  0
LINE
  5
92E8
  8
0
 10
4250.1435550203632374
 20
225.8061819762629909
 30
0.0
 11
4250.1258329697529916
 21
225.7924107880299971
 31
0.0
  0
LINE
  5
92E9
  8
0
 10
4250.1258329697529916
 20
225.7924107880299971
 30
0.0
 11
4250.1260940973616016
 21
225.7890689227924099
 31
0.0
  0
LINE
  5
92EA
  8
0
 10
4250.1260940973616016
 20
225.7890689227924099
 30
0.0
 11
4250.1437124077629051
 21
225.7754131022923048
 31
0.0
  0
ARC
  5
92EB
  8
0
 10
4250.1404247914633743
 20
225.771171523072411
 30
0.0
 40
0.0053665086621084
 50
306.336376206701118
 51
52.221004223127089
  0
LINE
  5
92EC
  8
0
 10
4250.1436045805630783
 20
225.7668485198923065
 30
0.0
 11
4250.1259236633641194
 21
225.7529444162923085
 31
0.0
  0
LINE
  5
92ED
  8
0
 10
4250.1259236633641194
 20
225.7529444162923085
 30
0.0
 11
4250.1259234679628207
 21
225.749936279560302
 31
0.0
  0
LINE
  5
92EE
  8
0
 10
4250.1259234679628207
 20
225.749936279560302
 30
0.0
 11
4250.1364351028632882
 21
225.7416183040922988
 31
0.0
  0
LINE
  5
92EF
  8
0
 10
4250.4408838995350379
 20
225.8088767888924053
 30
0.0
 11
4250.4234265675640927
 21
225.7953113042923974
 31
0.0
  0
ARC
  5
92F0
  8
0
 10
4250.4268146362801417
 20
225.7909512211776928
 30
0.0
 40
0.0055217148062598
 50
127.8495349211421939
 51
232.1504650790000994
  0
LINE
  5
92F1
  8
0
 10
4250.4234265675640927
 20
225.7865911380629882
 30
0.0
 11
4250.4411486181743385
 21
225.7728199498299944
 31
0.0
  0
LINE
  5
92F2
  8
0
 10
4250.4411486181743385
 20
225.7728199498299944
 30
0.0
 11
4250.440887490563
 21
225.7694780845922935
 31
0.0
  0
LINE
  5
92F3
  8
0
 10
4250.440887490563
 20
225.7694780845922935
 30
0.0
 11
4250.4232691801626061
 21
225.755822264092302
 31
0.0
  0
ARC
  5
92F4
  8
0
 10
4250.4265567964639558
 20
225.7515806848724083
 30
0.0
 40
0.0053665086621084
 50
127.7789957768729039
 51
233.6636237932989104
  0
LINE
  5
92F5
  8
0
 10
4250.4233770073633423
 20
225.7472576816923038
 30
0.0
 11
4250.430548226110659
 21
225.7416183040922988
 31
0.0
  0
LINE
  5
92F6
  8
0
 10
4250.4408838995350379
 20
225.8088767888924053
 30
0.0
 11
4250.4408840978630906
 21
225.8119299990923139
 31
0.0
  0
LINE
  5
92F7
  8
0
 10
4250.4408840978630906
 20
225.8119299990923139
 30
0.0
 11
4250.4302330367572722
 21
225.8203583040923093
 31
0.0
  0
LINE
  5
92F8
  8
0
 10
4250.1258329697529916
 20
225.7924107880299971
 30
0.0
 11
4250.4408840978630906
 21
225.8119299990923139
 31
0.0
  0
LINE
  5
92F9
  8
0
 10
4250.1437124077629051
 20
225.7754131022923048
 30
0.0
 11
4250.4234265675640927
 21
225.7953113042923974
 31
0.0
  0
LINE
  5
92FA
  8
0
 10
4250.1259236633641194
 20
225.7529444162923085
 30
0.0
 11
4250.4411486181743385
 21
225.7728199498299944
 31
0.0
  0
LINE
  5
92FB
  8
0
 10
4248.7209037829616136
 20
225.8203583040923093
 30
0.0
 11
4248.7209041559626712
 21
225.7893583040923033
 31
0.0
  0
LINE
  5
92FC
  8
0
 10
4248.7209041559626712
 20
225.7893583040923033
 30
0.0
 11
4250.12607148560528
 21
225.7893583040923033
 31
0.0
  0
LINE
  5
92FD
  8
0
 10
4250.4215276759478002
 20
225.7893583040923033
 30
0.0
 11
4251.8459037829634326
 21
225.7893583040923033
 31
0.0
  0
LINE
  5
92FE
  8
0
 10
4251.8459037829634326
 20
225.7893583040923033
 30
0.0
 11
4251.8459037829634326
 21
225.8203583040923093
 31
0.0
  0
ENDSEC
  0
EOF
