  0
SECTION
  2
HEADER
  9
$ACADVER
  1
AC1009
  9
$INSBASE
 10
2551.7710271209498387
 20
148.2124969472598082
 30
0.0
  9
$EXTMIN
 10
2523.2532674446038072
 20
148.2078265490056026
 30
0.0
  9
$EXTMAX
 10
2551.7704729848178431
 20
176.8509752973587865
 30
0.0
  9
$LIMMIN
 10
0.0
 20
0.0
  9
$LIMMAX
 10
11.6929133858000007
 20
8.2677165353999982
  9
$ORTHOMODE
 70
     0
  9
$REGENMODE
 70
     1
  9
$FILLMODE
 70
     1
  9
$QTEXTMODE
 70
     0
  9
$MIRRTEXT
 70
     0
  9
$DRAGMODE
 70
     2
  9
$LTSCALE
 40
0.6431102362
  9
$OSMODE
 70
  2047
  9
$ATTMODE
 70
     1
  9
$TEXTSIZE
 40
0.2
  9
$TRACEWID
 40
0.05
  9
$TEXTSTYLE
  7
STANDARD
  9
$CLAYER
  8
0
  9
$CELTYPE
  6
BYLAYER
  9
$CECOLOR
 62
   256
  9
$DIMSCALE
 40
1.0
  9
$DIMASZ
 40
0.1875
  9
$DIMEXO
 40
0.0625
  9
$DIMDLI
 40
0.4443307087
  9
$DIMRND
 40
0.0
  9
$DIMDLE
 40
0.0
  9
$DIMEXE
 40
0.125
  9
$DIMTP
 40
0.01
  9
$DIMTM
 40
0.01
  9
$DIMTXT
 40
2.0
  9
$DIMCEN
 40
0.1052362205
  9
$DIMTSZ
 40
0.0
  9
$DIMTOL
 70
     1
  9
$DIMLIM
 70
     0
  9
$DIMTIH
 70
     1
  9
$DIMTOH
 70
     1
  9
$DIMSE1
 70
     0
  9
$DIMSE2
 70
     0
  9
$DIMTAD
 70
     0
  9
$DIMZIN
 70
     0
  9
$DIMBLK
  1

  9
$DIMASO
 70
     1
  9
$DIMSHO
 70
     1
  9
$DIMPOST
  1
\X
  9
$DIMAPOST
  1

  9
$DIMALT
 70
     1
  9
$DIMALTD
 70
     2
  9
$DIMALTF
 40
25.3999999999999986
  9
$DIMLFAC
 40
1.0
  9
$DIMTOFL
 70
     0
  9
$DIMTVP
 40
0.0
  9
$DIMTIX
 70
     0
  9
$DIMSOXD
 70
     0
  9
$DIMSAH
 70
     0
  9
$DIMBLK1
  1

  9
$DIMBLK2
  1

  9
$DIMSTYLE
  2
STANDARD
  9
$DIMCLRD
 70
     0
  9
$DIMCLRE
 70
     0
  9
$DIMCLRT
 70
     0
  9
$DIMTFAC
 40
1.0
  9
$DIMGAP
 40
0.09
  9
$LUNITS
 70
     2
  9
$LUPREC
 70
     4
  9
$SKETCHINC
 40
0.1
  9
$FILLETRAD
 40
0.0
  9
$AUNITS
 70
     0
  9
$AUPREC
 70
     0
  9
$MENU
  1
.
  9
$ELEVATION
 40
0.0
  9
$PELEVATION
 40
0.0
  9
$THICKNESS
 40
0.0
  9
$LIMCHECK
 70
     0
  9
$BLIPMODE
 70
     0
  9
$CHAMFERA
 40
0.0
  9
$CHAMFERB
 40
0.0
  9
$SKPOLY
 70
     0
  9
$TDCREATE
 40
2458060.468368056230247
  9
$TDUPDATE
 40
2459029.6437268517911434
  9
$TDINDWG
 40
0.2744630787
  9
$TDUSRTIMER
 40
0.2744630787
  9
$USRTIMER
 70
     1
  9
$ANGBASE
 50
0.0
  9
$ANGDIR
 70
     0
  9
$PDMODE
 70
     0
  9
$PDSIZE
 40
0.3125
  9
$PLINEWID
 40
0.0
  9
$COORDS
 70
     1
  9
$SPLFRAME
 70
     0
  9
$SPLINETYPE
 70
     6
  9
$SPLINESEGS
 70
     8
  9
$ATTDIA
 70
     1
  9
$ATTREQ
 70
     1
  9
$HANDLING
 70
     1
  9
$HANDSEED
  5
5DBA
  9
$SURFTAB1
 70
     6
  9
$SURFTAB2
 70
     6
  9
$SURFTYPE
 70
     6
  9
$SURFU
 70
     6
  9
$SURFV
 70
     6
  9
$UCSNAME
  2

  9
$UCSORG
 10
0.0
 20
0.0
 30
0.0
  9
$UCSXDIR
 10
1.0
 20
0.0
 30
0.0
  9
$UCSYDIR
 10
0.0
 20
1.0
 30
0.0
  9
$PUCSNAME
  2

  9
$PUCSORG
 10
0.0
 20
0.0
 30
0.0
  9
$PUCSXDIR
 10
1.0
 20
0.0
 30
0.0
  9
$PUCSYDIR
 10
0.0
 20
1.0
 30
0.0
  9
$USERI1
 70
     0
  9
$USERI2
 70
     0
  9
$USERI3
 70
     0
  9
$USERI4
 70
     0
  9
$USERI5
 70
     0
  9
$USERR1
 40
0.0
  9
$USERR2
 40
0.0
  9
$USERR3
 40
0.0
  9
$USERR4
 40
0.0
  9
$USERR5
 40
0.0
  9
$WORLDVIEW
 70
     1
  9
$SHADEDGE
 70
     3
  9
$SHADEDIF
 70
    70
  9
$TILEMODE
 70
     1
  9
$MAXACTVP
 70
    64
  9
$PLIMCHECK
 70
     0
  9
$PEXTMIN
 10
1.0000000000000000E+20
 20
1.0000000000000000E+20
 30
1.0000000000000000E+20
  9
$PEXTMAX
 10
-1.0000000000000000E+20
 20
-1.0000000000000000E+20
 30
-1.0000000000000000E+20
  9
$PLIMMIN
 10
0.0
 20
0.0
  9
$PLIMMAX
 10
12.0
 20
9.0
  9
$UNITMODE
 70
     0
  9
$VISRETAIN
 70
     1
  9
$PLINEGEN
 70
     0
  9
$PSLTSCALE
 70
     1
  0
ENDSEC
  0
SECTION
  2
TABLES
  0
TABLE
  2
VPORT
 70
     1
  0
VPORT
  2
*ACTIVE
 70
     0
 10
0.0
 20
0.0
 11
1.0
 21
1.0
 12
-0.0000000000000071
 22
0.2533726991421616
 13
0.0
 23
0.0
 14
1.0
 24
1.0
 15
0.0
 25
0.0
 16
0.0
 26
0.0
 36
139.1948709555024948
 17
2537.5119454769419463
 27
162.5292443902253865
 37
0.0
 40
40.9249895800728183
 41
2.6486111111111108
 42
50.0
 43
0.0
 44
0.0
 50
0.0
 51
0.0
 71
     0
 72
   100
 73
     1
 74
     1
 75
     0
 76
     0
 77
     0
 78
     0
  0
ENDTAB
  0
TABLE
  2
LTYPE
 70
     2
  0
LTYPE
  2
CONTINUOUS
 70
     0
  3
Solid line
 72
    65
 73
     0
 40
0.0
  0
LTYPE
  2
PHANTOM2
 70
     0
  3
___ _ _ ___ _ _ ___ _ _ ___ _ _
 72
    65
 73
     6
 40
1.25
 49
0.625
 49
-0.125
 49
0.125
 49
-0.125
 49
0.125
 49
-0.125
  0
ENDTAB
  0
TABLE
  2
LAYER
 70
     2
  0
LAYER
  2
0
 70
     0
 62
   255
  6
CONTINUOUS
  0
LAYER
  2
DEFPOINTS
 70
     0
 62
     7
  6
CONTINUOUS
  0
ENDTAB
  0
TABLE
  2
STYLE
 70
     1
  0
STYLE
  2
STANDARD
 70
     0
 40
0.0
 41
0.8
 50
0.0
 71
     0
 42
0.2
  3
txt
  4

  0
ENDTAB
  0
TABLE
  2
VIEW
 70
     0
  0
ENDTAB
  0
TABLE
  2
UCS
 70
     0
  0
ENDTAB
  0
TABLE
  2
APPID
 70
     9
  0
APPID
  2
ACAD
 70
     0
  0
APPID
  2
ACAD_MLEADERVER
 70
     0
  0
APPID
  2
ACAD_EXEMPT_FROM_CAD_STANDARDS
 70
     0
  0
APPID
  2
ACAD_NAV_VCDISPLAY
 70
     0
  0
APPID
  2
ACAECLAYERSTANDARD
 70
     0
  0
APPID
  2
ACCMTRANSPARENCY
 70
     0
  0
APPID
  2
ACAD_DSTYLE_DIMJAG
 70
     0
  0
APPID
  2
ACAD_DSTYLE_DIMTALN
 70
     0
  0
APPID
  2
ACDBATTR
 70
     0
  0
ENDTAB
  0
TABLE
  2
DIMSTYLE
 70
     1
  0
DIMSTYLE
  2
STANDARD
 70
     0
  3

  4

  5

  6

  7

 40
1.0
 41
0.1875
 42
0.0625
 43
0.38
 44
0.125
 45
0.0
 46
0.0
 47
0.01
 48
0.01
140
0.15625
141
0.09
142
0.0
143
25.3999999999999986
144
1.0
145
0.0
146
1.0
147
0.09
 71
     1
 72
     0
 73
     1
 74
     1
 75
     0
 76
     0
 77
     0
 78
     4
170
     0
171
     2
172
     0
173
     0
174
     0
175
     0
176
     0
177
     0
178
     0
  0
ENDTAB
  0
ENDSEC
  0
SECTION
  2
BLOCKS
  0
BLOCK
  8
0
  2
$MODEL_SPACE
 70
     0
 10
0.0
 20
0.0
 30
0.0
  3
$MODEL_SPACE
  1

  0
ENDBLK
  5
21
  8
0
  0
BLOCK
 67
     1
  8
0
  2
$PAPER_SPACE
 70
     0
 10
0.0
 20
0.0
 30
0.0
  3
$PAPER_SPACE
  1

  0
ENDBLK
  5
1D
 67
     1
  8
0
  0
BLOCK
  8
0
  2
_FILLED
 70
     0
 10
0.0
 20
0.0
 30
0.0
  3
_FILLED
  1

  0
SOLID
  5
5582
  8
0
  6
BYBLOCK
 62
     0
 10
0.0
 20
0.0
 30
0.0
 11
-1.0
 21
0.1666666667
 31
0.0
 12
-1.0
 22
-0.1666666667
 32
0.0
 13
-1.0
 23
-0.1666666667
 33
0.0
  0
ENDBLK
  5
5583
  8
0
  6
BYBLOCK
 62
     0
  0
ENDSEC
  0
SECTION
  2
ENTITIES
  0
ATTDEF
  5
3930
  8
DEFPOINTS
 10
2551.7598063181490033
 20
148.2111598823389045
 30
0.0
 40
0.001
  1
K-3451T
  3

  2
MODELNUMBER
 70
     0
1001
ACDBATTR
1070
     0
1070
     1
  0
ATTDEF
  5
3931
  8
DEFPOINTS
 10
2551.7598063181490033
 20
148.2094932156722962
 30
0.0
 40
0.001
  1
MEMOIRS
  3

  2
TRADENAME
 70
     0
1001
ACDBATTR
1070
     0
1070
     1
  0
ATTDEF
  5
3932
  8
DEFPOINTS
 10
2551.7598063181490033
 20
148.2078265490056026
 30
0.0
 40
0.001
  1
TOILET
  3

  2
PRODUCT
 70
     0
1001
ACDBATTR
1070
     0
1070
     1
  0
ARC
  5
5B6B
  8
0
 10
2526.1714304032661857
 20
148.2624969779371895
 30
0.0
 40
0.050000030677422
 50
180.0000144126607893
 51
270.0000000000259774
  0
LINE
  5
5B6C
  8
0
 10
2526.1214303725892023
 20
148.2624969653597873
 30
0.0
 11
2526.1470525292202183
 21
148.752702555272208
 31
0.0
  0
ARC
  5
5B6D
  8
0
 10
2526.3268362160752076
 20
148.7432694398345916
 30
0.0
 40
0.1800309910159386
 50
92.655074481507512
 51
176.9964875737715033
  0
ARC
  5
5B6E
  8
0
 10
2526.2987414228018679
 20
149.2424967936545102
 30
0.0
 40
0.3199999998867944
 50
273.5394020544723048
 51
0.0000000009396122
  0
LINE
  5
5B6F
  8
0
 10
2526.6187414226887995
 20
149.2424967936597966
 30
0.0
 11
2526.6187416203888461
 21
149.2716197061629941
 31
0.0
  0
ARC
  5
5B70
  8
0
 10
2527.3687472192550558
 20
149.2721550087786113
 30
0.0
 40
0.7500057898971365
 50
111.7158652500300065
 51
180.0408937952958865
  0
ARC
  5
5B71
  8
0
 10
2526.9987417353900128
 20
150.201190810959389
 30
0.0
 40
0.249999999998763
 50
291.7156977190026055
 51
0.0000000000863075
  0
LINE
  5
5B72
  8
0
 10
2527.2487417353891033
 20
150.2011908109597869
 30
0.0
 11
2527.2487427873888919
 21
150.3637774905598121
 31
0.0
  0
ARC
  5
5B73
  8
0
 10
2527.4988113021968275
 20
150.3637709282955086
 30
0.0
 40
0.250068514894194
 50
158.1200929943074129
 51
179.9984964518781112
  0
ARC
  5
5B74
  8
0
 10
2519.8432517217888744
 20
153.4388380805598047
 30
0.0
 40
7.9999999994999822
 50
338.1156396637597936
 51
357.5000097302003041
  0
LINE
  5
5B75
  8
0
 10
2527.8356375532048332
 20
153.0898843389580861
 30
0.0
 11
2527.963241135762928
 21
156.0124541251092012
 31
0.0
  0
LINE
  5
5B76
  8
0
 10
2527.963241135762928
 20
156.0124541251092012
 30
0.0
 11
2528.1138639922828588
 21
158.0818655424280905
 31
0.0
  0
ARC
  5
5B77
  8
0
 10
2525.4666356808911587
 20
156.1533752612035073
 30
0.0
 40
2.5005794456269261
 50
356.769362269909891
 51
59.7842592772757015
  0
ARC
  5
5B78
  8
0
 10
2529.3253409411281609
 20
163.537548486312005
 30
0.0
 40
5.8347744333888851
 50
196.4271566834526084
 51
243.5350339633691874
  0
ARC
  5
5B79
  8
0
 10
-13365.5713464245091018
 20
-8286.5476403814063815
 30
0.0
 40
17995.7193121427008009
 50
27.9998437489727614
 51
28.0004688711373788
  0
ARC
  5
5B7A
  8
0
 10
2523.4776343164890022
 20
161.9763503894598102
 30
0.0
 40
0.1799999959999939
 50
28.0001563100587205
 51
70.829610360794149
  0
ARC
  5
5B7B
  8
0
 10
2523.5893305875238184
 20
162.2975272822498027
 30
0.0
 40
0.1600450815684217
 50
174.2475123829966037
 51
250.8171928590693938
  0
ARC
  5
5B7C
  8
0
 10
2522.4549831455119602
 20
162.4120045986946934
 30
0.0
 40
0.9800642035264303
 50
354.2356006539072268
 51
25.1324821355158008
  0
ARC
  5
5B7D
  8
0
 10
2524.1932965998112195
 20
163.2274951509691903
 30
0.0
 40
0.9400291552074003
 50
141.2223751461272911
 51
205.1326464892790113
  0
ARC
  5
5B7E
  8
0
 10
2522.7120893171891112
 20
164.4174922516598087
 30
0.0
 40
0.9599887694999113
 50
321.2210749379999015
 51
346.0315743265978199
  0
ARC
  5
5B7F
  8
0
 10
2523.8378217531139853
 20
164.137441869171397
 30
0.0
 40
0.2000550826145026
 50
90.0121906980583191
 51
166.0225135802558896
  0
LINE
  5
5B80
  8
0
 10
2527.8401667530888517
 20
164.6574969472598013
 30
0.0
 11
2527.8213687625889179
 21
164.4379098143598128
 31
0.0
  0
ARC
  5
5B81
  8
0
 10
2527.7119411105568361
 20
164.4472774851161887
 30
0.0
 40
0.109827884822887
 50
271.814329038425285
 51
355.1070629368434766
  0
ARC
  5
5B82
  8
0
 10
2526.8456270202259475
 20
164.4474969473482133
 30
0.0
 40
0.1100000000897688
 50
185.0000014526625023
 51
270.000289533043599
  0
LINE
  5
5B83
  8
0
 10
2526.7360456035889911
 20
164.4379098128598002
 30
0.0
 11
2526.7202093541718568
 21
164.6189189191184994
 31
0.0
  0
ARC
  5
5B84
  8
0
 10
2526.6748429726071663
 20
164.6149498738672889
 30
0.0
 40
0.0455396738741104
 50
5.0000014526657939
 51
69.1130753623753122
  0
LINE
  5
5B85
  8
0
 10
2526.8034004135270152
 20
164.3459247380199884
 30
0.0
 11
2526.1204615495889811
 21
164.3575045663598075
 31
0.0
  0
ARC
  5
5B86
  8
0
 10
2526.1214245067421871
 20
164.4175072783569931
 30
0.0
 40
0.0600103323746853
 50
206.4893003939932044
 51
269.0805641093567147
  0
ARC
  5
5B87
  8
0
 10
2524.6765580004707772
 20
163.6974635105740958
 30
0.0
 40
1.5543323352354499
 50
26.4891935706953205
 51
38.1447306485033835
  0
ARC
  5
5B88
  8
0
 10
2523.6887419075887919
 20
164.7174970219597867
 30
0.0
 40
0.0600000333000011
 50
180.000065510600308
 51
269.9996842844170146
  0
LINE
  5
5B89
  8
0
 10
2523.6287418742890623
 20
164.7174969533571982
 30
0.0
 11
2523.6287418571378112
 21
164.7324969478599996
 31
0.0
  0
LINE
  5
5B8A
  8
0
 10
2523.6287418571378112
 20
164.7324969478599996
 30
0.0
 11
2523.7358297875730386
 21
165.1321118369718874
 31
0.0
  0
ARC
  5
5B8B
  8
0
 10
2524.2188420264769775
 20
165.0026752657927887
 30
0.0
 40
0.5000546459028973
 50
114.4931141326312058
 51
164.9984691642169139
  0
ARC
  5
5B8C
  8
0
 10
2526.1192153086308281
 20
160.8313582631598138
 30
0.0
 40
5.0838635585845999
 50
111.7396611404129061
 51
114.4931141326312058
  0
ARC
  5
5B8D
  8
0
 10
2524.3035535586491278
 20
165.6494797019462908
 30
0.0
 40
0.1171382905853131
 50
190.3652943631909125
 51
269.0617134303674902
  0
ARC
  5
5B8E
  8
0
 10
2524.5296939644931626
 20
165.6908426552130038
 30
0.0
 40
0.3470303893152346
 50
185.2807473120062127
 51
190.3652943631909125
  0
ARC
  5
5B8F
  8
0
 10
2523.6179947459331743
 20
165.6091260294633969
 30
0.0
 40
0.5683258307009187
 50
5.024741702003733
 51
9.9673593649245102
  0
ARC
  5
5B90
  8
0
 10
2523.9701140105889863
 20
165.7675225287597982
 30
0.0
 40
0.0600267733000002
 50
180.024418154699589
 51
269.8702134403096125
  0
LINE
  5
5B91
  8
0
 10
2523.9100872427397917
 20
165.7674969467186088
 30
0.0
 11
2523.9100808499179038
 21
165.7824973320369111
 31
0.0
  0
LINE
  5
5B92
  8
0
 10
2523.9100808499179038
 20
165.7824973320369111
 30
0.0
 11
2523.9313753903597899
 21
165.8619389448215031
 31
0.0
  0
ARC
  5
5B93
  8
0
 10
2524.0279670697459551
 20
165.836047282366394
 30
0.0
 40
0.100001653542754
 50
114.4898979916326027
 51
164.9944657618844985
  0
LINE
  5
5B94
  8
0
 10
2523.9865131045048656
 20
165.9270522244140977
 30
0.0
 11
2525.4170346922851422
 21
166.5786738928825059
 31
0.0
  0
ARC
  5
5B95
  8
0
 10
2525.4584089711920569
 20
166.487843888268003
 30
0.0
 40
0.0998094218661499
 50
90.3309661416835041
 51
114.4898979916326027
  0
ARC
  5
5B96
  8
0
 10
2525.7727486519761442
 20
132.4471550848521133
 30
0.0
 40
34.1419489425647811
 50
86.7596828651938949
 51
90.5284884669160306
  0
ARC
  5
5B97
  8
0
 10
2530.3773477972558794
 20
258.4841370795718944
 30
0.0
 40
91.9885132234324345
 50
268.3337710657178263
 51
272.941100202235873
  0
ARC
  5
5B98
  8
0
 10
2534.2040414838529614
 20
196.375811847918186
 30
0.0
 40
29.7724221952489998
 50
271.7191385432016091
 51
278.6101912907623728
  0
ARC
  5
5B99
  8
0
 10
2533.7393631630898199
 20
197.3326446737002868
 30
0.0
 40
30.7896624515762412
 50
279.1985973784471184
 51
281.7196679353447166
  0
ARC
  5
5B9A
  8
0
 10
2547.2065950163460002
 20
132.1541332189403022
 30
0.0
 40
35.765631020939793
 50
100.6266384170369008
 51
101.6350836421091941
  0
ARC
  5
5B9B
  8
0
 10
2540.9410918077601309
 20
165.7045859698932873
 30
0.0
 40
1.635423002259685
 50
93.1754557778651531
 51
101.640397086219707
  0
ARC
  5
5B9C
  8
0
 10
2540.8543867235148355
 20
166.8545231177787969
 30
0.0
 40
0.4829904444456699
 50
81.0629597048959454
 51
90.4611317986535113
  0
ARC
  5
5B9D
  8
0
 10
2540.3363338841759287
 20
165.4198116401609866
 30
0.0
 40
2.0017180690378149
 50
70.7460702654661162
 51
72.765215412974527
  0
ARC
  5
5B9E
  8
0
 10
2540.9512237733938491
 20
167.1801979560061113
 30
0.0
 40
0.1370332278710537
 50
5.919612286931458
 51
70.7460702654661162
  0
ARC
  5
5B9F
  8
0
 10
2461.1156254597140105
 20
164.2549216176138884
 30
0.0
 40
80.0259023458388441
 50
1.9649663755823079
 51
2.104988721646917
  0
ARC
  5
5BA0
  8
0
 10
2541.3475045199579654
 20
167.0416931578265007
 30
0.0
 40
0.2566295681498814
 50
189.6028871213640912
 51
204.4233432708250859
  0
LINE
  5
5BA1
  8
0
 10
2541.1138393769888353
 20
166.9355831384598048
 30
0.0
 11
2541.3945774456888103
 21
166.4693319367598008
 31
0.0
  0
ARC
  5
5BA2
  8
0
 10
2540.9188630830508373
 20
166.080717391473712
 30
0.0
 40
0.6142681984509482
 50
12.1001382443043592
 51
39.2456378275511568
  0
LINE
  5
5BA3
  8
0
 10
2541.5194839196888097
 20
166.2094808576597984
 30
0.0
 11
2541.7451685216888109
 21
164.3374969472598082
 31
0.0
  0
ARC
  5
5BA4
  8
0
 10
2524.3504294052058867
 20
162.9690019845523068
 30
0.0
 40
2.9803515245780048
 50
90.9742709464282626
 51
97.0136236682696307
  0
ARC
  5
5BA5
  8
0
 10
2525.6200587589141833
 20
88.3107229484838143
 30
0.0
 40
77.6494253592203734
 50
90.4756703983155859
 51
90.9742709464282626
  0
ARC
  5
5BA6
  8
0
 10
2531.1833521185390055
 20
-115.2892778694081954
 30
0.0
 40
281.3152554677807871
 50
90.7919244815046937
 51
91.2644789307487514
  0
ARC
  5
5BA7
  8
0
 10
2819.653781168759906
 20
-24398.7083618694596225
 30
0.0
 40
24566.4471699355417513
 50
90.6488646954250328
 51
90.6818774709515054
  0
ARC
  5
5BA8
  8
0
 10
2541.4483066422899356
 20
166.0767220994976867
 30
0.0
 40
0.0867616872731425
 50
10.8223756404128206
 51
89.5390364758407031
  0
ARC
  5
5BA9
  8
0
 10
2535.6874977659817887
 20
-455.7093640118339977
 30
0.0
 40
621.3460500679437928
 50
90.5967229151453637
 51
91.049975897159257
  0
ARC
  5
5BAA
  8
0
 10
2433.1272877743749632
 20
9391.4868194972368656
 30
0.0
 40
9226.3842099051162222
 50
270.5967236849591018
 51
270.6445744355299894
  0
ARC
  5
5BAB
  8
0
 10
2329.0179675222861988
 20
18645.3024850635410985
 30
0.0
 40
18480.7854937723714102
 50
270.6445744355299894
 51
270.6534580870414857
  0
ARC
  5
5BAC
  8
0
 10
2539.8257744402048957
 20
165.1954931011075018
 30
0.0
 40
0.5248781453138398
 50
46.5172168100161727
 51
94.2729349910332814
  0
ARC
  5
5BAD
  8
0
 10
2539.8328370693229772
 20
165.2040079436160056
 30
0.0
 40
0.5138404078769144
 50
34.9769873113541223
 51
46.4352757879279423
  0
ARC
  5
5BAE
  8
0
 10
2545.5324794958928578
 20
168.7049291730932907
 30
0.0
 40
6.1761232040266947
 50
211.2755693852720924
 51
218.7244308025636883
  0
ARC
  5
5BAF
  8
0
 10
2540.9188801336290453
 20
164.9846927477090901
 30
0.0
 40
0.2500000000608114
 50
215.0000126070189879
 51
279.4323754811044864
  0
LINE
  5
5BB0
  8
0
 10
2540.9598509854790791
 20
164.7380728188122987
 30
0.0
 11
2541.6824042895250386
 21
164.8581068236937028
 31
0.0
  0
ARC
  5
5BB1
  8
0
 10
2526.9731153320708472
 20
165.5317421272783065
 30
0.0
 40
0.0438316446339107
 50
0.6869020834858415
 51
89.9674254334219938
  0
ARC
  5
5BB2
  8
0
 10
2527.0766404000969487
 20
165.5374149809379958
 30
0.0
 40
0.0599180807529855
 50
184.9281820798902061
 51
270.0718212129511926
  0
ARC
  5
5BB3
  8
0
 10
2527.6013909914399846
 20
385668.6579681502771564
 30
0.0
 40
385503.1804715601028875
 50
269.999922019601172
 51
270.0000779827698238
  0
ARC
  5
5BB4
  8
0
 10
2528.126024252453135
 20
165.5375604419232047
 30
0.0
 40
0.0600635228432651
 50
270.0555010962817732
 51
354.9444956108774818
  0
ARC
  5
5BB5
  8
0
 10
1844.7700805372530795
 20
225.337659747598309
 30
0.0
 40
686.027553751663163
 50
354.9988136054262782
 51
355.0003953989382808
  0
ARC
  5
5BB6
  8
0
 10
2528.2837852220977766
 20
165.5346539404746125
 30
0.0
 40
0.0976807052899122
 50
144.322116162236
 51
170.2863580821158962
  0
ARC
  5
5BB7
  8
0
 10
2529.5863982235418916
 20
207.1739960578084947
 30
0.0
 40
41.7048937611966934
 50
268.0490534171411809
 51
268.5645898058169792
  0
ARC
  5
5BB8
  8
0
 10
2530.3344688844908887
 20
237.0277092148218117
 30
0.0
 40
71.5679779785878338
 50
268.5645898058169792
 51
271.2219923460741029
  0
ARC
  5
5BB9
  8
0
 10
2572.9200778598069519
 20
-2717.1785823794498356
 30
0.0
 40
2882.9469914977389635
 50
90.7150792407130524
 51
90.8160421664972688
  0
ARC
  5
5BBA
  8
0
 10
2544.7271943542709778
 20
-397.3711110589301256
 30
0.0
 40
562.9688498150825353
 50
90.4964502262381956
 51
90.7925181254467333
  0
ARC
  5
5BBB
  8
0
 10
2539.8256271600039327
 20
165.2061170836338988
 30
0.0
 40
0.371244638520253
 50
27.1569551619909895
 51
86.3433306571531745
  0
LINE
  5
5BBC
  8
0
 10
2540.1559456143891111
 20
165.3755641264598069
 30
0.0
 11
2540.6319128690370235
 21
164.6958129093999901
 31
0.0
  0
ARC
  5
5BBD
  8
0
 10
2536.9079273549050413
 20
165.6562953208722888
 30
0.0
 40
0.0330418480342049
 50
9.0037350214657632
 51
65.8909699116930057
  0
LINE
  5
5BBE
  8
0
 10
2536.9405620659390479
 20
165.6614663321097964
 30
0.0
 11
2536.9407925845889622
 21
165.6590107158598073
 31
0.0
  0
ARC
  5
5BBF
  8
0
 10
2536.9806403724128359
 20
165.6624969473089948
 30
0.0
 40
0.0400000000527993
 50
185.0000024941938932
 51
270.0007730282015928
  0
LINE
  5
5BC0
  8
0
 10
2536.980640912088802
 20
165.6224969472598048
 30
0.0
 11
2538.1784448937892193
 21
165.6224969472598048
 31
0.0
  0
ARC
  5
5BC1
  8
0
 10
2538.1784454331827874
 20
165.6624969472630937
 30
0.0
 40
0.0400000000069196
 50
269.9992273759651198
 51
354.9999975660073233
  0
LINE
  5
5BC2
  8
0
 10
2538.2182932209648243
 20
165.6590107158598073
 30
0.0
 11
2538.2196523792808875
 21
165.6745460898565057
 31
0.0
  0
ARC
  5
5BC3
  8
0
 10
2538.2501992620527744
 20
165.6707849534755042
 30
0.0
 40
0.0307775599093345
 50
95.5479094062615815
 51
172.9806897274048083
  0
ARC
  5
5BC4
  8
0
 10
2537.1373200061580064
 20
164.4763794513185928
 30
0.0
 40
0.1813055792078235
 50
87.3963832745764222
 51
174.9739623547839074
  0
ARC
  5
5BC5
  8
0
 10
2536.8537015770089056
 20
164.5013227286617052
 30
0.0
 40
0.1034075754549864
 50
267.7223848817473026
 51
354.9739623547807241
  0
LINE
  5
5BC6
  8
0
 10
2536.8495920137070243
 20
164.3979968454040943
 30
0.0
 11
2536.3815817885179058
 21
164.3974969472598104
 31
0.0
  0
ARC
  5
5BC7
  8
0
 10
2536.3815826714048853
 20
164.497499341176308
 30
0.0
 40
0.1000023939204388
 50
189.0898320513973943
 51
269.999494154695526
  0
ARC
  5
5BC8
  8
0
 10
2536.0586058691437756
 20
164.4860612766107977
 30
0.0
 40
0.2242726487184711
 50
358.8859116206692192
 51
49.8542998189493005
  0
LINE
  5
5BC9
  8
0
 10
2540.631024774368143
 20
164.6956648643227084
 30
0.0
 11
2540.6185344391888066
 21
164.3374969472598082
 31
0.0
  0
ARC
  5
5BCA
  8
0
 10
2538.0044675616782115
 20
180.4546270369442027
 30
0.0
 40
15.9763478789630202
 50
276.115445283411816
 51
280.3538018717757723
  0
ARC
  5
5BCB
  8
0
 10
2540.1242974200167737
 20
161.7720672326356066
 30
0.0
 40
2.828165148584759
 50
98.4960332633690143
 51
114.8887508675513942
  0
ARC
  5
5BCC
  8
0
 10
2549.313369237760071
 20
148.2621154228021112
 30
0.0
 40
0.0496186789183437
 50
269.835954230077391
 51
6.4258233927052633
  0
LINE
  5
5BCD
  8
0
 10
2549.3626761912391885
 20
148.2676685873250051
 30
0.0
 11
2549.2606117960890515
 21
149.2412846513597913
 31
0.0
  0
ARC
  5
5BCE
  8
0
 10
2549.0818158377760483
 20
149.2226322789113055
 30
0.0
 40
0.1797662529700593
 50
5.9556738173668142
 51
59.036845718331513
  0
ARC
  5
5BCF
  8
0
 10
2549.2720139636130625
 20
149.5396286929089911
 30
0.0
 40
0.1899120579644864
 50
187.4363960667176912
 51
239.0356016179453036
  0
LINE
  5
5BD0
  8
0
 10
2549.0836992279892002
 20
149.5150492277597891
 30
0.0
 11
2548.9557549259579901
 21
150.7318198451818034
 31
0.0
  0
ARC
  5
5BD1
  8
0
 10
2549.1021807367351357
 20
150.7488777641985962
 30
0.0
 40
0.1474160461517606
 50
111.2540789285475995
 51
186.644738216956199
  0
LINE
  5
5BD2
  8
0
 10
2549.0487417731887945
 20
150.8862668752597926
 30
0.0
 11
2549.3579442296631896
 21
150.8962407549385034
 31
0.0
  0
ARC
  5
5BD3
  8
0
 10
2549.3724106357872188
 20
151.0929471841731129
 30
0.0
 40
0.1972376642742448
 50
265.7938613371321139
 51
5.3784895008826981
  0
LINE
  5
5BD4
  8
0
 10
2549.5687799070888104
 20
151.1114351666597884
 30
0.0
 11
2548.9423405612888018
 21
157.0919537991597963
 31
0.0
  0
ARC
  5
5BD5
  8
0
 10
2544.1771371715608439
 20
156.3445546836368862
 30
0.0
 40
4.8234440548012669
 50
8.9139443470401964
 51
61.299414525067192
  0
LINE
  5
5BD6
  8
0
 10
2548.9423405612888018
 20
157.0919537991597963
 30
0.0
 11
2550.7548146536892091
 21
162.2991067629598092
 31
0.0
  0
ARC
  5
5BD7
  8
0
 10
2550.9352178724520854
 20
162.236313109217491
 30
0.0
 40
0.1910192772733739
 50
109.8059406197553045
 51
160.8083261923229088
  0
ARC
  5
5BD8
  8
0
 10
2550.845748820468998
 20
162.4847421392757099
 30
0.0
 40
0.0730293815722008
 50
289.8059406197552903
 51
358.1883045878655025
  0
LINE
  5
5BD9
  8
0
 10
2550.9187416966888122
 20
162.4824333313598004
 30
0.0
 11
2550.9187417409889349
 21
162.5424969472597923
 31
0.0
  0
ARC
  5
5BDA
  8
0
 10
2550.9663910776448574
 20
162.5453793661484951
 30
0.0
 40
0.0477364391461866
 50
99.2358833952789183
 51
183.4617361686312051
  0
ARC
  5
5BDB
  8
0
 10
2550.9791017922379979
 20
162.6424969230110094
 30
0.0
 40
0.0499999757512056
 50
269.9999835574577105
 51
0.0000277870876737
  0
LINE
  5
5BDC
  8
0
 10
2551.0291017679887773
 20
162.6424969472597866
 30
0.0
 11
2551.029098894577146
 21
162.9821530562946066
 31
0.0
  0
ARC
  5
5BDD
  8
0
 10
2550.9172530714431559
 20
163.0816665578167886
 30
0.0
 40
0.149707799187586
 50
266.148084881818022
 51
1.49275150987909
  0
LINE
  5
5BDE
  8
0
 10
2551.0669100640889155
 20
163.0855665180598066
 30
0.0
 11
2551.0198325249889422
 21
173.9474858359598102
 31
0.0
  0
ARC
  5
5BDF
  8
0
 10
2551.0223153486481351
 20
174.0675242990500919
 30
0.0
 40
0.1200641371701243
 50
268.8150878277006086
 51
358.9874790576893133
  0
LINE
  5
5BE0
  8
0
 10
2551.142360738689149
 20
174.0654026571598081
 30
0.0
 11
2551.1610271209501661
 21
175.135189949232398
 31
0.0
  0
LINE
  5
5BE1
  8
0
 10
2551.1610271209501661
 20
175.135189949232398
 30
0.0
 11
2551.1350732199889535
 21
176.6220885606597903
 31
0.0
  0
ARC
  5
5BE2
  8
0
 10
2550.9929560302239224
 20
176.6200433405250863
 30
0.0
 40
0.1421319054688713
 50
0.8244913473659661
 51
81.1863713167796845
  0
ARC
  5
5BE3
  8
0
 10
2536.8296153700448485
 20
149.6509606564135026
 30
0.0
 40
0.2543826887592295
 50
202.5741910936289969
 51
270.0
  0
ARC
  5
5BE4
  8
0
 10
2535.8992396766011552
 20
149.2719486037113938
 30
0.0
 40
0.7502398975710094
 50
22.0259449330519708
 51
68.2818462638152397
  0
ARC
  5
5BE5
  8
0
 10
2536.2693677876759466
 20
150.2011872151003899
 30
0.0
 40
0.2499996814868977
 50
180.0000333784153099
 51
248.2822583415164956
  0
LINE
  5
5BE6
  8
0
 10
2536.0193681061891766
 20
150.2011870694597917
 30
0.0
 11
2536.0193687304881678
 21
150.3618006020996063
 31
0.0
  0
ARC
  5
5BE7
  8
0
 10
2535.7225253531878479
 20
150.3523024419066019
 30
0.0
 40
0.2969952957440505
 50
1.832679874476133
 51
20.95329021183829
  0
ARC
  5
5BE8
  8
0
 10
2543.4342285063439704
 20
153.5737339293957007
 30
0.0
 40
8.0606539963830421
 50
181.7871436470308026
 51
202.7352074215766038
  0
LINE
  5
5BE9
  8
0
 10
2535.5754624340438568
 20
153.5259165422557999
 30
0.0
 11
2539.0384032092711095
 21
153.4813277755428089
 31
0.0
  0
ARC
  5
5BEA
  8
0
 10
2539.0975578974089331
 20
157.4232107004129944
 30
0.0
 40
3.9423267584654171
 50
269.1402434720218935
 51
326.5291743916985183
  0
LINE
  5
5BEB
  8
0
 10
2542.3861158139111467
 20
155.2489689704464126
 30
0.0
 11
2543.7318952678479036
 21
157.2081854085363943
 31
0.0
  0
ARC
  5
5BEC
  8
0
 10
2545.0449823092781116
 20
156.9090984780116003
 30
0.0
 40
1.3467184451040159
 50
167.1684332553028867
 51
334.4005755353833251
  0
LINE
  5
5BED
  8
0
 10
2546.2595026520780266
 20
156.3272128300455108
 30
0.0
 11
2546.3820363086888392
 21
155.5031402828649902
 31
0.0
  0
ARC
  5
5BEE
  8
0
 10
2542.3883201083672247
 20
155.089020851412613
 30
0.0
 40
4.015129386734376
 50
320.9999999884751105
 51
5.9200000160373687
  0
LINE
  5
5BEF
  8
0
 10
2545.5086616954858982
 20
152.5622180550093105
 30
0.0
 11
2544.8926370243380006
 21
151.801490940369689
 31
0.0
  0
ARC
  5
5BF0
  8
0
 10
2544.521617728667934
 20
152.0881423221557895
 30
0.0
 40
0.4688542763371111
 50
270.0183482964629889
 51
322.3101444691434949
  0
LINE
  5
5BF1
  8
0
 10
2544.521767873708086
 20
151.619288069859806
 30
0.0
 11
2540.4637417373191965
 21
151.6192907761598008
 31
0.0
  0
ARC
  5
5BF2
  8
0
 10
2540.4627047055591902
 20
149.2136998916604966
 30
0.0
 40
2.4055911080275241
 50
89.9753002308802508
 51
171.5525010622602053
  0
ARC
  5
5BF3
  8
0
 10
2535.5671709501420992
 20
153.3359358872509119
 30
0.0
 40
0.1901615049933882
 50
87.5009784847551657
 51
184.09678221229359
  0
ARC
  5
5BF4
  8
0
 10
2537.8954317557931972
 20
149.5857430986062013
 30
0.0
 40
0.1887046744287915
 50
270.793210402782222
 51
354.3267535865948048
  0
LINE
  5
5BF5
  8
0
 10
2537.8980441249891555
 20
149.3970565074598085
 30
0.0
 11
2536.8296153700448485
 21
149.3965779676543093
 31
0.0
  0
ARC
  5
5BF6
  8
0
 10
2217.0542892512498838
 20
379.8394222004758944
 30
0.0
 40
395.3263536222244738
 50
325.7255162397212871
 51
325.8371194515385127
  0
ARC
  5
5BF7
  8
0
 10
2544.9120445841867877
 20
157.2744987772030072
 30
0.0
 40
0.9399846934924738
 50
46.2429009138898977
 51
142.6382445581629952
  0
ARC
  5
5BF8
  8
0
 10
2544.0060481429900392
 20
156.3283105285597969
 30
0.0
 40
2.2499853626999431
 50
5.9199999988633554
 51
46.243019594602238
  0
ARC
  5
5BF9
  8
0
 10
2544.9016016310388295
 20
156.3542188892099034
 30
0.0
 40
1.358169543971496
 50
358.860646522027082
 51
8.7305888414021737
  0
ARC
  5
5BFA
  8
0
 10
2554.2772726002531272
 20
158.4596139661437917
 30
0.0
 40
5.2133528568844731
 50
132.4480490235496006
 51
135.5215027292668992
  0
LINE
  5
5BFB
  8
0
 10
2550.557475240434087
 20
162.1123055233751984
 30
0.0
 11
2546.572450841238151
 21
160.7401672971546134
 31
0.0
  0
LINE
  5
5BFC
  8
0
 10
2546.572450841238151
 20
160.7401672971546134
 30
0.0
 11
2546.4935115781099739
 21
160.5753964625837114
 31
0.0
  0
LINE
  5
5BFD
  8
0
 10
2546.4935115781099739
 20
160.5753964625837114
 30
0.0
 11
2544.5764075201891501
 21
160.1050779977597927
 31
0.0
  0
ARC
  5
5BFE
  8
0
 10
2545.0721133136839853
 20
156.6502743069910082
 30
0.0
 40
3.4901852064689192
 50
98.1652442416644533
 51
111.6034669376828958
  0
ARC
  5
5BFF
  8
0
 10
2521.5090046639470529
 20
204.2853281079183034
 30
0.0
 40
49.6667783096581488
 50
293.3840997734164944
 51
296.6507637505462185
  0
ARC
  5
5C00
  8
0
 10
2425.227336526299041
 20
235.0277088213352101
 30
0.0
 40
138.8555320414614016
 50
325.7424089231537891
 51
326.6531299563321795
  0
ARC
  5
5C01
  8
0
 10
2539.5787487545590011
 20
157.3291000313712971
 30
0.0
 40
0.6232497975653138
 50
276.9499518235742244
 51
311.7231058745001064
  0
ARC
  5
5C02
  8
0
 10
2539.0348396968779525
 20
159.7508553839815022
 30
0.0
 40
3.1028615844551699
 50
272.7632849479966239
 51
281.5134286342465089
  0
ARC
  5
5C03
  8
0
 10
2539.4986575001280471
 20
178.086785199038701
 30
0.0
 40
21.4374866070275303
 50
267.3037725516688852
 51
269.1601310146252217
  0
ARC
  5
5C04
  8
0
 10
2538.4943972927690083
 20
156.7108394946693011
 30
0.0
 40
0.0380387297268778
 50
168.1023140442671036
 51
263.7006186182896954
  0
ARC
  5
5C05
  8
0
 10
2540.2201955367959272
 20
156.3472295582863865
 30
0.0
 40
1.8017257101527451
 50
146.8901264229459116
 51
168.1023140442671036
  0
ARC
  5
5C06
  8
0
 10
2534.8171572773771913
 20
168.0194482243950915
 30
0.0
 40
11.3752474030608806
 50
290.0177148672987073
 51
301.4121532287484229
  0
ARC
  5
5C07
  8
0
 10
2542.461029771045105
 20
156.6871303564059872
 30
0.0
 40
2.362205030033429
 50
121.6528975275660969
 51
136.5605238405937882
  0
LINE
  5
5C08
  8
0
 10
2538.7187729613688134
 20
157.33424122896119
 30
0.0
 11
2538.5846261836768463
 21
157.4764753257844916
 31
0.0
  0
LINE
  5
5C09
  8
0
 10
2538.5846261836768463
 20
157.4764753257844916
 30
0.0
 11
2535.1433878676889435
 21
156.3057546574598007
 31
0.0
  0
LINE
  5
5C0A
  8
0
 10
2535.1433878676889435
 20
156.3057546574598007
 30
0.0
 11
2535.3774953464489954
 21
153.3223504779817006
 31
0.0
  0
ARC
  5
5C0B
  8
0
 10
2536.4609916742988389
 20
149.5686614761796989
 30
0.0
 40
0.241899815953606
 50
196.418578353957713
 51
271.746687703398095
  0
ARC
  5
5C0C
  8
0
 10
2535.5342015236701627
 20
149.3238345862909
 30
0.0
 40
0.7168120342448291
 50
14.2506316099649197
 51
64.1521238035426506
  0
ARC
  5
5C0D
  8
0
 10
2535.9916825749110103
 20
150.188801452100904
 30
0.0
 40
0.2633560507900834
 50
177.3035459815882007
 51
236.6024557738597878
  0
LINE
  5
5C0E
  8
0
 10
2535.7286181149888762
 20
150.20119094013981
 30
0.0
 11
2535.7285958498368927
 21
150.3652465509291005
 31
0.0
  0
ARC
  5
5C0F
  8
0
 10
2535.4668385828449573
 20
150.3617139517438943
 30
0.0
 40
0.2617811033675788
 50
0.7732000701446404
 51
21.7840150776372106
  0
ARC
  5
5C10
  8
0
 10
2544.3854968537348213
 20
153.5685761620038932
 30
0.0
 40
9.2160647099389656
 50
182.9623616283346053
 51
199.7199517517036043
  0
ARC
  5
5C11
  8
0
 10
28156.5636856716882903
 20
1349.5347245236000617
 30
0.0
 40
25649.3018796916694555
 50
182.666292906747799
 51
182.6736004855166868
  0
LINE
  5
5C12
  8
0
 10
2535.1433878676889435
 20
156.3057546574598007
 30
0.0
 11
2535.0293601298581052
 21
156.3600849019713905
 31
0.0
  0
LINE
  5
5C13
  8
0
 10
2535.0293601298581052
 20
156.3600849019713905
 30
0.0
 11
2531.3079986496891252
 21
156.0608895699598122
 31
0.0
  0
ARC
  5
5C14
  8
0
 10
2531.20409041544508
 20
158.6352775488215059
 30
0.0
 40
2.576484113448303
 50
256.959944450202272
 51
272.3113351609292749
  0
ARC
  5
5C15
  8
0
 10
2530.7684234825128442
 20
156.6865870509988099
 30
0.0
 40
0.5799455401876356
 50
195.0964527912562971
 51
255.4526423157493014
  0
LINE
  5
5C16
  8
0
 10
2530.2084925837980336
 20
156.5355432883094124
 30
0.0
 11
2530.1061015816439976
 21
157.7047138481347872
 31
0.0
  0
ARC
  5
5C17
  8
0
 10
2531.0275712213979205
 20
153.8361835497917127
 30
0.0
 40
3.976761521835241
 50
95.1981747548513937
 51
103.3979629869604935
  0
ARC
  5
5C18
  8
0
 10
2642.8846594749979886
 20
-693.0338121598317684
 30
0.0
 40
858.1987617398117436
 50
97.1860434609699126
 51
97.5134659537765174
  0
ARC
  5
5C19
  8
0
 10
2535.2710050716800652
 20
170.1603625193172888
 30
0.0
 40
11.7392759601186807
 50
271.270205743144686
 51
286.3518796446617785
  0
ARC
  5
5C1A
  8
0
 10
2537.3251025635458973
 20
162.6730433492274983
 30
0.0
 40
3.9788685256184748
 50
288.3241586305031205
 51
318.5728200184714183
  0
ARC
  5
5C1B
  8
0
 10
2536.3680576823758201
 20
162.2239165182602108
 30
0.0
 40
4.504954177964831
 50
331.0070299525416999
 51
359.2068673536018082
  0
LINE
  5
5C1C
  8
0
 10
2550.9791017778889
 20
162.5924969472598036
 30
0.0
 11
2546.9187417077050668
 21
162.5924969472598036
 31
0.0
  0
ARC
  5
5C1D
  8
0
 10
2546.9187411504908596
 20
162.7425268241206879
 30
0.0
 40
0.150029876861955
 50
179.9884420494479116
 51
270.0002127977140276
  0
LINE
  5
5C1E
  8
0
 10
2546.7687112766811879
 20
162.7425570887911874
 30
0.0
 11
2546.7687495518198375
 21
162.932296943399308
 31
0.0
  0
LINE
  5
5C1F
  8
0
 10
2550.9071960052888244
 20
162.9322969472598004
 30
0.0
 11
2545.1243336796537733
 21
162.9322577813547923
 31
0.0
  0
ARC
  5
5C20
  8
0
 10
2545.5400679739827865
 20
151.5513588913686931
 30
0.0
 40
11.3884895639223593
 50
92.092034583065157
 51
106.0738810997063979
  0
ARC
  5
5C21
  8
0
 10
2537.6992645981781607
 20
180.2478154788234121
 30
0.0
 40
18.36163071637122
 50
270.6849866301820953
 51
284.7909501332076729
  0
LINE
  5
5C22
  8
0
 10
2526.1714304032661857
 20
148.2124969472598082
 30
0.0
 11
2549.3132271727890839
 21
148.2124969472598082
 31
0.0
  0
LINE
  5
5C23
  8
0
 10
2526.3184966029348288
 20
148.9231071682978893
 30
0.0
 11
2549.2939664145669667
 21
148.9231071682978893
 31
0.0
  0
LINE
  5
5C24
  8
0
 10
2527.0912420614490657
 20
149.9689330023105924
 30
0.0
 11
2536.1768592940929921
 21
149.9689330023105924
 31
0.0
  0
LINE
  5
5C25
  8
0
 10
2523.8377791878328935
 20
164.337496947257705
 30
0.0
 11
2544.5692472554210326
 21
164.337496947257705
 31
0.0
  0
LINE
  5
5C26
  8
0
 10
2523.6887417236889632
 20
164.6574969472598013
 30
0.0
 11
2540.3907559933709308
 21
164.6574969472598013
 31
0.0
  0
LINE
  5
5C27
  8
0
 10
2544.4517520424860777
 20
173.9474969472597934
 30
0.0
 11
2551.0252871926240914
 21
173.9474969472597934
 31
0.0
  0
LINE
  5
5C28
  8
0
 10
2544.4605189116500696
 20
176.3198601757061965
 30
0.0
 11
2551.140348633866779
 21
176.3198601757061965
 31
0.0
  0
LINE
  5
5C29
  8
0
 10
2544.9167311180322031
 20
176.76049694725981
 30
0.0
 11
2551.0147336083127811
 21
176.76049694725981
 31
0.0
  0
LINE
  5
5C2A
  8
0
 10
2523.7287417409888803
 20
161.8874969472597911
 30
0.0
 11
2537.9187776590829344
 21
161.8874969472597911
 31
0.0
  0
LINE
  5
5C2B
  8
0
 10
2536.829615370051215
 20
149.3965779676543093
 30
0.0
 11
2536.4683649571888964
 21
149.3268740578598113
 31
0.0
  0
LINE
  5
5C2C
  8
0
 10
2550.916160199488786
 20
163.1864425107598038
 30
0.0
 11
2545.1332978738541897
 21
163.1864033448547957
 31
0.0
  0
ARC
  5
5C2D
  8
0
 10
2545.5490321681832029
 20
151.8055044548686112
 30
0.0
 40
11.3884895639223593
 50
92.092034583065157
 51
106.0738810997063979
  0
ARC
  5
5C2E
  8
0
 10
2537.7082287923781223
 20
180.5019610423235008
 30
0.0
 40
18.36163071637122
 50
270.6849866301820953
 51
284.7909501332076729
  0
LINE
  5
5C2F
  8
0
 10
2523.5367426318889557
 20
162.1463692127597938
 30
0.0
 11
2537.927741853282896
 21
162.1416425107597945
 31
0.0
  0
ARC
  5
5C30
  8
0
 10
2550.9247846937478243
 20
163.3282118913695911
 30
0.0
 40
0.1419965235381557
 50
266.7433688596927936
 51
353.7079146730333719
  0
ARC
  5
5C31
  8
0
 10
2541.6287675022649637
 20
149.0521711144874928
 30
0.0
 40
2.5989840530919688
 50
162.672971959964201
 51
173.9328970895161888
  0
ARC
  5
5C32
  8
0
 10
2539.767699560858091
 20
149.5457234775396955
 30
0.0
 40
0.680473634794743
 50
21.1132360632119713
 51
155.6569426962080058
  0
ARC
  5
5C33
  8
0
 10
2537.6505096294731629
 20
149.0176149475277043
 30
0.0
 40
2.8585465503288932
 50
6.2105902593572688
 51
15.6937445343133799
  0
LINE
  5
5C34
  8
0
 10
2530.1061026116890389
 20
157.7047139946598122
 30
0.0
 11
2529.9684097575891428
 21
157.6897951925598136
 31
0.0
  0
LINE
  5
5C35
  8
0
 10
2529.9684097575891428
 20
157.6897951925598136
 30
0.0
 11
2528.3165548825891165
 21
158.154893253359802
 31
0.0
  0
ARC
  5
5C36
  8
0
 10
2528.2394760911511185
 20
158.0510264768805087
 30
0.0
 40
0.1293423648529987
 50
53.4211544373427074
 51
166.2061195340990025
  0
ARC
  5
5C37
  8
0
 10
2544.4518062314868985
 20
174.0673559924724998
 30
0.0
 40
0.1198590574623305
 50
185.9910453742793095
 51
269.974096232877173
  0
ARC
  5
5C38
  8
0
 10
2543.2811856581188295
 20
173.9445037839550992
 30
0.0
 40
1.057190300861321
 50
5.9910453742792722
 51
39.3114942861570924
  0
ARC
  5
5C39
  8
0
 10
2544.7370216993817849
 20
175.1365795753374925
 30
0.0
 40
0.8244322094850002
 50
180.129146833178595
 51
219.3114942861571137
  0
ARC
  5
5C3A
  8
0
 10
2544.7282122719720974
 20
175.1365597185244951
 30
0.0
 40
0.8156227596960746
 50
140.4675585924215113
 51
180.129146833178595
  0
ARC
  5
5C3B
  8
0
 10
2543.2946955042839363
 20
176.3196236121023048
 30
0.0
 40
1.0430354927888339
 50
320.4675585924214829
 51
352.8389997764033978
  0
ARC
  5
5C3C
  8
0
 10
2544.4784646657399207
 20
176.1708973401784988
 30
0.0
 40
0.1500399162166029
 50
96.8693949940622332
 51
172.8389997764033978
  0
ARC
  5
5C3D
  8
0
 10
2544.4274108433910442
 20
176.4763974678716068
 30
0.0
 40
0.1600002125696623
 50
281.9422188642923857
 51
353.7785201913072797
  0
ARC
  5
5C3E
  8
0
 10
2544.7455353977002233
 20
176.4417159230227128
 30
0.0
 40
0.1600092273056494
 50
133.3097682901610881
 51
173.7779920531584992
  0
LINE
  5
5C3F
  8
0
 10
2544.6357782810869139
 20
176.5581475689598108
 30
0.0
 11
2544.782380829486101
 21
176.7048472356597983
 31
0.0
  0
ARC
  5
5C40
  8
0
 10
2544.9167311180322031
 20
176.5704969470316996
 30
0.0
 40
0.190000000228106
 50
90.0000000136789424
 51
134.9999999823592134
  0
ARC
  5
5C41
  8
0
 10
2550.9293024975700064
 20
164.4311060047419062
 30
0.0
 40
0.1352084488660619
 50
262.3767478531473785
 51
347.8455198881708839
  0
LINE
  5
5C42
  8
0
 10
2550.911365928503983
 20
164.2970925571520127
 30
0.0
 11
2544.7801125675791809
 21
164.296439003085311
 31
0.0
  0
ARC
  5
5C43
  8
0
 10
2544.76398351687385
 20
164.4322362230984993
 30
0.0
 40
0.1369922943871373
 50
192.2417526670749055
 51
276.7567925868622183
  0
LINE
  5
5C44
  8
0
 10
2544.6301062028878732
 20
164.4031887873885012
 30
0.0
 11
2544.7067344670649618
 21
173.9474969472597934
 31
0.0
  0
LINE
  5
5C45
  8
0
 10
2543.1125449247888355
 20
164.3375139437598023
 30
0.0
 11
2543.1197745057888824
 21
164.4739578305598116
 31
0.0
  0
ARC
  5
5C46
  8
0
 10
2543.3108288297758008
 20
164.4527470905426867
 30
0.0
 40
0.1922281202275698
 50
127.3799619257825952
 51
173.6649978180506935
  0
ARC
  5
5C47
  8
0
 10
2542.9832259042132137
 20
164.9172551246321916
 30
0.0
 40
0.3763944518050986
 50
304.077983038242678
 51
314.1733391849581949
  0
ARC
  5
5C48
  8
0
 10
2543.1972759846330518
 20
164.6969375735345125
 30
0.0
 40
0.0692181827845061
 50
314.1733391849571149
 51
69.6701912199063003
  0
ARC
  5
5C49
  8
0
 10
2540.8336968122512189
 20
155.3055338777618033
 30
0.0
 40
9.7530797958393052
 50
75.8295414235957566
 51
84.3387200709298241
  0
ARC
  5
5C4A
  8
0
 10
2541.818741334346214
 20
164.8774977021980135
 30
0.0
 40
0.1354991877421534
 50
99.7427274597618663
 51
159.0682167296043872
  0
ARC
  5
5C4B
  8
0
 10
2541.7840817351930127
 20
164.9068960956668093
 30
0.0
 40
0.0938430357151164
 50
168.3128739147335864
 51
177.7541337896113873
  0
LINE
  5
5C4C
  8
0
 10
2541.6903107834891671
 20
164.9105735905598067
 30
0.0
 11
2541.7577775752888556
 21
164.3611001037598101
 31
0.0
  0
ARC
  5
5C4D
  8
0
 10
2541.8188092667028286
 20
164.4282045565695114
 30
0.0
 40
0.090707634478138
 50
227.7133908790555097
 51
269.9573180979938911
  0
ARC
  5
5C4E
  8
0
 10
2541.7203080845979457
 20
164.7864299900660967
 30
0.0
 40
0.0300386619653197
 50
201.031805029015203
 51
247.9556761182431046
  0
ARC
  5
5C4F
  8
0
 10
2551.4328056023100544
 20
171.1537572389449053
 30
0.0
 40
0.4008609618762497
 50
144.786001792557812
 51
180.1942050097854064
  0
ARC
  5
5C50
  8
0
 10
2550.8602582055509629
 20
171.5579776090073949
 30
0.0
 40
0.2999989689383388
 50
324.7667960439064814
 51
0.0001136088318674
  0
LINE
  5
5C51
  8
0
 10
2551.1602571744888337
 20
171.5579782038597898
 30
0.0
 11
2551.1590430457049479
 21
171.8368887546452015
 31
0.0
  0
ARC
  5
5C52
  8
0
 10
2550.8590468735051218
 20
171.8355800775262878
 30
0.0
 40
0.2999990266167427
 50
0.2499405225342828
 51
35.7329500810664626
  0
ARC
  5
5C53
  8
0
 10
2551.4277438332610473
 20
172.2446285588067099
 30
0.0
 40
0.4005271304976244
 50
180.2841225107659113
 51
215.7215856574171085
  0
LINE
  5
5C54
  8
0
 10
2544.6924835473928397
 20
172.1724969472597877
 30
0.0
 11
2544.6172763784888957
 21
172.1724969472597877
 31
0.0
  0
ARC
  5
5C55
  8
0
 10
2544.6172763784888957
 20
172.2174969472598036
 30
0.0
 40
0.0450000000000017
 50
209.1974860361036974
 51
270.0
  0
LINE
  5
5C56
  8
0
 10
2544.5779939217891297
 20
172.1955449861717113
 30
0.0
 11
2544.4167557730420413
 21
172.4840764103630875
 31
0.0
  0
ARC
  5
5C57
  8
0
 10
2544.5258737085309804
 20
172.5450540801701891
 30
0.0
 40
0.1250000002418406
 50
180.0000000506153128
 51
209.1974860361050901
  0
LINE
  5
5C58
  8
0
 10
2544.4008737082890548
 20
172.5450540800597992
 30
0.0
 11
2544.4008737076837861
 21
173.2299391613597948
 31
0.0
  0
ARC
  5
5C59
  8
0
 10
2544.5258762102480432
 20
173.2299391614702131
 30
0.0
 40
0.1250025025636177
 50
150.8028121795875052
 51
180.0000000506153128
  0
LINE
  5
5C5A
  8
0
 10
2544.4167557729888358
 20
173.2909174840092135
 30
0.0
 11
2544.5779924200519417
 21
173.5794497475579874
 31
0.0
  0
ARC
  5
5C5B
  8
0
 10
2544.6172732124059621
 20
173.5574989848416863
 30
0.0
 40
0.0449979625294589
 50
89.995968635059242
 51
150.8028121795861125
  0
LINE
  5
5C5C
  8
0
 10
2544.6172763784888957
 20
173.6024969472597945
 30
0.0
 11
2544.7039645700019719
 21
173.6024969472597945
 31
0.0
  0
LINE
  5
5C5D
  8
0
 10
2544.4008737044450754
 20
172.6587361369624034
 30
0.0
 11
2543.8870010878890753
 21
172.667639425659786
 31
0.0
  0
ARC
  5
5C5E
  8
0
 10
2543.8878671374309306
 20
172.7176253532520036
 30
0.0
 40
0.0499934295588867
 50
179.9925997269947118
 51
269.0074002481297271
  0
LINE
  5
5C5F
  8
0
 10
2543.8378737082889529
 20
172.7176318103597907
 30
0.0
 11
2543.8379175875561486
 21
173.0573620812261026
 31
0.0
  0
ARC
  5
5C60
  8
0
 10
2543.8879249687079209
 20
173.0573556223162939
 30
0.0
 40
0.0500073815696675
 50
91.0585933870717383
 51
179.9925997270011919
  0
LINE
  5
5C61
  8
0
 10
2543.8870010878890753
 20
173.1073544688597963
 30
0.0
 11
2544.4008721958912247
 21
173.1162577343976068
 31
0.0
  0
LINE
  5
5C62
  8
0
 10
2544.5779939217891297
 20
173.579448908259792
 30
0.0
 11
2544.5779939217891297
 21
172.1955449861717113
 31
0.0
  0
ARC
  5
5C63
  8
0
 10
2547.9853440250890344
 20
162.4421004812602121
 30
0.0
 40
14.4088748160985993
 50
83.575749726876424
 51
96.4242502731235902
  0
LINE
  5
5C65
  8
0
 10
2523.9699780378909963
 20
165.7074959094626934
 30
0.0
 11
2524.1777425610698629
 21
165.7074959094626934
 31
0.0
  0
ARC
  5
5C66
  8
0
 10
2544.5620964868380725
 20
164.4051583632565894
 30
0.0
 40
0.0680382297411776
 50
276.0328862162107271
 51
358.3411656646766232
  0
ARC
  5
5C67
  8
0
 10
2544.2624820387950422
 20
164.707553815385296
 30
0.0
 40
0.3700590969684173
 50
270.1988574318748988
 51
359.3014292372326963
  0
LINE
  5
5C68
  8
0
 10
2536.4683655126891608
 20
149.3268739276597898
 30
0.0
 11
2545.6671347177120879
 21
149.3268452815686089
 31
0.0
  0
LINE
  5
5C69
  8
0
 10
2545.6671347177120879
 20
149.3268452815686089
 30
0.0
 11
2548.7228952804989603
 21
149.3794384254576073
 31
0.0
  0
LINE
  5
5C6A
  8
0
 10
2548.7228952804989603
 20
149.3794384254576073
 30
0.0
 11
2549.1079789322920988
 21
149.3855517290330113
 31
0.0
  0
LINE
  5
5C6B
  8
0
 10
2549.1079789322920988
 20
149.3855517290330113
 30
0.0
 11
2549.1743031916021209
 21
149.3767815412813889
 31
0.0
  0
LINE
  5
5C6C
  8
0
 10
2539.964337221183996
 20
165.5504746021481992
 30
0.0
 11
2540.1869622903891468
 21
165.5763348061597924
 31
0.0
  0
ENDSEC
  0
EOF
