  0
SECTION
  2
HEADER
  9
$ACADVER
  1
AC1009
  9
$INSBASE
 10
2520.5681645056788511
 20
176.0392002967438998
 30
0.0
  9
$EXTMIN
 10
2511.7147257168030592
 20
147.521429983760811
 30
0.0
  9
$EXTMAX
 10
2529.4216053662321428
 20
176.0436603465151961
 30
0.0
  9
$LIMMIN
 10
0.0
 20
0.0
  9
$LIMMAX
 10
11.6929133858000007
 20
8.2677165353999982
  9
$ORTHOMODE
 70
     0
  9
$REGENMODE
 70
     1
  9
$FILLMODE
 70
     1
  9
$QTEXTMODE
 70
     0
  9
$MIRRTEXT
 70
     0
  9
$DRAGMODE
 70
     2
  9
$LTSCALE
 40
0.6431102362
  9
$OSMODE
 70
  2047
  9
$ATTMODE
 70
     1
  9
$TEXTSIZE
 40
0.2
  9
$TRACEWID
 40
0.05
  9
$TEXTSTYLE
  7
STANDARD
  9
$CLAYER
  8
0
  9
$CELTYPE
  6
BYLAYER
  9
$CECOLOR
 62
   256
  9
$DIMSCALE
 40
1.0
  9
$DIMASZ
 40
0.1875
  9
$DIMEXO
 40
0.0625
  9
$DIMDLI
 40
0.4443307087
  9
$DIMRND
 40
0.0
  9
$DIMDLE
 40
0.0
  9
$DIMEXE
 40
0.125
  9
$DIMTP
 40
0.01
  9
$DIMTM
 40
0.01
  9
$DIMTXT
 40
2.0
  9
$DIMCEN
 40
0.1052362205
  9
$DIMTSZ
 40
0.0
  9
$DIMTOL
 70
     1
  9
$DIMLIM
 70
     0
  9
$DIMTIH
 70
     1
  9
$DIMTOH
 70
     1
  9
$DIMSE1
 70
     0
  9
$DIMSE2
 70
     0
  9
$DIMTAD
 70
     0
  9
$DIMZIN
 70
     0
  9
$DIMBLK
  1

  9
$DIMASO
 70
     1
  9
$DIMSHO
 70
     1
  9
$DIMPOST
  1
\X
  9
$DIMAPOST
  1

  9
$DIMALT
 70
     1
  9
$DIMALTD
 70
     2
  9
$DIMALTF
 40
25.3999999999999986
  9
$DIMLFAC
 40
1.0
  9
$DIMTOFL
 70
     0
  9
$DIMTVP
 40
0.0
  9
$DIMTIX
 70
     0
  9
$DIMSOXD
 70
     0
  9
$DIMSAH
 70
     0
  9
$DIMBLK1
  1

  9
$DIMBLK2
  1

  9
$DIMSTYLE
  2
STANDARD
  9
$DIMCLRD
 70
     0
  9
$DIMCLRE
 70
     0
  9
$DIMCLRT
 70
     0
  9
$DIMTFAC
 40
1.0
  9
$DIMGAP
 40
0.09
  9
$LUNITS
 70
     2
  9
$LUPREC
 70
     4
  9
$SKETCHINC
 40
0.1
  9
$FILLETRAD
 40
0.0
  9
$AUNITS
 70
     0
  9
$AUPREC
 70
     0
  9
$MENU
  1
.
  9
$ELEVATION
 40
0.0
  9
$PELEVATION
 40
0.0
  9
$THICKNESS
 40
0.0
  9
$LIMCHECK
 70
     0
  9
$BLIPMODE
 70
     0
  9
$CHAMFERA
 40
0.0
  9
$CHAMFERB
 40
0.0
  9
$SKPOLY
 70
     0
  9
$TDCREATE
 40
2458060.468368056230247
  9
$TDUPDATE
 40
2459029.6438078698702157
  9
$TDINDWG
 40
0.2803890046
  9
$TDUSRTIMER
 40
0.2803890046
  9
$USRTIMER
 70
     1
  9
$ANGBASE
 50
0.0
  9
$ANGDIR
 70
     0
  9
$PDMODE
 70
     0
  9
$PDSIZE
 40
0.3125
  9
$PLINEWID
 40
0.0
  9
$COORDS
 70
     1
  9
$SPLFRAME
 70
     0
  9
$SPLINETYPE
 70
     6
  9
$SPLINESEGS
 70
     8
  9
$ATTDIA
 70
     1
  9
$ATTREQ
 70
     1
  9
$HANDLING
 70
     1
  9
$HANDSEED
  5
5CF0
  9
$SURFTAB1
 70
     6
  9
$SURFTAB2
 70
     6
  9
$SURFTYPE
 70
     6
  9
$SURFU
 70
     6
  9
$SURFV
 70
     6
  9
$UCSNAME
  2

  9
$UCSORG
 10
0.0
 20
0.0
 30
0.0
  9
$UCSXDIR
 10
1.0
 20
0.0
 30
0.0
  9
$UCSYDIR
 10
0.0
 20
1.0
 30
0.0
  9
$PUCSNAME
  2

  9
$PUCSORG
 10
0.0
 20
0.0
 30
0.0
  9
$PUCSXDIR
 10
1.0
 20
0.0
 30
0.0
  9
$PUCSYDIR
 10
0.0
 20
1.0
 30
0.0
  9
$USERI1
 70
     0
  9
$USERI2
 70
     0
  9
$USERI3
 70
     0
  9
$USERI4
 70
     0
  9
$USERI5
 70
     0
  9
$USERR1
 40
0.0
  9
$USERR2
 40
0.0
  9
$USERR3
 40
0.0
  9
$USERR4
 40
0.0
  9
$USERR5
 40
0.0
  9
$WORLDVIEW
 70
     1
  9
$SHADEDGE
 70
     3
  9
$SHADEDIF
 70
    70
  9
$TILEMODE
 70
     1
  9
$MAXACTVP
 70
    64
  9
$PLIMCHECK
 70
     0
  9
$PEXTMIN
 10
1.0000000000000000E+20
 20
1.0000000000000000E+20
 30
1.0000000000000000E+20
  9
$PEXTMAX
 10
-1.0000000000000000E+20
 20
-1.0000000000000000E+20
 30
-1.0000000000000000E+20
  9
$PLIMMIN
 10
0.0
 20
0.0
  9
$PLIMMAX
 10
12.0
 20
9.0
  9
$UNITMODE
 70
     0
  9
$VISRETAIN
 70
     1
  9
$PLINEGEN
 70
     0
  9
$PSLTSCALE
 70
     1
  0
ENDSEC
  0
SECTION
  2
TABLES
  0
TABLE
  2
VPORT
 70
     1
  0
VPORT
  2
*ACTIVE
 70
     0
 10
0.0
 20
0.0
 11
1.0
 21
1.0
 12
0.0
 22
0.2106463224576913
 13
0.0
 23
0.0
 14
1.0
 24
1.0
 15
0.0
 25
0.0
 16
0.0
 26
0.0
 36
115.6157647388705954
 17
2520.5682373046879547
 27
161.7825418431793878
 37
0.0
 40
34.0415832641419485
 41
2.6486111111111108
 42
50.0
 43
0.0
 44
0.0
 50
0.0
 51
0.0
 71
     0
 72
   100
 73
     1
 74
     1
 75
     0
 76
     0
 77
     0
 78
     0
  0
ENDTAB
  0
TABLE
  2
LTYPE
 70
     2
  0
LTYPE
  2
CONTINUOUS
 70
     0
  3
Solid line
 72
    65
 73
     0
 40
0.0
  0
LTYPE
  2
PHANTOM2
 70
     0
  3
___ _ _ ___ _ _ ___ _ _ ___ _ _
 72
    65
 73
     6
 40
1.25
 49
0.625
 49
-0.125
 49
0.125
 49
-0.125
 49
0.125
 49
-0.125
  0
ENDTAB
  0
TABLE
  2
LAYER
 70
     2
  0
LAYER
  2
0
 70
     0
 62
   255
  6
CONTINUOUS
  0
LAYER
  2
DEFPOINTS
 70
     0
 62
     7
  6
CONTINUOUS
  0
ENDTAB
  0
TABLE
  2
STYLE
 70
     1
  0
STYLE
  2
STANDARD
 70
     0
 40
0.0
 41
0.8
 50
0.0
 71
     0
 42
0.2
  3
txt
  4

  0
ENDTAB
  0
TABLE
  2
VIEW
 70
     0
  0
ENDTAB
  0
TABLE
  2
UCS
 70
     0
  0
ENDTAB
  0
TABLE
  2
APPID
 70
     9
  0
APPID
  2
ACAD
 70
     0
  0
APPID
  2
ACAD_MLEADERVER
 70
     0
  0
APPID
  2
ACAD_EXEMPT_FROM_CAD_STANDARDS
 70
     0
  0
APPID
  2
ACAD_NAV_VCDISPLAY
 70
     0
  0
APPID
  2
ACAECLAYERSTANDARD
 70
     0
  0
APPID
  2
ACCMTRANSPARENCY
 70
     0
  0
APPID
  2
ACAD_DSTYLE_DIMJAG
 70
     0
  0
APPID
  2
ACAD_DSTYLE_DIMTALN
 70
     0
  0
APPID
  2
ACDBATTR
 70
     0
  0
ENDTAB
  0
TABLE
  2
DIMSTYLE
 70
     1
  0
DIMSTYLE
  2
STANDARD
 70
     0
  3

  4

  5

  6

  7

 40
1.0
 41
0.1875
 42
0.0625
 43
0.38
 44
0.125
 45
0.0
 46
0.0
 47
0.01
 48
0.01
140
0.15625
141
0.09
142
0.0
143
25.3999999999999986
144
1.0
145
0.0
146
1.0
147
0.09
 71
     1
 72
     0
 73
     1
 74
     1
 75
     0
 76
     0
 77
     0
 78
     4
170
     0
171
     2
172
     0
173
     0
174
     0
175
     0
176
     0
177
     0
178
     0
  0
ENDTAB
  0
ENDSEC
  0
SECTION
  2
BLOCKS
  0
BLOCK
  8
0
  2
$MODEL_SPACE
 70
     0
 10
0.0
 20
0.0
 30
0.0
  3
$MODEL_SPACE
  1

  0
ENDBLK
  5
21
  8
0
  0
BLOCK
 67
     1
  8
0
  2
$PAPER_SPACE
 70
     0
 10
0.0
 20
0.0
 30
0.0
  3
$PAPER_SPACE
  1

  0
ENDBLK
  5
1D
 67
     1
  8
0
  0
BLOCK
  8
0
  2
_FILLED
 70
     0
 10
0.0
 20
0.0
 30
0.0
  3
_FILLED
  1

  0
SOLID
  5
5582
  8
0
  6
BYBLOCK
 62
     0
 10
0.0
 20
0.0
 30
0.0
 11
-1.0
 21
0.1666666667
 31
0.0
 12
-1.0
 22
-0.1666666667
 32
0.0
 13
-1.0
 23
-0.1666666667
 33
0.0
  0
ENDBLK
  5
5583
  8
0
  6
BYBLOCK
 62
     0
  0
ENDSEC
  0
SECTION
  2
ENTITIES
  0
ATTDEF
  5
3930
  8
DEFPOINTS
 10
2520.558466672277973
 20
176.0426603465151061
 30
0.0
 40
0.001
  1
K-3451T
  3

  2
MODELNUMBER
 70
     0
1001
ACDBATTR
1070
     0
1070
     1
  0
ATTDEF
  5
3931
  8
DEFPOINTS
 10
2520.558466672277973
 20
176.0409936798484125
 30
0.0
 40
0.001
  1
MEMOIRS
  3

  2
TRADENAME
 70
     0
1001
ACDBATTR
1070
     0
1070
     1
  0
ATTDEF
  5
3932
  8
DEFPOINTS
 10
2520.558466672277973
 20
176.0393270131818042
 30
0.0
 40
0.001
  1
TOILET
  3

  2
PRODUCT
 70
     0
1001
ACDBATTR
1070
     0
1070
     1
  0
ARC
  5
5AA0
  8
0
 10
2520.5702738355480506
 20
153.0481316640984062
 30
0.0
 40
5.5267020828627338
 50
255.3747682578834031
 51
269.9781324015289101
  0
ARC
  5
5AA1
  8
0
 10
2520.5677067513352085
 20
153.0382942379854967
 30
0.0
 40
5.5165352311433589
 50
217.535217664711098
 51
255.3747682578834031
  0
ARC
  5
5AA2
  8
0
 10
2527.657539237221954
 20
159.1360456394835126
 30
0.0
 40
14.8626292577010606
 50
195.7575216094228949
 51
219.5244845605662931
  0
ARC
  5
5AA3
  8
0
 10
2524.4157603590069812
 20
158.0896973139738861
 30
0.0
 40
11.4592243707585801
 50
167.6217265422922083
 51
195.1241793512699871
  0
ARC
  5
5AA4
  8
0
 10
2519.1076323231400238
 20
158.9692527357823053
 30
0.0
 40
6.0923263058827031
 50
154.2407198492824989
 51
164.9991173882906992
  0
ARC
  5
5AA5
  8
0
 10
2503.5657060793191704
 20
166.4688912576802124
 30
0.0
 40
11.1644419120508207
 50
334.2407198492825273
 51
357.5779105561845768
  0
ARC
  5
5AA6
  8
0
 10
2511.4097717358567934
 20
166.017292661287911
 30
0.0
 40
3.3104638226362049
 50
359.6500377921967129
 51
39.120490613449391
  0
ARC
  5
5AA7
  8
0
 10
2520.5730182007700932
 20
153.0193341143960879
 30
0.0
 40
5.1224275749035151
 50
259.7980037301084053
 51
269.9457100600699846
  0
ARC
  5
5AA8
  8
0
 10
2520.5236242491018857
 20
152.7448689413454872
 30
0.0
 40
4.8435532417728719
 50
233.2902462976138054
 51
259.7980037301084053
  0
ARC
  5
5AA9
  8
0
 10
2524.9304948562398749
 20
157.2706266612921979
 30
0.0
 40
11.1367824063454197
 50
201.546921621592503
 51
229.0288001265222135
  0
ARC
  5
5AAA
  8
0
 10
2526.255683389054866
 20
158.3464305313960097
 30
0.0
 40
12.7748078687109192
 50
178.683418258324906
 51
203.8525542974714995
  0
ARC
  5
5AAB
  8
0
 10
2525.9845294753099552
 20
158.1324154209299877
 30
0.0
 40
12.5105807271002494
 50
164.5170498426130905
 51
177.6749485506136068
  0
ARC
  5
5AAC
  8
0
 10
2528.0610474886061638
 20
157.6024572899324028
 30
0.0
 40
14.6532798184527202
 50
150.1858313187073861
 51
164.6875457268183141
  0
ARC
  5
5AAD
  8
0
 10
2515.4065885200761841
 20
164.7569058023339039
 30
0.0
 40
0.1438119818950029
 50
84.8537245949770522
 51
114.3739463990730059
  0
ARC
  5
5AAE
  8
0
 10
2520.5688147713799481
 20
153.0327766491182899
 30
0.0
 40
4.854555145357339
 50
263.821834199572379
 51
269.9923252534503035
  0
ARC
  5
5AAF
  8
0
 10
2520.5512756392740812
 20
152.8707511431045134
 30
0.0
 40
4.691583105565071
 50
251.7984860569007992
 51
263.821834199572379
  0
ARC
  5
5AB0
  8
0
 10
2518.8315775143219071
 20
147.6407253422507893
 30
0.0
 40
0.8139170096430675
 50
71.7984860569007424
 51
84.534770629744159
  0
ARC
  5
5AB1
  8
0
 10
2518.9618545664447993
 20
149.0023650580189951
 30
0.0
 40
0.5539407409535828
 50
251.8199923089885885
 51
264.5347706297441164
  0
ARC
  5
5AB2
  8
0
 10
2520.5838934715061441
 20
152.8696994247233079
 30
0.0
 40
4.7461017548111091
 50
225.6819567350680131
 51
247.7791431096030976
  0
ARC
  5
5AB3
  8
0
 10
2525.5037447670588335
 20
157.5731674577099
 30
0.0
 40
11.5508831804790102
 50
202.1328160609818099
 51
224.5212394747107112
  0
ARC
  5
5AB4
  8
0
 10
2527.1974961169039489
 20
158.4441827920936134
 30
0.0
 40
13.4490444829588807
 50
179.1283253085121885
 51
202.8515486649174022
  0
ARC
  5
5AB5
  8
0
 10
2525.5918117608539433
 20
158.3016721507719069
 30
0.0
 40
11.8468899703319295
 50
160.3682425758568968
 51
178.3210070768427045
  0
ARC
  5
5AB6
  8
0
 10
2524.8089137850129191
 20
158.8550808457216021
 30
0.0
 40
10.9266212874212094
 50
151.7436551799015945
 51
161.7223236792914918
  0
ARC
  5
5AB7
  8
0
 10
2513.0260015398848736
 20
165.1879496055275922
 30
0.0
 40
2.4503083941351451
 50
331.7436551799016229
 51
341.7363483050129958
  0
ARC
  5
5AB8
  8
0
 10
2507.3523154111881013
 20
165.7748131747580942
 30
0.0
 40
8.1144521999214412
 50
350.389051087012092
 51
353.8119356466146996
  0
ARC
  5
5AB9
  8
0
 10
2515.7754607758938619
 20
164.915460054762292
 30
0.0
 40
0.3563021003940592
 50
146.080238119076995
 51
182.4646384286120053
  0
ARC
  5
5ABA
  8
0
 10
2524.7891038922780353
 20
159.4000850958765909
 30
0.0
 40
10.9231570156561908
 50
143.44616283385119
 51
148.45773408440661
  0
ARC
  5
5ABB
  8
0
 10
2516.0990282638540521
 20
165.8369467413185987
 30
0.0
 40
0.1088983011695041
 50
89.3436657592924206
 51
140.8665849918853894
  0
LINE
  5
5ABC
  8
0
 10
2516.1002756876828244
 20
165.9458378976694064
 30
0.0
 11
2516.4290760948460957
 21
165.9457718620016067
 31
0.0
  0
ARC
  5
5ABD
  8
0
 10
2516.4295181911338659
 20
165.7805054349956038
 30
0.0
 40
0.165267018320264
 50
72.7217061629147992
 51
90.1532688247520042
  0
ARC
  5
5ABE
  8
0
 10
2516.4123137320998467
 20
165.662014715651992
 30
0.0
 40
0.1396547590621959
 50
94.2294056880837729
 51
142.5014925377882093
  0
ARC
  5
5ABF
  8
0
 10
2526.8385107081380738
 20
158.350442778834406
 30
0.0
 40
12.8739168616022894
 50
144.9325467713416913
 51
150.9858735275344088
  0
ARC
  5
5AC0
  8
0
 10
2528.7015610840858244
 20
157.1621719480866943
 30
0.0
 40
15.0801049635078694
 50
150.4709811581720942
 51
159.1533878251588021
  0
ARC
  5
5AC1
  8
0
 10
2525.4908176448161612
 20
158.3195287559267967
 30
0.0
 40
11.6678420887044094
 50
158.8538089715974877
 51
186.6690132277365137
  0
ARC
  5
5AC2
  8
0
 10
2527.4103672012129209
 20
158.5222560542335088
 30
0.0
 40
13.5979637645199603
 50
186.578132601518405
 51
210.1921038803857016
  0
ARC
  5
5AC3
  8
0
 10
2523.9182317304898788
 20
156.3627397607401122
 30
0.0
 40
9.4941759904273315
 50
209.5260401134304118
 51
228.1287610300620088
  0
ARC
  5
5AC4
  8
0
 10
2520.5173530515057791
 20
152.719171517469988
 30
0.0
 40
4.5121782417388321
 50
229.4052878098526094
 51
257.8259717875495198
  0
ARC
  5
5AC5
  8
0
 10
2520.568694715167112
 20
152.8707460178059137
 30
0.0
 40
4.6712066346839984
 50
257.6024554436627909
 51
269.9934965912981966
  0
ARC
  5
5AC6
  8
0
 10
2520.8382420503539834
 20
153.720504891432995
 30
0.0
 40
4.0226329459321031
 50
228.5976863325298041
 51
266.1502943665057046
  0
ARC
  5
5AC7
  8
0
 10
2524.6116707677488193
 20
157.9238970602885956
 30
0.0
 40
9.6711910677877562
 50
200.4658091948116123
 51
228.2984479857840938
  0
ARC
  5
5AC8
  8
0
 10
2525.7168102598279802
 20
158.7325828409285009
 30
0.0
 40
10.9955994640610903
 50
160.890535626312186
 51
202.4005902103882875
  0
ARC
  5
5AC9
  8
0
 10
2519.7014089400631747
 20
161.0454334052377874
 30
0.0
 40
4.5596351543027263
 50
142.3969774879614079
 51
163.6072222593087986
  0
ARC
  5
5ACA
  8
0
 10
2518.6299324089718539
 20
161.8706714654155974
 30
0.0
 40
3.207200382255166
 50
96.9957763066649079
 51
142.3969774879614079
  0
ARC
  5
5ACB
  8
0
 10
2519.7605208641521131
 20
152.6571524653741108
 30
0.0
 40
12.4898273067366397
 50
88.8705627642161033
 51
96.9957763066649079
  0
ARC
  5
5ACC
  8
0
 10
2520.2874369388650848
 20
179.3838759837597934
 30
0.0
 40
14.2420897696352693
 50
268.8705627642161176
 51
271.1294372357838824
  0
ARC
  5
5ACD
  8
0
 10
2516.46148068800494
 20
165.7463245672491041
 30
0.0
 40
0.0809775963414536
 50
71.4843187341005688
 51
137.2529473976441068
  0
LINE
  5
5ACE
  8
0
 10
2516.4786046683962013
 20
165.938314512980611
 30
0.0
 11
2516.4871962728720973
 21
165.8231105021860969
 31
0.0
  0
ARC
  5
5ACF
  8
0
 10
2516.5155833883750347
 20
165.8587415448567981
 30
0.0
 40
0.045556553078477
 50
231.4558017342561129
 51
272.3787236631915789
  0
ARC
  5
5AD0
  8
0
 10
2516.1718401619309589
 20
165.0900420181847039
 30
0.0
 40
0.8015331698626867
 50
41.7566121777219266
 51
64.4552361751668883
  0
ARC
  5
5AD1
  8
0
 10
2517.4043814532351462
 20
166.3977311324321136
 30
0.0
 40
1.0008224481402881
 50
230.6473536902356898
 51
269.9707031712143248
  0
LINE
  5
5AD2
  8
0
 10
2517.4038697065948327
 20
165.3969088151264941
 30
0.0
 11
2520.5681645056788511
 21
165.3969088151264941
 31
0.0
  0
LINE
  5
5AD3
  8
0
 10
2516.509569294962148
 20
165.8135837082299986
 30
0.0
 11
2516.509827929191033
 21
165.8875700809061016
 31
0.0
  0
ARC
  5
5AD4
  8
0
 10
2516.5691912719548782
 20
165.8873625644152128
 30
0.0
 40
0.0593637054703779
 50
89.3928616946191283
 51
179.7997119075793933
  0
LINE
  5
5AD5
  8
0
 10
2516.5698203113947784
 20
165.9467229370264931
 30
0.0
 11
2517.0103512329687874
 21
165.9420546488767911
 31
0.0
  0
LINE
  5
5AD6
  8
0
 10
2517.0103512329687874
 20
165.9420546488767911
 30
0.0
 11
2517.0158270426950367
 21
165.8610146571265034
 31
0.0
  0
LINE
  5
5AD7
  8
0
 10
2517.0158270426950367
 20
165.8610146571265034
 30
0.0
 11
2517.0184162932600884
 21
165.4743263089733887
 31
0.0
  0
LINE
  5
5AD8
  8
0
 10
2517.0420166262870225
 20
165.4648124302437964
 30
0.0
 11
2517.0446640558948275
 21
165.8478186575765108
 31
0.0
  0
LINE
  5
5AD9
  8
0
 10
2517.0446640558948275
 20
165.8478186575765108
 30
0.0
 11
2517.0523580348931318
 21
165.9582394481045071
 31
0.0
  0
LINE
  5
5ADA
  8
0
 10
2517.1144763200950365
 20
165.9582393229264881
 30
0.0
 11
2517.0389435458700973
 21
165.9582395229265046
 31
0.0
  0
LINE
  5
5ADB
  8
0
 10
2517.0389435458700973
 20
165.9582395229265046
 30
0.0
 11
2517.0483772613201836
 21
167.0392346200873135
 31
0.0
  0
ARC
  5
5ADC
  8
0
 10
2517.545657095234219
 20
167.0348949182103127
 30
0.0
 40
0.4972987695847406
 50
90.7642952460698922
 51
179.4999992498223946
  0
LINE
  5
5ADD
  8
0
 10
2517.5390235906947964
 20
167.5321494434265048
 30
0.0
 11
2518.0740184388951093
 21
167.5322786582264882
 31
0.0
  0
ARC
  5
5ADE
  8
0
 10
2518.0919287504211752
 20
167.0365716790954025
 30
0.0
 40
0.4960304309397571
 50
0.3075168086362688
 51
92.0692447603555308
  0
LINE
  5
5ADF
  8
0
 10
2518.5879520368948761
 20
167.0392339513265085
 30
0.0
 11
2518.5973852484548843
 21
165.958293358307202
 31
0.0
  0
LINE
  5
5AE0
  8
0
 10
2518.5973852484548843
 20
165.958293358307202
 30
0.0
 11
2518.5218527395950332
 21
165.9582932188178006
 31
0.0
  0
ARC
  5
5AE1
  8
0
 10
2518.5214419940480184
 20
165.9908556412636074
 30
0.0
 40
0.0326189249491457
 50
186.5992553890515069
 51
270.7218649311765262
  0
ARC
  5
5AE2
  8
0
 10
2518.4708314615008931
 20
165.9697350869012951
 30
0.0
 40
0.0251655052320352
 50
43.6541787275199269
 51
93.6542934673681202
  0
LINE
  5
5AE3
  8
0
 10
2518.4692275072948178
 20
165.994849425126489
 30
0.0
 11
2517.1671018879610529
 21
165.9948821342983933
 31
0.0
  0
ARC
  5
5AE4
  8
0
 10
2517.1656109591349377
 20
165.9713656702884066
 30
0.0
 40
0.0235636785815771
 50
86.3723393425270132
 51
140.9108845460687007
  0
ARC
  5
5AE5
  8
0
 10
2517.1150139864571429
 20
165.9908755671596907
 30
0.0
 40
0.0326408927587921
 50
269.0563143495861027
 51
351.8056869353814022
  0
LINE
  5
5AE6
  8
0
 10
2518.5969049025948152
 20
166.0133356259264872
 30
0.0
 11
2522.5394241083308771
 21
166.0133355745265078
 31
0.0
  0
LINE
  5
5AE7
  8
0
 10
2514.5984688697058118
 20
168.1807587984264956
 30
0.0
 11
2514.5980221823961074
 21
168.1551681180746982
 31
0.0
  0
ARC
  5
5AE8
  8
0
 10
2514.5480297976478141
 20
168.1560407390273042
 30
0.0
 40
0.050000000000823
 50
269.9999992514889868
 51
358.9999992770707991
  0
LINE
  5
5AE9
  8
0
 10
2514.5480297969947969
 20
168.106040739026497
 30
0.0
 11
2512.5269051901950661
 21
168.1060407654308051
 31
0.0
  0
ARC
  5
5AEA
  8
0
 10
2512.5269051903910622
 20
168.1210408377492911
 30
0.0
 40
0.0150000723184789
 50
181.0002711028757005
 51
269.9999992514628957
  0
LINE
  5
5AEB
  8
0
 10
2512.5119074038948384
 20
168.1207789794264897
 30
0.0
 11
2512.5108601683709821
 21
168.1807587984264956
 31
0.0
  0
ARC
  5
5AEC
  8
0
 10
2511.9052059073910641
 20
168.3720040172684946
 30
0.0
 40
0.1912458218058416
 50
185.1285738838764985
 51
269.8561243230097944
  0
ARC
  5
5AED
  8
0
 10
2511.8347453182727804
 20
175.3091806963030876
 30
0.0
 40
0.1200196014696006
 50
90.007502188206459
 51
180.0054442463782038
  0
ARC
  5
5AEE
  8
0
 10
2512.2513510697799575
 20
175.2912744869794039
 30
0.0
 40
0.1196232182077334
 50
89.3767522251067135
 51
180.1139396759400881
  0
ARC
  5
5AEF
  8
0
 10
2512.5083502940469771
 20
175.2864330177212935
 30
0.0
 40
0.11975127783003
 50
87.4700483721266835
 51
180.065592443284487
  0
ARC
  5
5AF0
  8
0
 10
2512.6949213032839907
 20
175.2951749605580005
 30
0.0
 40
0.1110454269426381
 50
103.3035467162462027
 51
186.1602583266239037
  0
ARC
  5
5AF1
  8
0
 10
2513.1145972682061256
 20
174.9263540363890002
 30
0.0
 40
0.1874664229842708
 50
95.1248765555730813
 51
174.8197503286390884
  0
LINE
  5
5AF2
  8
0
 10
2512.1317295922949597
 20
175.2910363724265039
 30
0.0
 11
2512.1317185938360126
 21
168.786233667573299
 31
0.0
  0
ARC
  5
5AF3
  8
0
 10
2512.3202000924020467
 20
168.7862333488847071
 30
0.0
 40
0.1884814985666131
 50
179.9999031230719027
 51
270.0003094674128192
  0
LINE
  5
5AF4
  8
0
 10
2512.3885990926951308
 20
175.2862948588264942
 30
0.0
 11
2512.3886048996951104
 21
169.0455060852341092
 31
0.0
  0
ARC
  5
5AF5
  8
0
 10
2512.5794731621608662
 20
169.0455062628354028
 30
0.0
 40
0.1908682624661453
 50
180.0000533132273972
 51
269.9985960751786251
  0
LINE
  5
5AF6
  8
0
 10
2512.584515025030214
 20
175.2832559081633121
 30
0.0
 11
2512.5845149455890351
 21
169.1848983579264996
 31
0.0
  0
ARC
  5
5AF7
  8
0
 10
2512.8636070415868744
 20
169.3296403464053981
 30
0.0
 40
0.3143924955803868
 50
207.4120356328444075
 51
242.5880157870136884
  0
LINE
  5
5AF8
  8
0
 10
2512.927896473895089
 20
174.9431404615264967
 30
0.0
 11
2512.9278960797951186
 21
169.5637407431264876
 31
0.0
  0
ARC
  5
5AF9
  8
0
 10
2513.0977105460788152
 20
169.5637407306857085
 30
0.0
 40
0.1698144662844445
 50
179.9999958024559987
 51
270.0158835527997212
  0
LINE
  5
5AFA
  8
0
 10
2511.8347296031602127
 20
175.4292002967438862
 30
0.0
 11
2512.2526522726770963
 21
175.4108906280532096
 31
0.0
  0
LINE
  5
5AFB
  8
0
 10
2512.2526522726770963
 20
175.4108906280532096
 30
0.0
 11
2512.513636311647133
 21
175.4060675719265134
 31
0.0
  0
LINE
  5
5AFC
  8
0
 10
2512.513636311647133
 20
175.4060675719265134
 30
0.0
 11
2512.6693686424951011
 21
175.4032404424264939
 31
0.0
  0
LINE
  5
5AFD
  8
0
 10
2511.714725717345118
 20
168.3549083582265098
 30
0.0
 11
2511.714725717345118
 21
175.309169292037609
 31
0.0
  0
LINE
  5
5AFE
  8
0
 10
2511.8347296031602127
 20
175.4292002967438862
 30
0.0
 11
2529.3015994081870303
 21
175.4292002967438862
 31
0.0
  0
LINE
  5
5AFF
  8
0
 10
2512.6693686424951011
 20
175.4032404424264939
 30
0.0
 11
2528.4669603688639654
 21
175.4032404424264939
 31
0.0
  0
LINE
  5
5B00
  8
0
 10
2513.0978515023948603
 20
175.1130710390264937
 30
0.0
 11
2528.0384775089642062
 21
175.1130710390264937
 31
0.0
  0
LINE
  5
5B01
  8
0
 10
2511.9047256696949262
 20
168.1807587984264956
 30
0.0
 11
2529.2316033416650498
 21
168.1807587984264956
 31
0.0
  0
LINE
  5
5B02
  8
0
 10
2512.3202011104331177
 20
168.5977518503208046
 30
0.0
 11
2528.8161279009259488
 21
168.5977518503208046
 31
0.0
  0
LINE
  5
5B03
  8
0
 10
2512.5794684852949104
 20
168.8546380004264904
 30
0.0
 11
2528.5568605260641561
 21
168.8546380004264904
 31
0.0
  0
LINE
  5
5B04
  8
0
 10
2512.7188653035777861
 20
169.0505481205096885
 30
0.0
 11
2528.4174637077808256
 21
169.0505481205096885
 31
0.0
  0
LINE
  5
5B05
  8
0
 10
2513.0977576220948322
 20
169.3939262709264995
 30
0.0
 11
2528.0386655413080916
 21
169.3939262709264995
 31
0.0
  0
ARC
  5
5B06
  8
0
 10
2520.5660551758110159
 20
153.0481316640984062
 30
0.0
 40
5.5267020828627338
 50
270.0218675984710899
 51
284.6252317421166254
  0
ARC
  5
5B07
  8
0
 10
2520.568622260023858
 20
153.0382942379854967
 30
0.0
 40
5.5165352311433589
 50
284.6252317421166254
 51
322.4647823352888736
  0
ARC
  5
5B08
  8
0
 10
2513.4787897741371125
 20
159.1360456394835126
 30
0.0
 40
14.8626292577010606
 50
320.4755154394337069
 51
344.2424783905755135
  0
ARC
  5
5B09
  8
0
 10
2516.7205686523520853
 20
158.0896973139738861
 30
0.0
 40
11.4592243707585801
 50
344.8758206487299276
 51
12.3782734577077402
  0
ARC
  5
5B0A
  8
0
 10
2522.0286966882199522
 20
158.9692527357823053
 30
0.0
 40
6.0923263058827031
 50
15.0008826117092706
 51
25.7592801507174798
  0
ARC
  5
5B0B
  8
0
 10
2537.5706229320398961
 20
166.4688912576802124
 30
0.0
 40
11.1644419120508207
 50
182.4220894438153948
 51
205.7592801507173874
  0
ARC
  5
5B0C
  8
0
 10
2529.7265572755018184
 20
166.017292661287911
 30
0.0
 40
3.3104638226362049
 50
139.1922061727933908
 51
180.3499622078032019
  0
ARC
  5
5B0D
  8
0
 10
2520.5633108105889733
 20
153.0193341143960879
 30
0.0
 40
5.1224275749035151
 50
270.0542899399299017
 51
280.2019962698915947
  0
ARC
  5
5B0E
  8
0
 10
2520.6127047622571808
 20
152.7448689413454872
 30
0.0
 40
4.8435532417728719
 50
280.2019962698915947
 51
306.7097537023860809
  0
ARC
  5
5B0F
  8
0
 10
2516.2058341551191916
 20
157.2706266612921979
 30
0.0
 40
11.1367824063454197
 50
310.9711998734778717
 51
338.453078378407497
  0
ARC
  5
5B10
  8
0
 10
2514.8806456223042005
 20
158.3464305313960097
 30
0.0
 40
12.7748078687109192
 50
336.1474457025285005
 51
1.316581741675054
  0
ARC
  5
5B11
  8
0
 10
2515.1517995360491113
 20
158.1324154209299877
 30
0.0
 40
12.5105807271002494
 50
2.3250514493864181
 51
15.4829501573868509
  0
ARC
  5
5B12
  8
0
 10
2513.0752815227538122
 20
157.6024572899324028
 30
0.0
 40
14.6532798184527202
 50
15.31245427318167
 51
29.8141686812925606
  0
ARC
  5
5B13
  8
0
 10
2525.7297404912828824
 20
164.7569058023339039
 30
0.0
 40
0.1438119818950029
 50
65.6260536009269515
 51
95.1462754050229336
  0
ARC
  5
5B14
  8
0
 10
2520.5675142399791184
 20
153.0327766491182899
 30
0.0
 40
4.854555145357339
 50
270.0076747465496965
 51
276.178165800427621
  0
ARC
  5
5B15
  8
0
 10
2520.5850533720849853
 20
152.8707511431045134
 30
0.0
 40
4.691583105565071
 50
276.178165800427621
 51
288.2015139430992008
  0
ARC
  5
5B16
  8
0
 10
2522.3047514970371594
 20
147.6407253422507893
 30
0.0
 40
0.8139170096430675
 50
95.4652293702558552
 51
108.2015139430992008
  0
ARC
  5
5B17
  8
0
 10
2522.174474444912903
 20
149.0023650580189951
 30
0.0
 40
0.5539407409535828
 50
275.4652293702558836
 51
288.180007691011383
  0
ARC
  5
5B18
  8
0
 10
2520.5524355398529224
 20
152.8696994247233079
 30
0.0
 40
4.7461017548111091
 50
292.220856890396874
 51
314.3180432649319869
  0
ARC
  5
5B19
  8
0
 10
2515.6325842443011425
 20
157.5731674577099
 30
0.0
 40
11.5508831804790102
 50
315.4787605252893172
 51
337.8671839390182186
  0
ARC
  5
5B1A
  8
0
 10
2513.9388328944551176
 20
158.4441827920936134
 30
0.0
 40
13.4490444829588807
 50
337.1484513350825978
 51
0.8716746914878047
  0
ARC
  5
5B1B
  8
0
 10
2515.5445172505051232
 20
158.3016721507719069
 30
0.0
 40
11.8468899703319295
 50
1.6789929231573171
 51
19.6317574241430393
  0
ARC
  5
5B1C
  8
0
 10
2516.3274152263470569
 20
158.8550808457216021
 30
0.0
 40
10.9266212874212094
 50
18.2776763207085011
 51
28.25634482009837
  0
ARC
  5
5B1D
  8
0
 10
2528.1103274714741929
 20
165.1879496055275922
 30
0.0
 40
2.4503083941351451
 50
198.2636516949870042
 51
208.2563448200982918
  0
ARC
  5
5B1E
  8
0
 10
2533.7840136001718747
 20
165.7748131747580942
 30
0.0
 40
8.1144521999214412
 50
186.1880643533853004
 51
189.6109489129877943
  0
ARC
  5
5B1F
  8
0
 10
2525.3608682354652046
 20
164.915460054762292
 30
0.0
 40
0.3563021003940592
 50
357.5353615713880231
 51
33.9197618809229908
  0
ARC
  5
5B20
  8
0
 10
2516.3472251190810312
 20
159.4000850958765909
 30
0.0
 40
10.9231570156561908
 50
31.5422659155934113
 51
36.5538371661487815
  0
ARC
  5
5B21
  8
0
 10
2525.0373007475050144
 20
165.8369467413185987
 30
0.0
 40
0.1088983011695041
 50
39.1334150081145111
 51
90.6563342407075936
  0
LINE
  5
5B22
  8
0
 10
2525.0360533236757874
 20
165.9458378976694064
 30
0.0
 11
2524.7072529165138803
 21
165.9457718620016067
 31
0.0
  0
ARC
  5
5B23
  8
0
 10
2524.7068108202252006
 20
165.7805054349956038
 30
0.0
 40
0.165267018320264
 50
89.84673117524801
 51
107.2782938370852008
  0
ARC
  5
5B24
  8
0
 10
2524.7231495246519444
 20
165.660411225595908
 30
0.0
 40
0.1413196963302771
 50
37.8006135906991574
 51
85.468488183444137
  0
ARC
  5
5B25
  8
0
 10
2514.2978183032209927
 20
158.350442778834406
 30
0.0
 40
12.8739168616022894
 50
29.0141264724656409
 51
35.067453228658259
  0
ARC
  5
5B26
  8
0
 10
2512.4347679272741516
 20
157.1621719480866943
 30
0.0
 40
15.0801049635078694
 50
20.8466121748412085
 51
29.5290188418279591
  0
ARC
  5
5B27
  8
0
 10
2515.6455113665429053
 20
158.3195287559267967
 30
0.0
 40
11.6678420887044094
 50
353.3309867722633726
 51
21.1461910284025016
  0
ARC
  5
5B28
  8
0
 10
2513.7259618101470551
 20
158.5222560542335088
 30
0.0
 40
13.5979637645199603
 50
329.8078961196143268
 51
353.421867398481595
  0
ARC
  5
5B29
  8
0
 10
2517.2180972808691877
 20
156.3627397607401122
 30
0.0
 40
9.4941759904273315
 50
311.8712389699380196
 51
330.4739598865696166
  0
ARC
  5
5B2A
  8
0
 10
2520.6189759598519231
 20
152.719171517469988
 30
0.0
 40
4.5121782417388321
 50
282.1740282124504802
 51
310.5947121901473906
  0
ARC
  5
5B2B
  8
0
 10
2520.567634296192864
 20
152.8707460178059137
 30
0.0
 40
4.6712066346839984
 50
270.0065034087018034
 51
282.3975445563370954
  0
ARC
  5
5B2C
  8
0
 10
2520.2980869610050831
 20
153.720504891432995
 30
0.0
 40
4.0226329459321031
 50
273.8497056334941817
 51
311.4023136674701959
  0
ARC
  5
5B2D
  8
0
 10
2516.5246582436097924
 20
157.9238970602885956
 30
0.0
 40
9.6711910677877562
 50
311.7015520142157925
 51
339.5341908051884161
  0
ARC
  5
5B2E
  8
0
 10
2515.4195187515319958
 20
158.7325828409285009
 30
0.0
 40
10.9955994640610903
 50
337.5994097896100925
 51
19.1094643736877501
  0
ARC
  5
5B2F
  8
0
 10
2521.4349200712958918
 20
161.0454334052377874
 30
0.0
 40
4.5596351543027263
 50
16.3927777406912014
 51
37.6030225120385921
  0
ARC
  5
5B30
  8
0
 10
2522.5063966023858484
 20
161.8706714654155974
 30
0.0
 40
3.207200382255166
 50
37.6030225120385921
 51
83.0042236933350779
  0
ARC
  5
5B31
  8
0
 10
2521.3758081472078629
 20
152.6571524653741108
 30
0.0
 40
12.4898273067366397
 50
83.0042236933350779
 51
91.1294372357839251
  0
ARC
  5
5B32
  8
0
 10
2520.8488920724939817
 20
179.3838759837597934
 30
0.0
 40
14.2420897696352693
 50
268.8705627642161176
 51
271.1294372357838824
  0
ARC
  5
5B33
  8
0
 10
2524.674848323355036
 20
165.7463245672491041
 30
0.0
 40
0.0809775963414536
 50
42.7470526023559003
 51
108.5156812658994028
  0
LINE
  5
5B34
  8
0
 10
2524.6577243429628652
 20
165.938314512980611
 30
0.0
 11
2524.6491327384869692
 21
165.8231105021860969
 31
0.0
  0
ARC
  5
5B35
  8
0
 10
2524.6207456229840318
 20
165.8587415448567981
 30
0.0
 40
0.045556553078477
 50
267.6212763368084211
 51
308.5441982657438871
  0
ARC
  5
5B36
  8
0
 10
2524.9644888494281076
 20
165.0900420181847039
 30
0.0
 40
0.8015331698626867
 50
115.5447638248330975
 51
138.2433878222767873
  0
ARC
  5
5B37
  8
0
 10
2523.7319475581248298
 20
166.3977311324321136
 30
0.0
 40
1.0008224481402881
 50
270.0292968287856752
 51
309.3526463097642818
  0
LINE
  5
5B38
  8
0
 10
2523.7324593047637791
 20
165.3969088151264941
 30
0.0
 11
2520.5681645056788511
 21
165.3969088151264941
 31
0.0
  0
LINE
  5
5B39
  8
0
 10
2524.6267597163969185
 20
165.8135837082299986
 30
0.0
 11
2524.626501082167124
 21
165.8875700809061016
 31
0.0
  0
ARC
  5
5B3A
  8
0
 10
2524.5671377394028241
 20
165.8873625644152128
 30
0.0
 40
0.0593637054703779
 50
0.2002880924205635
 51
90.6071383053808574
  0
LINE
  5
5B3B
  8
0
 10
2524.5665086999638334
 20
165.9467229370264931
 30
0.0
 11
2524.1259777783898244
 21
165.9420546488767911
 31
0.0
  0
LINE
  5
5B3C
  8
0
 10
2524.1259777783898244
 20
165.9420546488767911
 30
0.0
 11
2524.1205019686640298
 21
165.8610146571265034
 31
0.0
  0
LINE
  5
5B3D
  8
0
 10
2524.1205019686640298
 20
165.8610146571265034
 30
0.0
 11
2524.1179127180998876
 21
165.4743263089733887
 31
0.0
  0
LINE
  5
5B3E
  8
0
 10
2524.094312385072044
 20
165.4648124302437964
 30
0.0
 11
2524.0916649554637843
 21
165.8478186575765108
 31
0.0
  0
LINE
  5
5B3F
  8
0
 10
2524.0916649554637843
 20
165.8478186575765108
 30
0.0
 11
2524.0839709764659347
 21
165.9582394481045071
 31
0.0
  0
LINE
  5
5B40
  8
0
 10
2524.02185269126403
 20
165.9582393229264881
 30
0.0
 11
2524.0973854654889692
 21
165.9582395229265046
 31
0.0
  0
LINE
  5
5B41
  8
0
 10
2524.0973854654889692
 20
165.9582395229265046
 30
0.0
 11
2524.0879517500388829
 21
167.0392346200873135
 31
0.0
  0
ARC
  5
5B42
  8
0
 10
2523.5906719161248475
 20
167.0348949182103127
 30
0.0
 40
0.4972987695847406
 50
0.5000007501775783
 51
89.2357047539301078
  0
LINE
  5
5B43
  8
0
 10
2523.5973054206638153
 20
167.5321494434265048
 30
0.0
 11
2523.0623105724639572
 21
167.5322786582264882
 31
0.0
  0
ARC
  5
5B44
  8
0
 10
2523.0444002609388008
 20
167.0365716790954025
 30
0.0
 40
0.4960304309397571
 50
87.9307552396444549
 51
179.6924831913636922
  0
LINE
  5
5B45
  8
0
 10
2522.5483769744641904
 20
167.0392339513265085
 30
0.0
 11
2522.5389437629050917
 21
165.958293358307202
 31
0.0
  0
LINE
  5
5B46
  8
0
 10
2522.5389437629050917
 20
165.958293358307202
 30
0.0
 11
2522.6144762717640333
 21
165.9582932188178006
 31
0.0
  0
ARC
  5
5B47
  8
0
 10
2522.6148870173110481
 20
165.9908556412636074
 30
0.0
 40
0.0326189249491457
 50
269.2781350688234738
 51
353.4007446109483794
  0
ARC
  5
5B48
  8
0
 10
2522.6654975498590829
 20
165.9697350869012951
 30
0.0
 40
0.0251655052320352
 50
86.345706532631894
 51
136.3458212724800944
  0
LINE
  5
5B49
  8
0
 10
2522.667101504063794
 20
165.994849425126489
 30
0.0
 11
2523.9692271233980136
 21
165.9948821342983933
 31
0.0
  0
ARC
  5
5B4A
  8
0
 10
2523.9707180522241288
 20
165.9713656702884066
 30
0.0
 40
0.0235636785815771
 50
39.0891154539312495
 51
93.6276606574729868
  0
ARC
  5
5B4B
  8
0
 10
2524.0213150249019236
 20
165.9908755671596907
 30
0.0
 40
0.0326408927587921
 50
188.1943130646185978
 51
270.9436856504138973
  0
ARC
  5
5B4C
  8
0
 10
2529.2311215627460115
 20
168.3720079650524042
 30
0.0
 40
0.1912497734534626
 50
270.1443344343560966
 51
354.8703449118124809
  0
ARC
  5
5B4D
  8
0
 10
2529.3015822274692255
 20
175.3091771592104919
 30
0.0
 40
0.1200231387629767
 50
359.9962444257866991
 51
89.9917983871435041
  0
ARC
  5
5B4E
  8
0
 10
2528.884977941579109
 20
175.2912744869794039
 30
0.0
 40
0.1196232182077334
 50
359.8860603240598834
 51
90.6232477748932865
  0
ARC
  5
5B4F
  8
0
 10
2528.6279787173129989
 20
175.2864330177212935
 30
0.0
 40
0.11975127783003
 50
359.9344075567154846
 51
92.5299516278733165
  0
ARC
  5
5B50
  8
0
 10
2528.4414077080750758
 20
175.2951749605580005
 30
0.0
 40
0.1110454269426381
 50
353.8397416733761247
 51
76.6964532837537547
  0
ARC
  5
5B51
  8
0
 10
2528.0217317431529409
 20
174.9263540363890002
 30
0.0
 40
0.1874664229842708
 50
5.1802496713608379
 51
84.8751234444269045
  0
LINE
  5
5B52
  8
0
 10
2529.0045994190641068
 20
175.2910363724265039
 30
0.0
 11
2529.0046104175230539
 21
168.786233667573299
 31
0.0
  0
ARC
  5
5B53
  8
0
 10
2528.8161289189570198
 20
168.7862333488847071
 30
0.0
 40
0.1884814985666131
 50
269.9996905325871808
 51
0.0000968769280568
  0
LINE
  5
5B54
  8
0
 10
2528.7477299186639357
 20
175.2862948588264942
 30
0.0
 11
2528.7477241116639561
 21
169.0455060852341092
 31
0.0
  0
ARC
  5
5B55
  8
0
 10
2528.5568561471600333
 20
169.0455059648799079
 30
0.0
 40
0.1908679645035911
 50
270.001314483016813
 51
0.0000361285803501
  0
LINE
  5
5B56
  8
0
 10
2528.5518139863288525
 20
175.2832559081633121
 30
0.0
 11
2528.5518140657700314
 21
169.1848983579264996
 31
0.0
  0
ARC
  5
5B57
  8
0
 10
2528.2727219697721921
 20
169.3296403464053981
 30
0.0
 40
0.3143924955803868
 50
297.4119842129862832
 51
332.5879643671556209
  0
LINE
  5
5B58
  8
0
 10
2528.2084325374639775
 20
174.9431404615264967
 30
0.0
 11
2528.2084329315639479
 21
169.5637407431264876
 31
0.0
  0
ARC
  5
5B59
  8
0
 10
2528.038618465278887
 20
169.5637407306857085
 30
0.0
 40
0.1698144662844445
 50
269.9841164472002788
 51
0.0000041975440126
  0
LINE
  5
5B5A
  8
0
 10
2529.3015994081988538
 20
175.4292002967438862
 30
0.0
 11
2528.8836767386810607
 21
175.4108906280532096
 31
0.0
  0
LINE
  5
5B5B
  8
0
 10
2528.8836767386810607
 20
175.4108906280532096
 30
0.0
 11
2528.622692699712843
 21
175.4060675719265134
 31
0.0
  0
LINE
  5
5B5C
  8
0
 10
2528.622692699712843
 20
175.4060675719265134
 30
0.0
 11
2528.4669603688639654
 21
175.4032404424264939
 31
0.0
  0
LINE
  5
5B5D
  8
0
 10
2529.4216053659738463
 20
168.3549083582265098
 30
0.0
 11
2529.4216053659738463
 21
175.309169292037609
 31
0.0
  0
ENDSEC
  0
EOF
