  0
SECTION
  2
HEADER
  9
$ACADVER
  1
AC1009
  9
$INSBASE
 10
4567.1583759392369757
 20
329.9925353585406924
 30
0.0
  9
$EXTMIN
 10
4528.1449204926921084
 20
315.4926647710394718
 30
0.0
  9
$EXTMAX
 10
4576.6813921506563929
 20
376.1241286474588037
 30
0.0
  9
$LIMMIN
 10
0.0
 20
0.0
  9
$LIMMAX
 10
11.6929133858000007
 20
8.2677165353999982
  9
$ORTHOMODE
 70
     0
  9
$REGENMODE
 70
     1
  9
$FILLMODE
 70
     1
  9
$QTEXTMODE
 70
     0
  9
$MIRRTEXT
 70
     0
  9
$DRAGMODE
 70
     2
  9
$LTSCALE
 40
0.6431102362
  9
$OSMODE
 70
  4095
  9
$ATTMODE
 70
     1
  9
$TEXTSIZE
 40
0.2
  9
$TRACEWID
 40
0.05
  9
$TEXTSTYLE
  7
STANDARD
  9
$CLAYER
  8
0
  9
$CELTYPE
  6
BYLAYER
  9
$CECOLOR
 62
   256
  9
$DIMSCALE
 40
1.0
  9
$DIMASZ
 40
0.1875
  9
$DIMEXO
 40
0.0625
  9
$DIMDLI
 40
0.4443307087
  9
$DIMRND
 40
0.0
  9
$DIMDLE
 40
0.0
  9
$DIMEXE
 40
0.125
  9
$DIMTP
 40
0.01
  9
$DIMTM
 40
0.01
  9
$DIMTXT
 40
2.0
  9
$DIMCEN
 40
0.1052362205
  9
$DIMTSZ
 40
0.0
  9
$DIMTOL
 70
     1
  9
$DIMLIM
 70
     0
  9
$DIMTIH
 70
     1
  9
$DIMTOH
 70
     1
  9
$DIMSE1
 70
     0
  9
$DIMSE2
 70
     0
  9
$DIMTAD
 70
     0
  9
$DIMZIN
 70
     0
  9
$DIMBLK
  1

  9
$DIMASO
 70
     1
  9
$DIMSHO
 70
     1
  9
$DIMPOST
  1
\X
  9
$DIMAPOST
  1

  9
$DIMALT
 70
     1
  9
$DIMALTD
 70
     2
  9
$DIMALTF
 40
25.3999999999999986
  9
$DIMLFAC
 40
1.0
  9
$DIMTOFL
 70
     0
  9
$DIMTVP
 40
0.0
  9
$DIMTIX
 70
     0
  9
$DIMSOXD
 70
     0
  9
$DIMSAH
 70
     0
  9
$DIMBLK1
  1

  9
$DIMBLK2
  1

  9
$DIMSTYLE
  2
STANDARD
  9
$DIMCLRD
 70
     0
  9
$DIMCLRE
 70
     0
  9
$DIMCLRT
 70
     0
  9
$DIMTFAC
 40
1.0
  9
$DIMGAP
 40
0.09
  9
$LUNITS
 70
     2
  9
$LUPREC
 70
     4
  9
$SKETCHINC
 40
0.1
  9
$FILLETRAD
 40
0.0
  9
$AUNITS
 70
     0
  9
$AUPREC
 70
     0
  9
$MENU
  1
.
  9
$ELEVATION
 40
0.0
  9
$PELEVATION
 40
0.0
  9
$THICKNESS
 40
0.0
  9
$LIMCHECK
 70
     0
  9
$BLIPMODE
 70
     0
  9
$CHAMFERA
 40
0.0
  9
$CHAMFERB
 40
0.0
  9
$SKPOLY
 70
     0
  9
$TDCREATE
 40
2458060.468368056230247
  9
$TDUPDATE
 40
2459954.4694212968461215
  9
$TDINDWG
 40
0.3191390046
  9
$TDUSRTIMER
 40
0.3191390046
  9
$USRTIMER
 70
     1
  9
$ANGBASE
 50
0.0
  9
$ANGDIR
 70
     0
  9
$PDMODE
 70
     0
  9
$PDSIZE
 40
0.3125
  9
$PLINEWID
 40
0.0
  9
$COORDS
 70
     1
  9
$SPLFRAME
 70
     0
  9
$SPLINETYPE
 70
     6
  9
$SPLINESEGS
 70
     8
  9
$ATTDIA
 70
     1
  9
$ATTREQ
 70
     1
  9
$HANDLING
 70
     1
  9
$HANDSEED
  5
B591
  9
$SURFTAB1
 70
     6
  9
$SURFTAB2
 70
     6
  9
$SURFTYPE
 70
     6
  9
$SURFU
 70
     6
  9
$SURFV
 70
     6
  9
$UCSNAME
  2

  9
$UCSORG
 10
0.0
 20
0.0
 30
0.0
  9
$UCSXDIR
 10
1.0
 20
0.0
 30
0.0
  9
$UCSYDIR
 10
0.0
 20
1.0
 30
0.0
  9
$PUCSNAME
  2

  9
$PUCSORG
 10
0.0
 20
0.0
 30
0.0
  9
$PUCSXDIR
 10
1.0
 20
0.0
 30
0.0
  9
$PUCSYDIR
 10
0.0
 20
1.0
 30
0.0
  9
$USERI1
 70
     0
  9
$USERI2
 70
     0
  9
$USERI3
 70
     0
  9
$USERI4
 70
     0
  9
$USERI5
 70
     0
  9
$USERR1
 40
0.0
  9
$USERR2
 40
0.0
  9
$USERR3
 40
0.0
  9
$USERR4
 40
0.0
  9
$USERR5
 40
0.0
  9
$WORLDVIEW
 70
     1
  9
$SHADEDGE
 70
     3
  9
$SHADEDIF
 70
    70
  9
$TILEMODE
 70
     1
  9
$MAXACTVP
 70
    64
  9
$PLIMCHECK
 70
     0
  9
$PEXTMIN
 10
1.0000000000000000E+20
 20
1.0000000000000000E+20
 30
1.0000000000000000E+20
  9
$PEXTMAX
 10
-1.0000000000000000E+20
 20
-1.0000000000000000E+20
 30
-1.0000000000000000E+20
  9
$PLIMMIN
 10
0.0
 20
0.0
  9
$PLIMMAX
 10
12.0
 20
9.0
  9
$UNITMODE
 70
     0
  9
$VISRETAIN
 70
     1
  9
$PLINEGEN
 70
     0
  9
$PSLTSCALE
 70
     1
  0
ENDSEC
  0
SECTION
  2
TABLES
  0
TABLE
  2
VPORT
 70
     1
  0
VPORT
  2
*ACTIVE
 70
     0
 10
0.0
 20
0.0
 11
1.0
 21
1.0
 12
386.2917530072367072
 22
183.4069361974634091
 13
0.0
 23
0.0
 14
1.0
 24
1.0
 15
0.0
 25
0.0
 16
0.0
 26
0.0
 36
67.1637956335921871
 17
4211.225830078125
 27
157.6157379150390057
 37
0.0
 40
142.8564923566850098
 41
2.498684210526315
 42
50.0
 43
0.0
 44
0.0
 50
0.0
 51
0.0
 71
     0
 72
   100
 73
     1
 74
     1
 75
     0
 76
     0
 77
     0
 78
     0
  0
ENDTAB
  0
TABLE
  2
LTYPE
 70
     2
  0
LTYPE
  2
CONTINUOUS
 70
     0
  3
Solid line
 72
    65
 73
     0
 40
0.0
  0
LTYPE
  2
PHANTOM2
 70
     0
  3
___ _ _ ___ _ _ ___ _ _ ___ _ _
 72
    65
 73
     6
 40
1.25
 49
0.625
 49
-0.125
 49
0.125
 49
-0.125
 49
0.125
 49
-0.125
  0
ENDTAB
  0
TABLE
  2
LAYER
 70
     2
  0
LAYER
  2
0
 70
     0
 62
   255
  6
CONTINUOUS
  0
LAYER
  2
DEFPOINTS
 70
     0
 62
     7
  6
CONTINUOUS
  0
ENDTAB
  0
TABLE
  2
STYLE
 70
     1
  0
STYLE
  2
STANDARD
 70
     0
 40
0.0
 41
0.8
 50
0.0
 71
     0
 42
0.2
  3
txt
  4

  0
ENDTAB
  0
TABLE
  2
VIEW
 70
     0
  0
ENDTAB
  0
TABLE
  2
UCS
 70
     0
  0
ENDTAB
  0
TABLE
  2
APPID
 70
     9
  0
APPID
  2
ACAD
 70
     0
  0
APPID
  2
ACAD_MLEADERVER
 70
     0
  0
APPID
  2
ACAD_EXEMPT_FROM_CAD_STANDARDS
 70
     0
  0
APPID
  2
ACAD_NAV_VCDISPLAY
 70
     0
  0
APPID
  2
ACAECLAYERSTANDARD
 70
     0
  0
APPID
  2
ACCMTRANSPARENCY
 70
     0
  0
APPID
  2
ACAD_DSTYLE_DIMJAG
 70
     0
  0
APPID
  2
ACAD_DSTYLE_DIMTALN
 70
     0
  0
APPID
  2
ACDBATTR
 70
     0
  0
ENDTAB
  0
TABLE
  2
DIMSTYLE
 70
     1
  0
DIMSTYLE
  2
STANDARD
 70
     0
  3

  4

  5

  6

  7

 40
1.0
 41
0.1875
 42
0.0625
 43
0.38
 44
0.125
 45
0.0
 46
0.0
 47
0.01
 48
0.01
140
0.15625
141
0.09
142
0.0
143
25.3999999999999986
144
1.0
145
0.0
146
1.0
147
0.09
 71
     1
 72
     0
 73
     1
 74
     1
 75
     0
 76
     0
 77
     0
 78
     4
170
     0
171
     2
172
     0
173
     0
174
     0
175
     0
176
     0
177
     0
178
     0
  0
ENDTAB
  0
ENDSEC
  0
SECTION
  2
BLOCKS
  0
BLOCK
  8
0
  2
$MODEL_SPACE
 70
     0
 10
0.0
 20
0.0
 30
0.0
  3
$MODEL_SPACE
  1

  0
ENDBLK
  5
21
  8
0
  0
BLOCK
 67
     1
  8
0
  2
$PAPER_SPACE
 70
     0
 10
0.0
 20
0.0
 30
0.0
  3
$PAPER_SPACE
  1

  0
ENDBLK
  5
1D
 67
     1
  8
0
  0
BLOCK
  8
0
  2
_FILLED
 70
     0
 10
0.0
 20
0.0
 30
0.0
  3
_FILLED
  1

  0
SOLID
  5
77C3
  8
0
  6
BYBLOCK
 62
     0
 10
0.0
 20
0.0
 30
0.0
 11
-1.0
 21
0.1666666667
 31
0.0
 12
-1.0
 22
-0.1666666667
 32
0.0
 13
-1.0
 23
-0.1666666667
 33
0.0
  0
ENDBLK
  5
77C4
  8
0
  6
BYBLOCK
 62
     0
  0
ENDSEC
  0
SECTION
  2
ENTITIES
  0
LINE
  5
A984
  8
0
 10
4567.1583759458872009
 20
355.8811982407906953
 30
0.0
 11
4567.1583759325867504
 21
353.6231746002907244
 31
0.0
  0
LINE
  5
A985
  8
0
 10
4567.1583759325867504
 20
353.6231746002907244
 30
0.0
 11
4566.7707900813857123
 21
353.6323372847907081
 31
0.0
  0
ARC
  5
A986
  8
0
 10
4566.7722068390439745
 20
353.6922667980983874
 30
0.0
 40
0.0599462573273995
 50
233.4760784773133935
 51
268.6457571060477107
  0
ARC
  5
A987
  8
0
 10
4564.4457807020380642
 20
350.5510260080509966
 30
0.0
 40
3.8489733212781689
 50
53.4760784773133508
 51
63.9032943759337897
  0
ARC
  5
A988
  8
0
 10
4564.8778870214227936
 20
351.2106273954287872
 30
0.0
 40
3.0681006861198892
 50
65.7319280526888434
 51
75.7535678530645527
  0
ARC
  5
A989
  8
0
 10
4564.5411148068887996
 20
349.8905121528895847
 30
0.0
 40
4.4304949487513658
 50
75.7335985201468134
 51
82.1776369121932362
  0
ARC
  5
A98A
  8
0
 10
4565.1556259657254486
 20
354.3468944530453086
 30
0.0
 40
0.0680939774268377
 50
235.863957345580701
 51
260.267842675680015
  0
ARC
  5
A98B
  8
0
 10
4565.526727288362963
 20
354.8942667941167883
 30
0.0
 40
0.7294053045905013
 50
190.7991420134754037
 51
235.863957345580701
  0
ARC
  5
A98C
  8
0
 10
4565.6146306492328222
 20
354.9118623560005972
 30
0.0
 40
0.8190491268917272
 50
136.292994541883786
 51
190.8560699874288957
  0
ARC
  5
A98D
  8
0
 10
4565.0634676754598331
 20
355.436759094457102
 30
0.0
 40
0.0579515292991606
 50
107.3209340862224934
 51
134.909920453901691
  0
ARC
  5
A98E
  8
0
 10
4566.7669201572116435
 20
349.4760153063052144
 30
0.0
 40
6.257307361863055
 50
98.669905193257847
 51
105.9615046450735036
  0
ARC
  5
A98F
  8
0
 10
4566.5165648987403983
 20
351.1603499109427844
 30
0.0
 40
4.554484864443797
 50
97.4503310396162448
 51
98.7504778140317541
  0
ARC
  5
A990
  8
0
 10
4565.9144232338867369
 20
355.7649114051235983
 30
0.0
 40
0.0892809714102537
 50
277.4503310396161737
 51
292.3573376572921916
  0
LINE
  5
A991
  8
0
 10
4565.9483840954371772
 20
355.6823417270406935
 30
0.0
 11
4565.9480502612868804
 21
355.7689955253907215
 31
0.0
  0
ARC
  5
A992
  8
0
 10
4565.9677353007718921
 20
355.7689955253584912
 30
0.0
 40
0.0196850394857897
 50
97.5881216689673039
 51
179.9999999061267033
  0
ARC
  5
A993
  8
0
 10
4567.4327922150587256
 20
344.7715134841433837
 30
0.0
 40
11.1143235198034898
 50
92.9990922126173558
 51
97.5881216689673039
  0
LINE
  5
A994
  8
0
 10
4566.8512893183869892
 20
355.870614424490725
 30
0.0
 11
4566.8513165842587114
 21
355.8666568969330797
 31
0.0
  0
ARC
  5
A995
  8
0
 10
4565.0181153942103265
 20
400.5901514153601966
 30
0.0
 40
44.7610499043865389
 50
272.3472210025026925
 51
272.5993969203943834
  0
LINE
  5
A996
  8
0
 10
4567.048139712086595
 20
355.8751585179907124
 30
0.0
 11
4567.0481397914445552
 21
355.879070915541206
 31
0.0
  0
LINE
  5
A997
  8
0
 10
4567.0481397914445552
 20
355.879070915541206
 30
0.0
 11
4567.1583759458872009
 21
355.8811982407906953
 31
0.0
  0
LINE
  5
A998
  8
0
 10
4565.6296171221365512
 20
330.5634013076823976
 30
0.0
 11
4566.1190058605370723
 21
330.5634001350720723
 31
0.0
  0
LINE
  5
A999
  8
0
 10
4566.3710078448139029
 20
330.5634001350720723
 30
0.0
 11
4566.3710078448139029
 21
329.4216705820093125
 31
0.0
  0
LINE
  5
A99A
  8
0
 10
4566.1190058605370723
 20
329.4216705820093125
 30
0.0
 11
4565.6296171221365512
 21
329.4216694093989872
 31
0.0
  0
LINE
  5
A99B
  8
0
 10
4565.6296171221365512
 20
329.5203536069906818
 30
0.0
 11
4566.0796023014627281
 21
329.5203536069906818
 31
0.0
  0
LINE
  5
A99C
  8
0
 10
4565.6296171221365512
 20
329.8938509683907228
 30
0.0
 11
4566.0796023014627281
 21
329.8938509683907228
 31
0.0
  0
LINE
  5
A99D
  8
0
 10
4566.0796023014590901
 20
330.0912197486907189
 30
0.0
 11
4565.6296171221365512
 21
330.0912197486907189
 31
0.0
  0
LINE
  5
A99E
  8
0
 10
4565.6296171221365512
 20
330.464717110090703
 30
0.0
 11
4566.0796023014627281
 21
330.464717110090703
 31
0.0
  0
LINE
  5
A99F
  8
0
 10
4566.0796023014590901
 20
329.4216692167906899
 30
0.0
 11
4566.0796023014590901
 21
329.5203536069906818
 31
0.0
  0
ARC
  5
A9A0
  8
0
 10
4565.6382619211854035
 20
329.7071022876907023
 30
0.0
 40
0.4792247917248691
 50
337.0648439401093128
 51
22.9351560598906907
  0
LINE
  5
A9A1
  8
0
 10
4566.0796023014590901
 20
329.8938509683907228
 30
0.0
 11
4566.0796023014590901
 21
330.0912197486907189
 31
0.0
  0
LINE
  5
A9A2
  8
0
 10
4566.0796023014590901
 20
330.5634015002906949
 30
0.0
 11
4566.0796023014627281
 21
330.464717110090703
 31
0.0
  0
ARC
  5
A9A3
  8
0
 10
4565.6471808695632717
 20
330.2779684293871014
 30
0.0
 40
0.4710237409183347
 50
336.6420627169276258
 51
23.3579372840449402
  0
ARC
  5
A9A4
  8
0
 10
4566.4497145220720995
 20
330.5611041865727202
 30
0.0
 40
0.0787401576355
 50
142.0000000532077991
 51
178.329101554899097
  0
LINE
  5
A9A5
  8
0
 10
4566.3876664310701017
 20
330.6095814681323759
 30
0.0
 11
4566.8615234280996447
 21
331.2160907674980876
 31
0.0
  0
ARC
  5
A9A6
  8
0
 10
4567.016643654175823
 20
331.0948975647157226
 30
0.0
 40
0.196850392275059
 50
89.9999995458595379
 51
142.0000000532077991
  0
LINE
  5
A9A7
  8
0
 10
4567.0166436557374254
 20
331.2917479569907186
 30
0.0
 11
4567.138690899836547
 21
331.2917479569907186
 31
0.0
  0
ARC
  5
A9A8
  8
0
 10
4567.1386908980293811
 20
331.272062915783124
 30
0.0
 40
0.0196850412075805
 50
0.0000052611736083
 51
89.9999947387970849
  0
LINE
  5
A9A9
  8
0
 10
4567.1583759392369757
 20
331.2720629175906879
 30
0.0
 11
4567.1583759392369757
 21
328.7130077994906969
 31
0.0
  0
ARC
  5
A9AA
  8
0
 10
4567.1386909000084415
 20
328.7130077994199837
 30
0.0
 40
0.0196850392292762
 50
269.999999502608091
 51
0.0000002058255505
  0
LINE
  5
A9AB
  8
0
 10
4567.1386908998356375
 20
328.6933227601907106
 30
0.0
 11
4567.0166436557374254
 21
328.6933227601907106
 31
0.0
  0
ARC
  5
A9AC
  8
0
 10
4567.0166436554181928
 20
328.8901731533965744
 30
0.0
 40
0.1968503932059135
 50
217.9999999668071098
 51
270.0000000928603754
  0
LINE
  5
A9AD
  8
0
 10
4566.861523428649889
 20
328.7689799499868855
 30
0.0
 11
4566.3876664309973421
 21
329.3754892489886856
 31
0.0
  0
ARC
  5
A9AE
  8
0
 10
4566.4497145214891134
 20
329.4239665302425237
 30
0.0
 40
0.0787401570452304
 50
181.6708982639478904
 51
218.0000000000073896
  0
LINE
  5
A9AF
  8
0
 10
4567.0166436557374254
 20
331.2917479569907186
 30
0.0
 11
4567.0166436557374254
 21
328.6933227601907106
 31
0.0
  0
LINE
  5
A9B0
  8
0
 10
4565.2047464973602473
 20
355.66182167289071
 30
0.0
 11
4565.8236836990872689
 21
355.66182167289071
 31
0.0
  0
LINE
  5
A9B1
  8
0
 10
4564.8914281407869566
 20
355.9137901768907
 30
0.0
 11
4564.9119124478957019
 21
355.3326100259560008
 31
0.0
  0
ARC
  5
A9B2
  8
0
 10
4565.2049336309300998
 20
355.4649439724192916
 30
0.0
 40
0.1968777894071685
 50
90.0544600008623064
 51
124.4856553764388991
  0
ARC
  5
A9B3
  8
0
 10
4565.5841483058147787
 20
354.9130457566956807
 30
0.0
 40
0.8665011225836174
 50
124.4915932782671035
 51
130.9233457803453859
  0
ARC
  5
A9B4
  8
0
 10
4565.3133796972388154
 20
355.225372346606207
 30
0.0
 40
0.4531446926653893
 50
130.9233457803453859
 51
133.1391521042513091
  0
ARC
  5
A9B5
  8
0
 10
4565.0324314215376944
 20
355.5292270367959873
 30
0.0
 40
0.0394154750733309
 50
137.1557719548279977
 51
160.7772567153328964
  0
ARC
  5
A9B6
  8
0
 10
4565.0332152910450532
 20
355.5291115779025972
 30
0.0
 40
0.040193930785333
 50
160.9897408812360027
 51
179.8013310007576138
  0
LINE
  5
A9B7
  8
0
 10
4564.9930216018856299
 20
355.5292509471906897
 30
0.0
 11
4564.9930216018856299
 21
355.4451949581542749
 31
0.0
  0
ARC
  5
A9B8
  8
0
 10
4565.6036814294729993
 20
354.8837839775378029
 30
0.0
 40
0.7741130796001251
 50
101.5813441081851067
 51
123.8304542651096938
  0
ARC
  5
A9B9
  8
0
 10
4565.575427941936141
 20
354.2757133310644235
 30
0.0
 40
1.372327021419345
 50
84.6834796772022145
 51
95.3165203227978139
  0
ARC
  5
A9BA
  8
0
 10
4565.5794646463600657
 20
354.9895782091342085
 30
0.0
 40
0.6453796433453666
 50
84.2663707443573742
 51
101.970076931398907
  0
ARC
  5
A9BB
  8
0
 10
4565.5746660077793422
 20
354.9422511778938087
 30
0.0
 40
0.6908347533936061
 50
100.7665753238976976
 51
119.7272073855845065
  0
LINE
  5
AA53
  8
0
 10
4566.1190058605370723
 20
330.5634001350720723
 30
0.0
 11
4566.1190058605370723
 21
329.4216705820093125
 31
0.0
  0
LINE
  5
AA54
  8
0
 10
4566.3709743644367336
 20
329.4767873269906886
 30
0.0
 11
4566.1189723802599474
 21
329.4767873269906886
 31
0.0
  0
LINE
  5
AA55
  8
0
 10
4566.3709743644367336
 20
330.5082833899907087
 30
0.0
 11
4566.1189723802599474
 21
330.5082833899907087
 31
0.0
  0
LINE
  5
AA56
  8
0
 10
4564.8914281407869566
 20
355.9137901768907
 30
0.0
 11
4565.7969399501871521
 21
355.9137901768907
 31
0.0
  0
LINE
  5
AA57
  8
0
 10
4565.7969399501871521
 20
355.9137901768907
 30
0.0
 11
4565.7906100497903026
 21
355.66182167289071
 31
0.0
  0
LINE
  5
ACE7
  8
0
 10
4565.0587509737861183
 20
321.7043707854542731
 30
0.0
 11
4565.0587509737861183
 21
354.3347757152249073
 31
0.0
  0
LINE
  5
ACE8
  8
0
 10
4565.6296171154872354
 20
322.119436570469702
 30
0.0
 11
4565.6296171154872354
 21
354.1852121674527893
 31
0.0
  0
ARC
  5
ACE9
  8
0
 10
4581.0697545473130958
 20
321.6350200726521962
 30
0.0
 40
18.5823865964749899
 50
179.5791680189095132
 51
191.7990342424540131
  0
ARC
  5
ACEA
  8
0
 10
4568.2170294251436644
 20
318.9501719964030144
 30
0.0
 40
5.4522322844130029
 50
191.7990342424540131
 51
206.843087735758786
  0
ARC
  5
ACEB
  8
0
 10
4564.4724699184052952
 20
317.0551230069734174
 30
0.0
 40
1.2554553577890839
 50
206.843087735758786
 51
223.8821238474731103
  0
ARC
  5
ACEC
  8
0
 10
4564.0013139991870048
 20
316.6020025803903195
 30
0.0
 40
0.601768872384208
 50
223.8821238474708082
 51
237.4763984350898056
  0
ARC
  5
ACED
  8
0
 10
4563.786920764385286
 20
316.2679164498600244
 30
0.0
 40
0.2048128055192482
 50
237.7979849816559863
 51
266.199066449620716
  0
ARC
  5
ACEE
  8
0
 10
4563.7618043600150486
 20
316.2635609814519171
 30
0.0
 40
0.2003394309622356
 50
273.3020014741009049
 51
303.1060578135214882
  0
ARC
  5
ACEF
  8
0
 10
4549.3394945538193497
 20
321.5130940347103774
 30
0.0
 40
15.7204201340837706
 50
342.291887295330298
 51
0.6971582741059348
  0
ARC
  5
ACF0
  8
0
 10
4562.430157954346214
 20
317.5006096229654986
 30
0.0
 40
2.0357933659344778
 50
321.4037774509974952
 51
337.8012839190433851
  0
ARC
  5
ACF1
  8
0
 10
4563.5409416822585627
 20
316.6140025179337272
 30
0.0
 40
0.6145570559250372
 50
302.5093869230938139
 51
321.4037774509974952
  0
ARC
  5
ACF2
  8
0
 10
4550.3409021580637273
 20
321.400895551809981
 30
0.0
 40
15.3055906859164494
 50
341.469222319853202
 51
2.6908145016604998
  0
ARC
  5
ACF3
  8
0
 10
4562.8723171192796144
 20
317.2495042706167965
 30
0.0
 40
2.1050345011048299
 50
313.1547025208357127
 51
340.2033248580127065
  0
ARC
  5
ACF4
  8
0
 10
4563.7517050790665962
 20
316.3115663285969958
 30
0.0
 40
0.8193242822387995
 50
292.0608375017068852
 51
313.1547025208357127
  0
ARC
  5
ACF5
  8
0
 10
4563.8206623910673443
 20
316.3725930374956761
 30
0.0
 40
0.8822758744395747
 50
237.1952712183579877
 51
265.819342747138819
  0
ARC
  5
ACF6
  8
0
 10
4563.7435890669694345
 20
316.3502316439161746
 30
0.0
 40
0.8582355904200998
 50
272.2619548496568882
 51
291.5934767082576968
  0
ARC
  5
ACF7
  8
0
 10
4583.1092651663302604
 20
321.7944173989533851
 30
0.0
 40
21.1987551742505111
 50
179.997990684053093
 51
189.4287364498626118
  0
ARC
  5
ACF8
  8
0
 10
4571.1520799795271159
 20
319.8256225552897831
 30
0.0
 40
9.0805958895714145
 50
189.5337197897831913
 51
199.8561115253916114
  0
ARC
  5
ACF9
  8
0
 10
4565.7980208846602181
 20
317.8921175581750163
 30
0.0
 40
3.388110460060147
 50
199.8561115253916114
 51
215.6383383166798922
  0
ARC
  5
ACFA
  8
0
 10
4563.970557843395909
 20
316.5819320676093866
 30
0.0
 40
1.1395092978106489
 50
215.6383383166798922
 51
236.5629627328420952
  0
LINE
  5
ACFB
  8
0
 10
4561.7489271219383227
 20
329.2681259097906832
 30
0.0
 11
4562.5682143768663082
 21
329.2681259097906832
 31
0.0
  0
LINE
  5
ACFC
  8
0
 10
4562.6544389313357897
 20
329.2641135834933834
 30
0.0
 11
4562.6544389313357897
 21
328.7484324875385937
 31
0.0
  0
LINE
  5
ACFD
  8
0
 10
4561.7489271250360616
 20
328.7484324875385937
 30
0.0
 11
4561.7489271250360616
 21
329.2681259097906832
 31
0.0
  0
ARC
  5
ACFE
  8
0
 10
4562.696752438171643
 20
331.1030537445246864
 30
0.0
 40
1.8394269076847229
 50
266.0027079657626814
 51
269.3627854804453818
  0
ARC
  5
ACFF
  8
0
 10
4562.5039090741383916
 20
313.7640651034608936
 30
0.0
 40
15.50063409734042
 50
86.7851441169079152
 51
89.3627854804454671
  0
ARC
  5
AD00
  8
0
 10
19943.5531819397183426
 20
457667.2528171131270938
 30
0.0
 40
457596.555521265079733
 50
268.0738810374519971
 51
268.0740922062183245
  0
ARC
  5
AD01
  8
0
 10
4562.6915074169601212
 20
330.5180758100476055
 30
0.0
 40
1.2559883349684691
 50
257.0559281306512958
 51
264.3794195896002179
  0
ARC
  5
AD02
  8
0
 10
4562.1751368073182675
 20
328.1918582219058749
 30
0.0
 40
1.1269260448259371
 50
77.9621399240956237
 51
93.9384885537044596
  0
ARC
  5
AD03
  8
0
 10
4570.0712731291841919
 20
235.2420125949140015
 30
0.0
 40
94.4114164812503844
 50
94.844700347126448
 51
94.9972121531662452
  0
ARC
  5
AD04
  8
0
 10
4563.1746338529237619
 20
386.4169081436671149
 30
0.0
 40
57.1377608697792212
 50
267.7259020768345863
 51
268.6689280422610864
  0
ARC
  5
AD05
  8
0
 10
4563.0795007936840193
 20
330.2924381904506959
 30
0.0
 40
3.2960757545755621
 50
177.2907393250729058
 51
189.0942728130438013
  0
ARC
  5
AD06
  8
0
 10
4560.5708079630985594
 20
329.89086789663952
 30
0.0
 40
0.7554462225296829
 50
189.0942728130438013
 51
209.904680094176598
  0
ARC
  5
AD07
  8
0
 10
4560.1537715697022577
 20
329.6723960639313873
 30
0.0
 40
0.2856166552009686
 50
213.6251709737638862
 51
232.0577905359124031
  0
ARC
  5
AD08
  8
0
 10
4559.985106168497623
 20
329.457369084092079
 30
0.0
 40
0.0123590098244809
 50
235.7782814155019082
 51
261.174280410671372
  0
LINE
  5
AD09
  8
0
 10
4559.9832099326868047
 20
329.4451564097906839
 30
0.0
 11
4560.3286808827915593
 21
329.3971872988162204
 31
0.0
  0
ARC
  5
AD0A
  8
0
 10
4560.5463006321388093
 20
329.8720437523274995
 30
0.0
 40
0.5223507624547973
 50
244.3766074691044992
 51
255.5590297059175953
  0
LINE
  5
AD0B
  8
0
 10
4560.4160355323374461
 20
329.366196618490676
 30
0.0
 11
4560.4198200510372772
 21
329.3876596904873963
 31
0.0
  0
ARC
  5
AD0C
  8
0
 10
4557.0853045260937506
 20
305.0310605147136016
 30
0.0
 40
24.5837937917519405
 50
82.2044415889726992
 51
82.4382310473668269
  0
ARC
  5
AD0D
  8
0
 10
4560.6489009796296159
 20
330.9095266933761081
 30
0.0
 40
1.539011775889586
 50
261.4397484144827786
 51
265.2578096823853002
  0
ARC
  5
AD0E
  8
0
 10
4560.4136762482166887
 20
327.9936964818119236
 30
0.0
 40
1.386299392213393
 50
81.9773275901068956
 51
85.5322044115938951
  0
ARC
  5
AD0F
  8
0
 10
4560.2093139056287328
 20
326.4963691448617169
 30
0.0
 40
2.8975016298058391
 50
80.7094171168241132
 51
82.1080782590405249
  0
ARC
  5
AD10
  8
0
 10
4561.143664320696189
 20
331.8919543710121047
 30
0.0
 40
2.5786535936547081
 50
259.575675607683479
 51
264.7430787221261994
  0
ARC
  5
AD11
  8
0
 10
4560.5675846177127823
 20
329.9437598793386996
 30
0.0
 40
0.597486044205413
 50
265.1284209303909165
 51
280.4113577852144772
  0
LINE
  5
AD12
  8
0
 10
4560.5168444975652164
 20
329.3484322273454836
 30
0.0
 11
4560.5216672283359003
 21
329.3757832927843765
 31
0.0
  0
ARC
  5
AD13
  8
0
 10
4560.6717272359546769
 20
331.1427312459313157
 30
0.0
 40
1.775726064937698
 50
261.8293099071000256
 51
265.1387161012204956
  0
ARC
  5
AD14
  8
0
 10
4517.0682493382228131
 20
-0.2793414845637585
 30
0.0
 40
332.505516272019122
 50
82.5258123810899065
 51
82.5843242778660738
  0
ARC
  5
AD15
  8
0
 10
4559.8464867546063033
 20
330.4449209843436961
 30
0.0
 40
0.0594700293532488
 50
92.2199157396104283
 51
176.8037840151802982
  0
ARC
  5
AD16
  8
0
 10
4563.1617007505419679
 20
330.8002345490713196
 30
0.0
 40
0.2958888009017034
 50
270.118611096390282
 51
359.8813809090756877
  0
LINE
  5
AD17
  8
0
 10
4563.4575889173365795
 20
330.7996219727907032
 30
0.0
 11
4563.4575889357383858
 21
332.0013488097300183
 31
0.0
  0
LINE
  5
AD18
  8
0
 10
4563.4575889357383858
 20
332.0013488097300183
 30
0.0
 11
4565.058750980437253
 21
331.8612657244908064
 31
0.0
  0
LINE
  5
AD19
  8
0
 10
4565.058750980437253
 20
332.206535443790699
 30
0.0
 11
4564.5297905333072777
 21
332.044816004444499
 31
0.0
  0
ARC
  5
AD1A
  8
0
 10
4564.4722369068203989
 20
332.233065432734918
 30
0.0
 40
0.1968508754703722
 50
265.0000081736623088
 51
287.0000001367545224
  0
LINE
  5
AD1B
  8
0
 10
4564.4550802505327738
 20
332.0369636318289963
 30
0.0
 11
4563.4969884885676947
 21
332.1207856618933079
 31
0.0
  0
ARC
  5
AD1C
  8
0
 10
4563.4987041475942533
 20
332.1403957665116877
 30
0.0
 40
0.0196850117865406
 50
180.1300043399475044
 51
265.0000081736623088
  0
LINE
  5
AD1D
  8
0
 10
4563.4790191864804001
 20
332.1403511011840237
 30
0.0
 11
4563.4790115486594004
 21
332.2567721656822073
 31
0.0
  0
ARC
  5
AD1E
  8
0
 10
4562.6531125922192587
 20
332.3864553355982139
 30
0.0
 40
0.8360191116222628
 50
351.0765230455306778
 51
353.0315578031371047
  0
LINE
  5
AD1F
  8
0
 10
4563.4829561353371901
 20
332.2850272874907205
 30
0.0
 11
4563.4829561353371901
 21
332.4807341726906884
 31
0.0
  0
ARC
  5
AD20
  8
0
 10
4563.9388437044008242
 20
332.5484198516912784
 30
0.0
 40
0.4608848302650608
 50
179.7889384194149898
 51
188.4450192365985117
  0
ARC
  5
AD21
  8
0
 10
4562.5626668622626312
 20
332.5534893240986207
 30
0.0
 40
0.9153013491397315
 50
359.7889384194151035
 51
15.1676115106303495
  0
ARC
  5
AD22
  8
0
 10
4563.0023816538396204
 20
332.6726903168435001
 30
0.0
 40
0.4597160392338006
 50
15.1676115106303495
 51
53.7248549448310371
  0
ARC
  5
AD23
  8
0
 10
4562.9263435725197269
 20
332.569082842092314
 30
0.0
 40
0.5882317917120542
 50
53.7248549448310371
 51
74.0660339041890552
  0
LINE
  5
AD24
  8
0
 10
4563.0878304405368908
 20
333.134714022490698
 30
0.0
 11
4560.6550882565370557
 21
333.729468845190695
 31
0.0
  0
ARC
  5
AD25
  8
0
 10
4560.6704541182898538
 20
333.8213628451492241
 30
0.0
 40
0.093169828462761
 50
214.5196338088472032
 51
260.5072297752466852
  0
ARC
  5
AD26
  8
0
 10
4560.7154141511491616
 20
333.8378135961954172
 30
0.0
 40
0.1400448496496873
 50
178.774503478919911
 51
209.6353041448201111
  0
ARC
  5
AD27
  8
0
 10
4560.9212633979977909
 20
333.8475781829300786
 30
0.0
 40
0.3459283042614134
 50
174.3640167639516108
 51
181.1212814100956052
  0
ARC
  5
AD28
  8
0
 10
4560.6021494445940334
 20
333.8765128946088794
 30
0.0
 40
0.0256419336766236
 50
96.090773698191839
 51
168.6686768402634868
  0
ARC
  5
AD29
  8
0
 10
4559.5481019829612706
 20
308.5937334567120729
 30
0.0
 40
25.3302858060874385
 50
87.2774193961758016
 51
87.6113584171303046
  0
ARC
  5
AD2A
  8
0
 10
4560.5819256986806067
 20
332.4392420161150881
 30
0.0
 40
1.4660016732465251
 50
77.2734704607837415
 51
83.3657804134742548
  0
LINE
  5
AD2B
  8
0
 10
4560.9048827599490323
 20
333.8692279050453067
 30
0.0
 11
4564.3875561816994377
 21
333.0899665528530136
 31
0.0
  0
ARC
  5
AD2C
  8
0
 10
4560.3328346351427172
 20
314.3052808499135153
 30
0.0
 40
19.217314686977339
 50
75.7638081015015388
 51
77.8194409391917219
  0
ARC
  5
AD2D
  8
0
 10
4565.9113286951323971
 20
331.9220413225909851
 30
0.0
 40
2.0875984251945541
 50
175.3413266904939007
 51
178.7037089104057088
  0
LINE
  5
AD2E
  8
0
 10
4562.1229428923570595
 20
330.5043463821907039
 30
0.0
 11
4562.1229428923570595
 21
330.7287558309906785
 31
0.0
  0
LINE
  5
AD2F
  8
0
 10
4562.0737302939560323
 20
330.7287558309906785
 30
0.0
 11
4562.3296358057568796
 21
330.7287558309906785
 31
0.0
  0
ARC
  5
AD30
  8
0
 10
4562.0737302939560323
 20
330.7385983506907223
 30
0.0
 40
0.0098425197
 50
180.0
 51
270.0
  0
LINE
  5
AD31
  8
0
 10
4562.0638877742558179
 20
330.7385983506907223
 30
0.0
 11
4562.0638877742558179
 21
330.9295432325906745
 31
0.0
  0
ARC
  5
AD32
  8
0
 10
4562.0442027348572083
 20
330.9295432325906745
 30
0.0
 40
0.0196850394
 50
0.0
 51
90.0
  0
LINE
  5
AD33
  8
0
 10
4561.9654625774574015
 20
330.9492282719907053
 30
0.0
 11
4562.437903606679356
 21
330.9492282719907053
 31
0.0
  0
ARC
  5
AD34
  8
0
 10
4561.9753050969566175
 20
331.3547400853908016
 30
0.0
 40
0.0196850392999948
 50
91.6722861473473216
 51
180.0000069855263973
  0
LINE
  5
AD35
  8
0
 10
4561.9556200576571428
 20
331.3547400829907019
 30
0.0
 11
4561.9556201058967417
 21
330.9590707916906922
 31
0.0
  0
ARC
  5
AD36
  8
0
 10
4561.9654626267965796
 20
330.9590707928907136
 30
0.0
 40
0.0098425209001288
 50
180.0000069855134086
 51
269.9997127782785924
  0
LINE
  5
AD37
  8
0
 10
4562.2804232073567618
 20
330.5043463821907039
 30
0.0
 11
4562.2804232073567618
 21
330.7287558309906785
 31
0.0
  0
ARC
  5
AD38
  8
0
 10
4562.3296358057568796
 20
330.7385983506907223
 30
0.0
 40
0.0098425197
 50
270.0
 51
0.0
  0
LINE
  5
AD39
  8
0
 10
4562.3394783254580034
 20
330.7385983506907223
 30
0.0
 11
4562.3394783254580034
 21
330.9295432325906745
 31
0.0
  0
ARC
  5
AD3A
  8
0
 10
4562.359163364856613
 20
330.9295432325906745
 30
0.0
 40
0.0196850394
 50
90.0
 51
180.0
  0
ARC
  5
AD3B
  8
0
 10
4562.4280610027581133
 20
331.3547400853906879
 30
0.0
 40
0.0196850393000007
 50
359.9999930145127109
 51
88.3277138527048749
  0
LINE
  5
AD3C
  8
0
 10
4562.4477460420575881
 20
331.3547400829907019
 30
0.0
 11
4562.4477459938170796
 21
330.9590707916906922
 31
0.0
  0
ARC
  5
AD3D
  8
0
 10
4562.437903606679356
 20
330.9590706591288267
 30
0.0
 40
0.0098423871384033
 50
269.9995085493588931
 51
0.0007716868719207
  0
ARC
  5
AD3E
  8
0
 10
4561.6397849634358863
 20
329.9213511800149945
 30
0.0
 40
2.952402885102531
 50
351.985857823762899
 51
1.3815689855315521
  0
ARC
  5
AD3F
  8
0
 10
4564.3041528864323482
 20
329.5618650673105776
 30
0.0
 40
0.264391166738009
 50
312.0865127128626
 51
348.6283558571595904
  0
ARC
  5
AD40
  8
0
 10
4564.5443469168367301
 20
330.4413621012907925
 30
0.0
 40
0.0629853376999943
 50
90.3319058511705606
 51
180.0000000000032117
  0
LINE
  5
AD41
  8
0
 10
4564.4813615791372285
 20
330.4413621012906788
 30
0.0
 11
4564.4813615791372285
 21
329.3656528472876062
 31
0.0
  0
ARC
  5
AD42
  8
0
 10
4564.6667254792828317
 20
329.3656528472876062
 30
0.0
 40
0.1853639001468323
 50
180.0000000000065086
 51
243.3853874789120937
  0
ARC
  5
AD43
  8
0
 10
4564.6222465594346431
 20
330.4414659604435087
 30
0.0
 40
0.0628807591581709
 50
89.8123025041542036
 51
180.0984147060459009
  0
ARC
  5
AD44
  8
0
 10
4562.2905116599731628
 20
330.0542280664300847
 30
0.0
 40
2.301644863946803
 50
358.4640744406885915
 51
9.6830085033614974
  0
ARC
  5
AD45
  8
0
 10
4565.5835727829871757
 20
354.9137901768907
 30
0.0
 40
0.7204724409000463
 50
245.5130616739184859
 51
271.0391016603903154
  0
ARC
  5
AD46
  8
0
 10
4560.8561725543286229
 20
363.1816671678404873
 30
0.0
 40
0.0590581985667168
 50
132.9945113953774865
 51
224.9962519006805053
  0
LINE
  5
AD47
  8
0
 10
4560.8140119418476388
 20
363.1403107466840083
 30
0.0
 11
4563.1235059019918481
 21
360.8308130808738952
 31
0.0
  0
ARC
  5
AD48
  8
0
 10
4558.8119447894987388
 20
365.2821750939576191
 30
0.0
 40
2.9604181547937638
 50
312.980997724074598
 51
313.0864761902325881
  0
ARC
  5
AD49
  8
0
 10
4560.8436390326196488
 20
363.1020005564486723
 30
0.0
 40
0.0196728692410863
 50
132.9809977240767864
 51
189.2916790639089868
  0
ARC
  5
AD4A
  8
0
 10
4560.8722773807985504
 20
363.1066859953028825
 30
0.0
 40
0.0486919719774637
 50
189.2916790639058036
 51
207.902909919465003
  0
ARC
  5
AD4B
  8
0
 10
4564.1756558961560586
 20
364.5691608084736117
 30
0.0
 40
3.661210051277739
 50
203.9334336549511022
 51
207.0725066401774939
  0
LINE
  5
AD4C
  8
0
 10
4560.8530305930653412
 20
362.8757789117087214
 30
0.0
 11
4560.9660229473493018
 21
362.7627863761242111
 31
0.0
  0
LINE
  5
AD4D
  8
0
 10
4560.9895429762700587
 20
362.7392663094648242
 30
0.0
 11
4561.0687701313463549
 21
362.6600390272649861
 31
0.0
  0
LINE
  5
AD4E
  8
0
 10
4561.1496304509237234
 20
362.5791785779441057
 30
0.0
 11
4561.2315282205518088
 21
362.4972806769076215
 31
0.0
  0
LINE
  5
AD4F
  8
0
 10
4560.8914919978433318
 20
362.9504607870852055
 30
0.0
 11
4560.8520162492377494
 21
362.9017123772525224
 31
0.0
  0
ARC
  5
AD50
  8
0
 10
4560.8673143882460863
 20
362.8893241682475832
 30
0.0
 40
0.019685039484073
 50
140.9999540869054897
 51
223.4798182190081093
  0
LINE
  5
AD51
  8
0
 10
4560.9255303532791004
 20
362.9151031601796262
 30
0.0
 11
4560.8866489449374058
 21
362.8670886983607033
 31
0.0
  0
ARC
  5
AD52
  8
0
 10
4560.9019467846646876
 20
362.8547007316801114
 30
0.0
 40
0.0196846543991438
 50
140.9999540202369133
 51
225.0009630434956875
  0
ARC
  5
AD53
  8
0
 10
4560.4540495521014236
 20
362.5699833593122889
 30
0.0
 40
0.5842957456976459
 50
21.0171249967114093
 51
36.2037635742068105
  0
LINE
  5
AD54
  8
0
 10
4561.0253158821296893
 20
362.8114512544315744
 30
0.0
 11
4560.9881652940257482
 21
362.7655734142336996
 31
0.0
  0
ARC
  5
AD55
  8
0
 10
4561.0034708196926658
 20
362.7531853260434218
 30
0.0
 40
0.019690704531504
 50
141.0137536682682082
 51
224.9818384674171909
  0
ARC
  5
AD56
  8
0
 10
4560.9797538597904349
 20
362.7765610757966215
 30
0.0
 40
0.0194494294912032
 50
225.0912112560750131
 51
283.4972214764244995
  0
ARC
  5
AD57
  8
0
 10
4560.8012239423778738
 20
362.5857032495105727
 30
0.0
 40
0.3180870308381934
 50
16.9545740095499404
 51
45.2109308371745229
  0
ARC
  5
AD58
  8
0
 10
4561.092210982389588
 20
362.6744147082670793
 30
0.0
 40
0.0138779245152805
 50
337.179103539292214
 51
16.9545740095468211
  0
LINE
  5
AD59
  8
0
 10
4561.1050025673812343
 20
362.6690321306069222
 30
0.0
 11
4561.0937924006466346
 21
362.6599543064388058
 31
0.0
  0
ARC
  5
AD5A
  8
0
 10
4561.0813333347623484
 20
362.6753751606062224
 30
0.0
 40
0.0198250111202949
 50
230.6760168585682038
 51
308.9360023685810006
  0
ARC
  5
AD5B
  8
0
 10
4561.1655462656653981
 20
362.5916218855728061
 30
0.0
 40
0.020202699413949
 50
141.8625557418999108
 51
218.0190191966578936
  0
LINE
  5
AD5C
  8
0
 10
4561.1496562040647405
 20
362.6040980631112802
 30
0.0
 11
4561.1834278720798466
 21
362.6471107473582833
 31
0.0
  0
ARC
  5
AD5D
  8
0
 10
4561.0931657552191609
 20
362.4948920758777717
 30
0.0
 40
0.1769682844111407
 50
4.8911056841845513
 51
59.3330492338451165
  0
LINE
  5
AD5E
  8
0
 10
4561.2694896173898087
 20
362.5099807907553782
 30
0.0
 11
4561.2552799848035647
 21
362.498474093036009
 31
0.0
  0
ARC
  5
AD5F
  8
0
 10
4561.2425757299015459
 20
362.5143639351579168
 30
0.0
 40
0.0203441680896616
 50
237.1098039082677928
 51
308.6430531501858923
  0
LINE
  5
AD60
  8
0
 10
4561.3626713095482046
 20
362.3661373774884282
 30
0.0
 11
4561.4445690791771995
 21
362.2842394764520009
 31
0.0
  0
ARC
  5
AD61
  8
0
 10
4561.3785871242889698
 20
362.3785806851170719
 30
0.0
 40
0.020202699413949
 50
141.8625557418999108
 51
218.0190191966578936
  0
LINE
  5
AD62
  8
0
 10
4561.3626970626901311
 20
362.3910568626556028
 30
0.0
 11
4561.3964687307052372
 21
362.4340695469026059
 31
0.0
  0
ARC
  5
AD63
  8
0
 10
4561.3062066138436421
 20
362.2818508754220943
 30
0.0
 40
0.1769682844111407
 50
4.8911056841845513
 51
59.3330492338451165
  0
LINE
  5
AD64
  8
0
 10
4561.4825304760142899
 20
362.2969395902998144
 30
0.0
 11
4561.4683208434271364
 21
362.2854328925802747
 31
0.0
  0
ARC
  5
AD65
  8
0
 10
4561.455616588526027
 20
362.3013227347021825
 30
0.0
 40
0.0203441680896616
 50
237.1098039082677928
 51
308.6430531501858923
  0
LINE
  5
AD66
  8
0
 10
4561.6061466217734051
 20
362.1226616745981914
 30
0.0
 11
4561.6880443914023999
 21
362.0407637735618209
 31
0.0
  0
ARC
  5
AD67
  8
0
 10
4561.6220624365141703
 20
362.1351049822270056
 30
0.0
 40
0.020202699413949
 50
141.8625557418999108
 51
218.0190191966578936
  0
LINE
  5
AD68
  8
0
 10
4561.6061723749153316
 20
362.1475811597654229
 30
0.0
 11
4561.6399440429286187
 21
362.1905938440124828
 31
0.0
  0
ARC
  5
AD69
  8
0
 10
4561.5496819260688426
 20
362.0383751725320849
 30
0.0
 40
0.1769682844111407
 50
4.8911056841845513
 51
59.3330492338451165
  0
LINE
  5
AD6A
  8
0
 10
4561.7260057882403999
 20
362.0534638874095776
 30
0.0
 11
4561.7117961556523369
 21
362.0419571896900948
 31
0.0
  0
ARC
  5
AD6B
  8
0
 10
4561.6990919007512275
 20
362.0578470318120026
 30
0.0
 40
0.0203441680896616
 50
237.1098039082677928
 51
308.6430531501858923
  0
LINE
  5
AD6C
  8
0
 10
4561.8662224011513899
 20
361.8625854779190831
 30
0.0
 11
4561.9481201707803848
 21
361.7806875768827126
 31
0.0
  0
ARC
  5
AD6D
  8
0
 10
4561.8821382158930646
 20
361.8750287855478973
 30
0.0
 40
0.020202699413949
 50
141.8625557418999108
 51
218.0190191966578936
  0
LINE
  5
AD6E
  8
0
 10
4561.8662481542933165
 20
361.8875049630864282
 30
0.0
 11
4561.9000198223066036
 21
361.9305176473333745
 31
0.0
  0
ARC
  5
AD6F
  8
0
 10
4561.1680135522337878
 20
361.1198882331111122
 30
0.0
 40
1.09222398189685
 50
39.3518161894352616
 51
47.9176557339704203
  0
LINE
  5
AD70
  8
0
 10
4562.0125944091278143
 20
361.8124461027492202
 30
0.0
 11
4561.9737941748708181
 21
361.7799695885938149
 31
0.0
  0
ARC
  5
AD71
  8
0
 10
4561.9613773300270623
 20
361.7953526686139867
 30
0.0
 40
0.0197690967622833
 50
227.8865984488120091
 51
308.9096177282302165
  0
LINE
  5
AD72
  8
0
 10
4561.5747249692585683
 20
361.8534207735813197
 30
0.0
 11
4561.4961627535749358
 21
361.9319831153218843
 31
0.0
  0
LINE
  5
AD73
  8
0
 10
4561.60783375965093
 20
361.8203119300646904
 30
0.0
 11
4561.6871920079356642
 21
361.7409535544468895
 31
0.0
  0
LINE
  5
AD74
  8
0
 10
4561.6278363122219162
 20
361.8730220445896748
 30
0.0
 11
4561.6064552393418126
 21
361.846619370141525
 31
0.0
  0
ARC
  5
AD75
  8
0
 10
4561.6217529928553631
 20
361.83423114093398
 30
0.0
 40
0.0196847526128761
 50
140.99920225706731
 51
225.000706115116202
  0
ARC
  5
AD76
  8
0
 10
4561.588328526211626
 20
361.867649055782806
 30
0.0
 40
0.0196850393999947
 50
226.2858694024984914
 51
308.999953784465788
  0
LINE
  5
AD77
  8
0
 10
4561.6007167105653934
 20
361.852350896919404
 30
0.0
 11
4561.6209457121267405
 21
361.8687319923747054
 31
0.0
  0
LINE
  5
AD78
  8
0
 10
4561.5966963167938957
 20
361.896474668304279
 30
0.0
 11
4561.6227191600974038
 21
361.8667030678747096
 31
0.0
  0
ARC
  5
AD79
  8
0
 10
4561.2156865830284005
 20
361.3812730430057059
 30
0.0
 40
0.6416264332412864
 50
36.066795317025111
 51
50.0326075574889089
  0
LINE
  5
AD7A
  8
0
 10
4561.734333251467433
 20
361.7590164918577784
 30
0.0
 11
4561.7120790310109442
 21
361.7409954090102246
 31
0.0
  0
ARC
  5
AD7B
  8
0
 10
4561.6996094343658115
 20
361.7564848735640908
 30
0.0
 40
0.0198850283544237
 50
231.357356373318197
 51
308.835361591436822
  0
LINE
  5
AD7C
  8
0
 10
4561.5811057898581566
 20
361.9021692351269053
 30
0.0
 11
4561.5031683215529483
 21
361.9801068284714916
 31
0.0
  0
ARC
  5
AD7D
  8
0
 10
4561.5170762554444082
 20
361.9940147400498063
 30
0.0
 40
0.0196687729558978
 50
141.7202185086337067
 51
224.9999540390724917
  0
LINE
  5
AD7E
  8
0
 10
4561.501636366447201
 20
362.0061995854467227
 30
0.0
 11
4561.5259571632477673
 21
362.037017407971689
 31
0.0
  0
ARC
  5
AD7F
  8
0
 10
4561.1154544599321525
 20
361.5797752911853991
 30
0.0
 40
0.6144776829081872
 50
33.3848713518479272
 51
48.0831481335512692
  0
LINE
  5
AD80
  8
0
 10
4561.6285392614208831
 20
361.9178978388258088
 30
0.0
 11
4561.6074134102700555
 21
361.9007904899846721
 31
0.0
  0
ARC
  5
AD81
  8
0
 10
4561.5950252258699038
 20
361.916088648810728
 30
0.0
 40
0.0196850393999992
 50
224.999954046831192
 51
308.9999539567414217
  0
LINE
  5
AD82
  8
0
 10
4561.5086091523317009
 20
361.9746659889631246
 30
0.0
 11
4561.4950929189226372
 21
361.9579748581965077
 31
0.0
  0
ARC
  5
AD83
  8
0
 10
4561.5103910578327486
 20
361.9455866492041878
 30
0.0
 40
0.0196850393999976
 50
140.9999539361978123
 51
223.7140376944959996
  0
LINE
  5
AD84
  8
0
 10
4561.4992612444621045
 20
362.0847853556210225
 30
0.0
 11
4561.4213237761568962
 21
362.1627229489656088
 31
0.0
  0
ARC
  5
AD85
  8
0
 10
4561.4352317100474465
 20
362.1766308605438098
 30
0.0
 40
0.0196687729558978
 50
141.7202185086337067
 51
224.9999540390724917
  0
LINE
  5
AD86
  8
0
 10
4561.4197918210511489
 20
362.1888157059407831
 30
0.0
 11
4561.4441126178517152
 21
362.2196335284658062
 31
0.0
  0
ARC
  5
AD87
  8
0
 10
4561.0336099145370099
 20
361.7623914116795163
 30
0.0
 40
0.6144776829081872
 50
33.3848713518479272
 51
48.0831481335512692
  0
LINE
  5
AD88
  8
0
 10
4561.546694716024831
 20
362.100513959319926
 30
0.0
 11
4561.5255688648730938
 21
362.0834066104786757
 31
0.0
  0
ARC
  5
AD89
  8
0
 10
4561.5131806804738517
 20
362.0987047693049021
 30
0.0
 40
0.0196850393999992
 50
224.999954046831192
 51
308.9999539567414217
  0
LINE
  5
AD8A
  8
0
 10
4561.4027792425658845
 20
362.0804895864188211
 30
0.0
 11
4561.3248417742597667
 21
362.1584271797634074
 31
0.0
  0
ARC
  5
AD8B
  8
0
 10
4561.338749708152136
 20
362.1723350913417221
 30
0.0
 40
0.0196687729558978
 50
141.7202185086337067
 51
224.9999540390724917
  0
LINE
  5
AD8C
  8
0
 10
4561.3233098191549288
 20
362.1845199367386954
 30
0.0
 11
4561.3476306159564047
 21
362.2153377592636048
 31
0.0
  0
ARC
  5
AD8D
  8
0
 10
4560.9371279126398804
 20
361.7580956424773149
 30
0.0
 40
0.6144776829081872
 50
33.3848713518479272
 51
48.0831481335512692
  0
LINE
  5
AD8E
  8
0
 10
4561.450212714128611
 20
362.0962181901177246
 30
0.0
 11
4561.4290868629777833
 21
362.079110841276588
 31
0.0
  0
ARC
  5
AD8F
  8
0
 10
4561.4166986785776317
 20
362.094409000102587
 30
0.0
 40
0.0196850393999992
 50
224.999954046831192
 51
308.9999539567414217
  0
LINE
  5
AD90
  8
0
 10
4561.337720423056453
 20
362.1455549924509114
 30
0.0
 11
4561.2597829547494257
 21
362.2234925857956114
 31
0.0
  0
ARC
  5
AD91
  8
0
 10
4561.2736908886408855
 20
362.2374004973738124
 30
0.0
 40
0.0196687729558978
 50
141.7202185086337067
 51
224.9999540390724917
  0
LINE
  5
AD92
  8
0
 10
4561.2582509996427689
 20
362.249585342770672
 30
0.0
 11
4561.2866565873082436
 21
362.2855791618276271
 31
0.0
  0
ARC
  5
AD93
  8
0
 10
4567.3629349901666501
 20
366.6715460356808762
 30
0.0
 40
7.4938551258739672
 50
215.4315386997915027
 51
216.5475815642730879
  0
LINE
  5
AD94
  8
0
 10
4561.3409800785066182
 20
362.2958406830056788
 30
0.0
 11
4561.3255909023064305
 21
362.2833787941822834
 31
0.0
  0
ARC
  5
AD95
  8
0
 10
4561.313202718222783
 20
362.298676952460994
 30
0.0
 40
0.0196850387757516
 50
224.9999366092282003
 51
308.9999542447915815
  0
LINE
  5
AD96
  8
0
 10
4561.2992832784157144
 20
362.284757543454873
 30
0.0
 11
4561.2213555055395773
 21
362.3626854887664877
 31
0.0
  0
ARC
  5
AD97
  8
0
 10
4561.2352856944953601
 20
362.376615646897676
 30
0.0
 40
0.0197002403509883
 50
141.0398619675075906
 51
224.9999366092282003
  0
LINE
  5
AD98
  8
0
 10
4561.2199671105690868
 20
362.3890027553730988
 30
0.0
 11
4561.2502757997262961
 21
362.4264841578703908
 31
0.0
  0
ARC
  5
AD99
  8
0
 10
4561.0828894975029471
 20
362.2134600278474181
 30
0.0
 40
0.2709191360203969
 50
17.7028937738322902
 51
51.8335411594096485
  0
ARC
  5
AD9A
  8
0
 10
4564.7136103632046797
 20
364.7922399601948769
 30
0.0
 40
4.2427201122610159
 50
209.3273293405123923
 51
211.9293850284743996
  0
LINE
  5
AD9B
  8
0
 10
4561.077447529906749
 20
362.6061489738173123
 30
0.0
 11
4561.0440811724265586
 21
362.5648354721889746
 31
0.0
  0
ARC
  5
AD9C
  8
0
 10
4561.0593953810721359
 20
362.552467133992991
 30
0.0
 40
0.0196850394000024
 50
141.0743365097353035
 51
224.999954046824314
  0
LINE
  5
AD9D
  8
0
 10
4561.0454759450612983
 20
362.538547720309225
 30
0.0
 11
4561.1687485550337442
 21
362.4152749125987043
 31
0.0
  0
ARC
  5
AD9E
  8
0
 10
4561.1826668607800457
 20
362.4291931960186162
 30
0.0
 40
0.0196834409642666
 50
224.999954046824314
 51
309.0234837022911734
  0
LINE
  5
AD9F
  8
0
 10
4561.1950603202158163
 20
362.4139013677626053
 30
0.0
 11
4561.2080548493149763
 21
362.4244329514679066
 31
0.0
  0
ARC
  5
ADA0
  8
0
 10
4560.7332882199916639
 20
362.2172769052265835
 30
0.0
 40
0.5179932237132004
 50
23.5732010672855417
 51
41.3780947424374901
  0
LINE
  5
ADA1
  8
0
 10
4561.089436528574879
 20
362.519525328884697
 30
0.0
 11
4561.1219716079585851
 21
362.5596833942605031
 31
0.0
  0
ARC
  5
ADA2
  8
0
 10
4561.1047346675086374
 20
362.507137119921822
 30
0.0
 40
0.0196850394000019
 50
140.9999540458300942
 51
224.9999540334648032
  0
LINE
  5
ADA3
  8
0
 10
4561.1970557990571251
 20
362.4155186293261863
 30
0.0
 11
4561.2173692285068682
 21
362.3848141322915808
 31
0.0
  0
LINE
  5
ADA4
  8
0
 10
4561.6885870362839341
 20
361.9725427603926278
 30
0.0
 11
4561.6652501236940225
 21
361.9437283727161798
 31
0.0
  0
ARC
  5
ADA5
  8
0
 10
4561.6805461426201873
 20
361.931340052664325
 30
0.0
 40
0.0196834618065655
 50
140.995819175313386
 51
225.004088811599587
  0
LINE
  5
ADA6
  8
0
 10
4561.6666288265896583
 20
361.9174207501235969
 30
0.0
 11
4561.7441925521461599
 21
361.8398680941726866
 31
0.0
  0
ARC
  5
ADA7
  8
0
 10
4561.7585400540647242
 20
361.8542176440058142
 30
0.0
 40
0.0202918799455452
 50
225.004088811599587
 51
307.4322219855392859
  0
LINE
  5
ADA8
  8
0
 10
4561.7708739153922579
 20
361.838104411664176
 30
0.0
 11
4561.7950999275990398
 21
361.8566481941110169
 31
0.0
  0
ARC
  5
ADA9
  8
0
 10
4561.5418256838665911
 20
361.7304406225377988
 30
0.0
 40
0.2829773730532608
 50
26.487260049264659
 51
58.7801891937780425
  0
ARC
  5
ADAA
  8
0
 10
4561.6992655999056296
 20
359.3492997293298004
 30
0.0
 40
2.05507718806061
 50
36.104114763492241
 51
46.1291663220705885
  0
ARC
  5
ADAB
  8
0
 10
4537.1040724956110353
 20
341.4114707152195933
 30
0.0
 40
32.4966480012926127
 50
35.9526962248524171
 51
36.104114763492241
  0
LINE
  5
ADAC
  8
0
 10
4560.815897828368179
 20
363.224862274626787
 30
0.0
 11
4561.2289977844056921
 21
363.6100835963546274
 31
0.0
  0
ARC
  5
ADAD
  8
0
 10
4561.2693021259638044
 20
363.5668624120984873
 30
0.0
 40
0.0590974679401893
 50
59.90075142260131
 51
132.9999540520155108
  0
ARC
  5
ADAE
  8
0
 10
4556.5808372763558509
 20
355.4785916469069207
 30
0.0
 40
9.4079918740750426
 50
49.3712368863879902
 51
59.90075142260131
  0
ARC
  5
ADAF
  8
0
 10
4555.3810253558531258
 20
354.1732580844463882
 30
0.0
 40
11.1800958345128496
 50
38.2945813637403916
 51
49.0605913164483596
  0
ARC
  5
ADB0
  8
0
 10
4555.0644330874465595
 20
353.9838130239521092
 30
0.0
 40
11.5460662875170392
 50
34.8754509881111332
 51
38.0588156205153965
  0
LINE
  5
ADB1
  8
0
 10
4564.5367905714056178
 20
360.585789274427384
 30
0.0
 11
4564.3175506261186456
 21
360.4699994729015771
 31
0.0
  0
ARC
  5
ADB2
  8
0
 10
3761.6205240157851222
 20
-258.4416168825451905
 30
0.0
 40
1013.594645501240052
 50
37.6336651203454622
 51
37.6690494321581184
  0
LINE
  5
ADB3
  8
0
 10
4562.9640696234901043
 20
360.7647364940451098
 30
0.0
 11
4562.8510772692061437
 21
360.8777290296296201
 31
0.0
  0
LINE
  5
ADB4
  8
0
 10
4562.8275572402853868
 20
360.9012490962888933
 30
0.0
 11
4562.7483300852081811
 21
360.9804763784886177
 31
0.0
  0
LINE
  5
ADB5
  8
0
 10
4562.6674697656308126
 20
361.0613368278097255
 30
0.0
 11
4562.5855719960018178
 21
361.1432347288459823
 31
0.0
  0
LINE
  5
ADB6
  8
0
 10
4563.0399230657212684
 20
360.8041464435939929
 30
0.0
 11
4562.9900030874059667
 21
360.763722108606089
 31
0.0
  0
ARC
  5
ADB7
  8
0
 10
4562.9776149029494263
 20
360.7790202674925126
 30
0.0
 40
0.019685039484073
 50
226.5200898479025966
 51
308.9999539800049888
  0
LINE
  5
ADB8
  8
0
 10
4563.0033939882896448
 20
360.8372361911622193
 30
0.0
 11
4562.955379464084217
 21
360.7983548598610923
 31
0.0
  0
ARC
  5
ADB9
  8
0
 10
4562.9429915219488976
 20
360.8136527194657219
 30
0.0
 40
0.0196846543991438
 50
224.9989450234407968
 51
308.9999540467072165
  0
ARC
  5
ADBA
  8
0
 10
4562.6582734309158695
 20
360.365755943741874
 30
0.0
 40
0.5842957456976459
 50
53.7961444927237977
 51
68.982783070197641
  0
LINE
  5
ADBB
  8
0
 10
4562.8997422426509729
 20
360.9370218863256241
 30
0.0
 11
4562.8538643428437354
 21
360.8998713718351041
 31
0.0
  0
ARC
  5
ADBC
  8
0
 10
4562.8414762792117472
 20
360.9151769173789148
 30
0.0
 40
0.019690704531504
 50
225.0180695995261999
 51
308.9861543986589254
  0
ARC
  5
ADBD
  8
0
 10
4562.8648519909102106
 20
360.8914599199687245
 30
0.0
 40
0.0194494294912032
 50
166.5026865905236093
 51
224.9086968108254894
  0
ARC
  5
ADBE
  8
0
 10
4562.6739938781665842
 20
360.7129303087946255
 30
0.0
 40
0.3180870308381934
 50
44.7889772297305626
 51
73.0453340573662189
  0
ARC
  5
ADBF
  8
0
 10
4562.7627058038224277
 20
361.0039172064659283
 30
0.0
 40
0.0138779245152805
 50
73.0453340573662189
 51
112.8208045276449951
  0
LINE
  5
ADC0
  8
0
 10
4562.7573232466857007
 20
361.0167088000935109
 30
0.0
 11
4562.7482454045311897
 21
361.0054986479252079
 31
0.0
  0
ARC
  5
ADC1
  8
0
 10
4562.7636662387076285
 20
360.9930395572969246
 30
0.0
 40
0.0198250111202949
 50
141.0639056983443993
 51
219.3238912083469927
  0
ARC
  5
ADC2
  8
0
 10
4562.6799130987974422
 20
361.0772526225848083
 30
0.0
 40
0.020202699413949
 50
231.9808888702677052
 51
308.1373523250280186
  0
LINE
  5
ADC3
  8
0
 10
4562.6923892508393692
 20
361.0613625409667975
 30
0.0
 11
4562.7354019892736687
 21
361.0951341399660919
 31
0.0
  0
ARC
  5
ADC4
  8
0
 10
4562.5831831729647092
 20
361.0048722673457178
 30
0.0
 40
0.1769682844111407
 50
30.6668588330955885
 51
85.1088023827456368
  0
LINE
  5
ADC5
  8
0
 10
4562.5982721707596284
 20
361.1811961053057871
 30
0.0
 11
4562.5867654502417281
 21
361.1669864911817172
 31
0.0
  0
ARC
  5
ADC6
  8
0
 10
4562.6026552719777101
 20
361.1542822107844017
 30
0.0
 40
0.0203441680896616
 50
141.3568549167648882
 51
212.8901041586480005
  0
LINE
  5
ADC7
  8
0
 10
4562.4544289070072409
 20
361.2743780282654029
 30
0.0
 11
4562.3725311373782461
 21
361.3562759293017166
 31
0.0
  0
ARC
  5
ADC8
  8
0
 10
4562.466872240172961
 20
361.2902938230404857
 30
0.0
 40
0.020202699413949
 50
231.9808888702677052
 51
308.1373523250280186
  0
LINE
  5
ADC9
  8
0
 10
4562.4793483922157975
 20
361.2744037414224749
 30
0.0
 11
4562.522361130650097
 21
361.3081753404217125
 31
0.0
  0
ARC
  5
ADCA
  8
0
 10
4562.3701423143411375
 20
361.2179134678013952
 30
0.0
 40
0.1769682844111407
 50
30.6668588330955885
 51
85.1088023827456368
  0
LINE
  5
ADCB
  8
0
 10
4562.3852313121369662
 20
361.3942373057615214
 30
0.0
 11
4562.3737245916172469
 21
361.3800276916372809
 31
0.0
  0
ARC
  5
ADCC
  8
0
 10
4562.3896144133550479
 20
361.3673234112400792
 30
0.0
 40
0.0203441680896616
 50
141.3568549167648882
 51
212.8901041586480005
  0
LINE
  5
ADCD
  8
0
 10
4562.2109535947820405
 20
361.517853731155526
 30
0.0
 11
4562.1290558251530456
 21
361.5997516321918965
 31
0.0
  0
ARC
  5
ADCE
  8
0
 10
4562.2233969279468511
 20
361.5337695259307225
 30
0.0
 40
0.020202699413949
 50
231.9808888702677052
 51
308.1373523250280186
  0
LINE
  5
ADCF
  8
0
 10
4562.2358730799896875
 20
361.517879444312598
 30
0.0
 11
4562.2788858184239871
 21
361.5516510433117787
 31
0.0
  0
ARC
  5
ADD0
  8
0
 10
4562.1266670021150276
 20
361.4613891706916888
 30
0.0
 40
0.1769682844111407
 50
30.6668588330955885
 51
85.1088023827456368
  0
LINE
  5
ADD1
  8
0
 10
4562.1417559999117657
 20
361.6377130086517013
 30
0.0
 11
4562.1302492793920464
 21
361.6235033945275177
 31
0.0
  0
ARC
  5
ADD2
  8
0
 10
4562.1461391011289379
 20
361.610799114130316
 30
0.0
 40
0.0203441680896616
 50
141.3568549167648882
 51
212.8901041586480005
  0
LINE
  5
ADD3
  8
0
 10
4561.9417126433481826
 20
361.4864325106476031
 30
0.0
 11
4562.0202748590318151
 21
361.4078701689069817
 31
0.0
  0
LINE
  5
ADD4
  8
0
 10
4561.9086038529549114
 20
361.5195413541641756
 30
0.0
 11
4561.8292456046710868
 21
361.5988997297819196
 31
0.0
  0
LINE
  5
ADD5
  8
0
 10
4561.9613139995753954
 20
361.5395438221598283
 30
0.0
 11
4561.9349112908203097
 21
361.51816279164359
 31
0.0
  0
ARC
  5
ADD6
  8
0
 10
4561.9225230861593445
 20
361.533460565033522
 30
0.0
 40
0.0196847526128761
 50
224.9992019518271036
 51
309.0007058098655079
  0
ARC
  5
ADD7
  8
0
 10
4561.9559409473768028
 20
361.500036044770809
 30
0.0
 40
0.0196850393999947
 50
140.9999542824726007
 51
223.714038664432195
  0
LINE
  5
ADD8
  8
0
 10
4561.9406428083912033
 20
361.5124242536705879
 30
0.0
 11
4561.9570239363038127
 21
361.5326532289482202
 31
0.0
  0
LINE
  5
ADD9
  8
0
 10
4561.9847665733250324
 20
361.5084037891008961
 30
0.0
 11
4561.9549950146501942
 21
361.5344266801733966
 31
0.0
  0
ARC
  5
ADDA
  8
0
 10
4561.4695643366840159
 20
361.1273948819941779
 30
0.0
 40
0.6416264332412864
 50
39.9673005094415714
 51
53.9331127499194167
  0
LINE
  5
ADDB
  8
0
 10
4561.8473086177209552
 20
361.6460409443304229
 30
0.0
 11
4561.8292874991666395
 21
361.6237867527892718
 31
0.0
  0
ARC
  5
ADDC
  8
0
 10
4561.8447769437116222
 20
361.6113171312910026
 30
0.0
 40
0.0198850283544237
 50
141.1645464754921022
 51
218.6425516936228064
  0
LINE
  5
ADDD
  8
0
 10
4561.9904611151323479
 20
361.4928132530287144
 30
0.0
 11
4562.0683985834230043
 21
361.4148756596687804
 31
0.0
  0
ARC
  5
ADDE
  8
0
 10
4562.0823065173171926
 20
361.4287835712444235
 30
0.0
 40
0.0196687729558978
 50
224.999954027868597
 51
308.2796895582936259
  0
LINE
  5
ADDF
  8
0
 10
4562.0944913379398713
 20
361.4133436626963203
 30
0.0
 11
4562.1253091994885835
 21
361.4376644100495923
 31
0.0
  0
ARC
  5
ADE0
  8
0
 10
4561.6680664240366241
 20
361.0271624403957844
 30
0.0
 40
0.6144776829081872
 50
41.9167599333647871
 51
56.6150367150998335
  0
LINE
  5
ADE1
  8
0
 10
4562.0061897949390186
 20
361.540246699354384
 30
0.0
 11
4561.9890824122021513
 21
361.5191208756518222
 31
0.0
  0
ARC
  5
ADE2
  8
0
 10
4562.0043805511486426
 20
361.5067326667060001
 30
0.0
 40
0.0196850393999992
 50
140.9999541101655893
 51
224.9999540200730053
  0
LINE
  5
ADE3
  8
0
 10
4562.0629577526442517
 20
361.4203164991783979
 30
0.0
 11
4562.0462666001903926
 21
361.406800292550372
 31
0.0
  0
ARC
  5
ADE4
  8
0
 10
4562.0338784157447662
 20
361.4220984513387975
 30
0.0
 40
0.0196850393999976
 50
226.2858703724091924
 51
308.9999541307299182
  0
LINE
  5
ADE5
  8
0
 10
4562.1730771043030472
 20
361.4109684146188215
 30
0.0
 11
4562.2510145725937036
 21
361.3330308212588875
 31
0.0
  0
ARC
  5
ADE6
  8
0
 10
4562.264922506487892
 20
361.3469387328344169
 30
0.0
 40
0.0196687729558978
 50
224.999954027868597
 51
308.2796895582936259
  0
LINE
  5
ADE7
  8
0
 10
4562.2771073271105706
 20
361.3314988242863137
 30
0.0
 11
4562.3079251886601924
 21
361.3558195716395858
 31
0.0
  0
ARC
  5
ADE8
  8
0
 10
4561.8506824132082329
 20
360.9453176019858915
 30
0.0
 40
0.6144776829081872
 50
41.9167599333647871
 51
56.6150367150998335
  0
LINE
  5
ADE9
  8
0
 10
4562.1888057841097179
 20
361.4584018609443774
 30
0.0
 11
4562.1716984013728506
 21
361.4372760372418156
 31
0.0
  0
ARC
  5
ADEA
  8
0
 10
4562.1869965403211609
 20
361.4248878282959936
 30
0.0
 40
0.0196850393999992
 50
140.9999541101655893
 51
224.9999540200730053
  0
LINE
  5
ADEB
  8
0
 10
4562.1687811802921715
 20
361.3144864196154913
 30
0.0
 11
4562.2467186485828279
 21
361.2365488262556141
 31
0.0
  0
ARC
  5
ADEC
  8
0
 10
4562.2606265824770162
 20
361.2504567378310867
 30
0.0
 40
0.0196687729558978
 50
224.999954027868597
 51
308.2796895582936259
  0
LINE
  5
ADED
  8
0
 10
4562.2728114030996949
 20
361.2350168292829835
 30
0.0
 11
4562.3036292646502261
 21
361.2593375766363124
 31
0.0
  0
ARC
  5
ADEE
  8
0
 10
4561.8463864891973572
 20
360.8488356069826182
 30
0.0
 40
0.6144776829081872
 50
41.9167599333647871
 51
56.6150367150998335
  0
LINE
  5
ADEF
  8
0
 10
4562.1845098600997517
 20
361.361919865941104
 30
0.0
 11
4562.1674024773619749
 21
361.3407940422384854
 31
0.0
  0
ARC
  5
ADF0
  8
0
 10
4562.1827006163102851
 20
361.3284058332927771
 30
0.0
 40
0.0196850393999992
 50
140.9999541101655893
 51
224.9999540200730053
  0
LINE
  5
ADF1
  8
0
 10
4562.233846481934961
 20
361.2494274957047082
 30
0.0
 11
4562.3117839502256174
 21
361.1714899023447742
 31
0.0
  0
ARC
  5
ADF2
  8
0
 10
4562.3256918841207153
 20
361.1853978139203036
 30
0.0
 40
0.0196687729558978
 50
224.999954027868597
 51
308.2796895582936259
  0
LINE
  5
ADF3
  8
0
 10
4562.3378767047433939
 20
361.1699579053722005
 30
0.0
 11
4562.373870569378596
 21
361.1983634352844774
 31
0.0
  0
ARC
  5
ADF4
  8
0
 10
4566.7598471928258732
 20
367.2746348006992889
 30
0.0
 40
7.4938551258739672
 50
233.4523265026600995
 51
234.5683693671670085
  0
LINE
  5
ADF5
  8
0
 10
4562.3841321777199482
 20
361.2526869100178146
 30
0.0
 11
4562.3716702642041128
 21
361.2372977538122996
 31
0.0
  0
ARC
  5
ADF6
  8
0
 10
4562.3869684026058167
 20
361.2249095451825269
 30
0.0
 40
0.0196850387757516
 50
140.9999538221495072
 51
224.9999714577107
  0
LINE
  5
ADF7
  8
0
 10
4562.3730489712661438
 20
361.210990127710204
 30
0.0
 11
4562.4509767915387783
 21
361.1330622297959962
 31
0.0
  0
ARC
  5
ADF8
  8
0
 10
4562.4649069720217085
 20
361.1469923963998099
 30
0.0
 40
0.0197002403509883
 50
224.9999714577107
 51
308.9600460994092828
  0
LINE
  5
ADF9
  8
0
 10
4562.4772940559169001
 20
361.1316737925981215
 30
0.0
 11
4562.5147755070456697
 21
361.1619824216149937
 31
0.0
  0
ARC
  5
ADFA
  8
0
 10
4562.3017511084462967
 20
360.9945964611966929
 30
0.0
 40
0.2709191360203969
 50
38.1663669075015193
 51
72.2970142931038993
  0
ARC
  5
ADFB
  8
0
 10
4564.8805368664088746
 20
364.6253131891526778
 30
0.0
 40
4.2427201122610159
 50
238.0705230384727997
 51
240.6725787264024063
  0
LINE
  5
ADFC
  8
0
 10
4562.6944400456841322
 20
360.9891538635175721
 30
0.0
 11
4562.6531264905188436
 21
360.9557875723265283
 31
0.0
  0
ARC
  5
ADFD
  8
0
 10
4562.640758176894451
 20
360.9711018008176779
 30
0.0
 40
0.0196850394000024
 50
224.9999540200799117
 51
308.92557155720732
  0
LINE
  5
ADFE
  8
0
 10
4562.6268387408763374
 20
360.9571823871403922
 30
0.0
 11
4562.5035661309611896
 21
361.0804551949084953
 31
0.0
  0
ARC
  5
ADFF
  8
0
 10
4562.5174844367129481
 20
361.094373478321927
 30
0.0
 40
0.0196834409642666
 50
140.9764243646469879
 51
224.9999540200799117
  0
LINE
  5
AE00
  8
0
 10
4562.5021926283434368
 20
361.1067669622938183
 30
0.0
 11
4562.5127242328990178
 21
361.1197614744954763
 31
0.0
  0
ARC
  5
AE01
  8
0
 10
4562.3055674248780633
 20
360.6449951775624072
 30
0.0
 40
0.5179932237132004
 50
48.6218133244795965
 51
66.4267069996509321
  0
LINE
  5
AE02
  8
0
 10
4562.6078164199889216
 20
361.0011430011754214
 30
0.0
 11
4562.6479745375681887
 21
361.0336780161242132
 31
0.0
  0
ARC
  5
AE03
  8
0
 10
4562.5954282355733085
 20
361.0164411599874938
 30
0.0
 40
0.0196850394000019
 50
224.999954033476314
 51
308.9999540210977216
  0
LINE
  5
AE04
  8
0
 10
4562.5038098931090644
 20
361.108762438540225
 30
0.0
 11
4562.4731054286676226
 21
361.1290759172565004
 31
0.0
  0
LINE
  5
AE05
  8
0
 10
4562.0608348128553189
 20
361.6002943865361772
 30
0.0
 11
4562.0320203877327003
 21
361.5769575201808834
 31
0.0
  0
ARC
  5
AE06
  8
0
 10
4562.0196320922250379
 20
361.5922535589842823
 30
0.0
 40
0.0196834618065655
 50
224.9958192553067136
 51
309.0040888915982009
  0
LINE
  5
AE07
  8
0
 10
4562.0057127673526338
 20
361.5783362652884989
 30
0.0
 11
4561.9281602358560122
 21
361.655900115280474
 31
0.0
  0
ARC
  5
AE08
  8
0
 10
4561.9425098087103834
 20
361.6702475941750095
 30
0.0
 40
0.0202918799455452
 50
142.5676860813935889
 51
224.9958192553067136
  0
LINE
  5
AE09
  8
0
 10
4561.9263965961590657
 20
361.6825814813561237
 30
0.0
 11
4561.9449404174765732
 21
361.7068074638083885
 31
0.0
  0
ARC
  5
AE0A
  8
0
 10
4561.8187324395157702
 20
361.4535334225818133
 30
0.0
 40
0.2829773730532608
 50
31.2197188731559514
 51
63.5126480176763408
  0
LINE
  5
AE0B
  8
0
 10
4562.9911982419671403
 20
360.827360286713315
 30
0.0
 11
4563.1758270909449493
 21
360.7393980365649213
 31
0.0
  0
ARC
  5
AE0C
  8
0
 10
4563.1921757356067246
 20
360.7737131142383191
 30
0.0
 40
0.0380105608746024
 50
244.5255884758068134
 51
262.1529352605854228
  0
ARC
  5
AE0D
  8
0
 10
4563.1898118136114135
 20
360.7565608601939857
 30
0.0
 40
0.0206961753528411
 50
262.1529352605854228
 51
313.5742045208061199
  0
LINE
  5
AE0E
  8
0
 10
4563.2040775515170026
 20
360.7415668481805824
 30
0.0
 11
4563.2074338876200272
 21
360.745283491707994
 31
0.0
  0
LINE
  5
AE0F
  8
0
 10
4562.173806432222591
 20
361.3487022549368817
 30
0.0
 11
4562.0944913379398713
 21
361.4133436626963203
 31
0.0
  0
LINE
  5
AE10
  8
0
 10
4561.7280513366813466
 20
361.7539295059067967
 30
0.0
 11
4561.8422216216913512
 21
361.6397590377059146
 31
0.0
  0
LINE
  5
AE11
  8
0
 10
4561.7486937064259109
 20
361.7450569717714757
 30
0.0
 11
4561.8305914760539963
 21
361.6631590707351052
 31
0.0
  0
ARC
  5
AE12
  8
0
 10
4561.7646095211666761
 20
361.7575002794001762
 30
0.0
 40
0.020202699413949
 50
141.8625557418999108
 51
218.0190191966578936
  0
LINE
  5
AE13
  8
0
 10
4561.748719459566928
 20
361.7699764569387071
 30
0.0
 11
4561.7824911275811246
 21
361.8129891411858239
 31
0.0
  0
ARC
  5
AE14
  8
0
 10
4561.0504848575073993
 20
361.0023597269635047
 30
0.0
 40
1.09222398189685
 50
39.3518161894352616
 51
47.9176557339704203
  0
LINE
  5
AE15
  8
0
 10
4561.8950657144014258
 20
361.6949175966014991
 30
0.0
 11
4561.8562654801453391
 21
361.6624410824462075
 31
0.0
  0
ARC
  5
AE16
  8
0
 10
4561.8438486353006738
 20
361.6778241624663792
 30
0.0
 40
0.0197690967622833
 50
227.8865984488120091
 51
308.9096177282302165
  0
LINE
  5
AE17
  8
0
 10
4561.4369668176441337
 20
362.0854918922631782
 30
0.0
 11
4561.5016066716889327
 21
362.0061618634974252
 31
0.0
  0
ARC
  5
AE18
  8
0
 10
4558.6299597002316659
 20
356.4719375419817879
 30
0.0
 40
7.1982238793461191
 50
13.7689371784294199
 51
34.8555394980634503
  0
ARC
  5
AE19
  8
0
 10
4556.3112823670544458
 20
355.9037484946500172
 30
0.0
 40
9.5855033705042132
 50
1.939314550646398
 51
13.7689371784294199
  0
ARC
  5
AE1A
  8
0
 10
4565.834985924963803
 20
356.2262244857752762
 30
0.0
 40
0.0563418006802365
 50
288.5143772626939835
 51
1.939314550646398
  0
LINE
  5
AE1B
  8
0
 10
4565.8528768473943273
 20
356.1727987111106017
 30
0.0
 11
4565.7951354594870281
 21
356.1525349469907269
 31
0.0
  0
LINE
  5
AE1C
  8
0
 10
4565.7951354594870281
 20
356.1525349469907269
 30
0.0
 11
4564.9049483545868497
 21
356.1256439988907232
 31
0.0
  0
LINE
  5
AE1D
  8
0
 10
4564.9049483545868497
 20
356.1256439988907232
 30
0.0
 11
4564.8328211870020823
 21
356.1465033655514958
 31
0.0
  0
ARC
  5
AE1E
  8
0
 10
4564.848545802917215
 20
356.2008723284652092
 30
0.0
 40
0.0565972408687868
 50
190.5517361770166929
 51
253.8690495805118985
  0
ARC
  5
AE1F
  8
0
 10
4566.7635962553067657
 20
356.5575948767414047
 30
0.0
 40
2.0045883115996772
 50
187.3897157883916123
 51
190.5517361770166929
  0
ARC
  5
AE20
  8
0
 10
4556.9752188114862292
 20
356.2020602566254865
 30
0.0
 40
7.8010506483141411
 50
0.717656709475341
 51
3.8929783970503999
  0
ARC
  5
AE21
  8
0
 10
4557.3955663422502766
 20
356.2269325820557242
 30
0.0
 40
7.3799853067178001
 50
3.9218882117037048
 51
13.4599688517005802
  0
ARC
  5
AE22
  8
0
 10
4557.4375808739741842
 20
356.224902700853022
 30
0.0
 40
7.3396066955462089
 50
13.5517225994050392
 51
35.5362074745166581
  0
LINE
  5
AE23
  8
0
 10
4564.8811312295056268
 20
356.132531113324319
 30
0.0
 11
4564.8863685356873248
 21
356.2067541537907118
 31
0.0
  0
ARC
  5
AE24
  8
0
 10
4564.8892117423310992
 20
356.2065535322096821
 30
0.0
 40
0.0028502759580496
 50
98.3582608623268015
 51
175.9638004632874981
  0
ARC
  5
AE25
  8
0
 10
4564.8956218741523116
 20
356.1629242989449722
 30
0.0
 40
0.0469478925064109
 50
71.6235550662834441
 51
98.3582608623268015
  0
ARC
  5
AE26
  8
0
 10
4565.385228756656943
 20
357.7901449328360854
 30
0.0
 40
1.65235441808614
 50
253.30055330159081
 51
261.4332645002942854
  0
ARC
  5
AE27
  8
0
 10
4565.4364335711334206
 20
358.2232726162733911
 30
0.0
 40
2.0883234087346811
 50
261.8142396742774167
 51
266.8088332310003921
  0
ARC
  5
AE28
  8
0
 10
4564.8200279493521521
 20
356.1788979005090141
 30
0.0
 40
0.1347175874244702
 50
83.9081629567803446
 51
109.287458879428101
  0
ARC
  5
AE29
  8
0
 10
4564.7765027092864329
 20
355.7710720918191214
 30
0.0
 40
0.5448594369793849
 50
70.2770490576654652
 51
83.9081629567803446
  0
ARC
  5
AE2A
  8
0
 10
4565.4303006352010925
 20
357.9410016860859969
 30
0.0
 40
1.7223790397436229
 50
254.1670457486773103
 51
266.5269469738327075
  0
ARC
  5
AE2B
  8
0
 10
4565.4605729330896793
 20
361.867707340008792
 30
0.0
 40
5.6475258881653252
 50
268.6341883648508997
 51
272.4145195948668743
  0
ARC
  5
AE2C
  8
0
 10
4565.3402888221107787
 20
373.9454159239904243
 30
0.0
 40
17.7238406715638916
 50
271.1580557509212781
 51
271.781303000605476
  0
ARC
  5
AE2D
  8
0
 10
4538.0648243794057635
 20
336.7075183628110153
 30
0.0
 40
35.4645097536923117
 50
43.1578468262243504
 51
45.8873344114688919
  0
ARC
  5
AE2E
  8
0
 10
10262.2032927814507275
 20
6080.2927792808186496
 30
0.0
 40
8073.4557506964647473
 50
225.0840009437247033
 51
225.0936903162117915
  0
ARC
  5
AE2F
  8
0
 10
4556.3765218372700474
 20
358.1737917450303144
 30
0.0
 40
7.3376784529898611
 50
42.5310193121075102
 51
47.9352192978928784
  0
ARC
  5
AE30
  8
0
 10
4567.0131803734066125
 20
320.9455994040146152
 30
0.0
 40
34.6339750357323268
 50
89.7597989515882944
 51
91.4176289869683671
  0
ARC
  5
AE31
  8
0
 10
4566.3458871547773015
 20
347.9098356751068764
 30
0.0
 40
7.6614831611776513
 50
91.4176289869683671
 51
99.2570737860502561
  0
ARC
  5
AE32
  8
0
 10
4565.2324742506152688
 20
354.7411311708070798
 30
0.0
 40
0.7400464284805817
 50
99.2570737860502561
 51
109.2562745916035993
  0
LINE
  5
AE42
  8
0
 10
4564.9049483545868497
 20
356.1256439988907232
 30
0.0
 11
4564.9049483545868497
 21
355.9334752161906863
 31
0.0
  0
ARC
  5
AE43
  8
0
 10
4564.9246333939154283
 20
355.9334752161190067
 30
0.0
 40
0.0196850393282979
 50
179.9999997912921117
 51
270.0013070188547886
  0
ARC
  5
AE44
  8
0
 10
4565.7637346951869404
 20
355.9334752161906863
 30
0.0
 40
0.0196850393999982
 50
270.005775217082828
 51
0.0000000000065138
  0
LINE
  5
AE45
  8
0
 10
4565.7834197345882785
 20
355.9334752161906863
 30
0.0
 11
4565.7834197345882785
 21
356.1522274284881178
 31
0.0
  0
LINE
  5
AE46
  8
0
 10
4561.9105100051147019
 20
328.7484408703907093
 30
0.0
 11
4561.9105100051147019
 21
321.7951608218924093
 31
0.0
  0
LINE
  5
AE47
  8
0
 10
4562.4878691862559208
 20
321.7715046849422151
 30
0.0
 11
4562.4878691862559208
 21
328.7484408703907093
 31
0.0
  0
LINE
  5
B4A2
  8
0
 10
4561.8473523171360284
 20
329.2681259096906956
 30
0.0
 11
4561.8473523171360284
 21
329.2945653963839732
 31
0.0
  0
LINE
  5
B4AD
  8
0
 10
4563.7563431520347876
 20
315.4926647710394718
 30
0.0
 11
4563.7774621714670502
 21
315.4926647710394718
 31
0.0
  0
LINE
  5
B4AF
  8
0
 10
4561.974730633267427
 20
331.3744167406886163
 30
0.0
 11
4562.4286354664482133
 21
331.3744167406886163
 31
0.0
  0
LINE
  5
B4B1
  8
0
 10
4559.8441831743493822
 20
330.5043463821907039
 30
0.0
 11
4563.1623132855356744
 21
330.5043463821907039
 31
0.0
  0
LINE
  5
B4B2
  8
0
 10
4564.5439820542696907
 20
330.5043463821907039
 30
0.0
 11
4565.0587509737861183
 21
330.5043463821907039
 31
0.0
  0
LINE
  5
B4B6
  8
0
 10
4561.7489271250360616
 20
328.7484324875385937
 30
0.0
 11
4562.6544389313357897
 21
328.7484324875385937
 31
0.0
  0
LINE
  5
B4C0
  8
0
 10
4560.5994287341009112
 20
333.9020100806711184
 30
0.0
 11
4560.6038071232951552
 21
333.9020100806711184
 31
0.0
  0
LINE
  5
B4C2
  8
0
 10
4560.5994287340854498
 20
333.9020100806694131
 30
0.0
 11
4560.6038071232951552
 21
333.9020100806694131
 31
0.0
  0
ATTDEF
  5
B4C3
  8
DEFPOINTS
 10
4567.1589750605262452
 20
329.9965127338144839
 30
0.0
 40
0.001
  1
K-33098T-4
  3

  2
MODELNUMBER
 70
     0
1001
ACDBATTR
1070
     0
1070
     1
  0
ATTDEF
  5
B4C4
  8
DEFPOINTS
 10
4567.1589750605262452
 20
329.9948460671478188
 30
0.0
 40
0.001
  1
ACCLIV
  3

  2
TRADENAME
 70
     0
1001
ACDBATTR
1070
     0
1070
     1
  0
ATTDEF
  5
B4C5
  8
DEFPOINTS
 10
4567.1589750605262452
 20
329.9931794004812105
 30
0.0
 40
0.001
  1
BATH AND SHOWER FAUCET
  3

  2
PRODUCT
 70
     0
1001
ACDBATTR
1070
     0
1070
     1
  0
ENDSEC
  0
EOF
