  0
SECTION
  2
HEADER
  9
$ACADVER
  1
AC1009
  9
$INSBASE
 10
3239.6620589349008696
 20
220.7419973501027926
 30
0.0
  9
$EXTMIN
 10
3222.1482820008509407
 20
214.3839138617800018
 30
0.0
  9
$EXTMAX
 10
3245.7136656990901429
 20
220.7482056831557884
 30
0.0
  9
$LIMMIN
 10
0.0
 20
0.0
  9
$LIMMAX
 10
11.6929133858000007
 20
8.2677165353999982
  9
$ORTHOMODE
 70
     0
  9
$REGENMODE
 70
     1
  9
$FILLMODE
 70
     1
  9
$QTEXTMODE
 70
     0
  9
$MIRRTEXT
 70
     0
  9
$DRAGMODE
 70
     2
  9
$LTSCALE
 40
0.6431102362
  9
$OSMODE
 70
  4095
  9
$ATTMODE
 70
     1
  9
$TEXTSIZE
 40
0.2
  9
$TRACEWID
 40
0.05
  9
$TEXTSTYLE
  7
STANDARD
  9
$CLAYER
  8
0
  9
$CELTYPE
  6
BYLAYER
  9
$CECOLOR
 62
   256
  9
$DIMSCALE
 40
1.0
  9
$DIMASZ
 40
0.1875
  9
$DIMEXO
 40
0.0625
  9
$DIMDLI
 40
0.4443307087
  9
$DIMRND
 40
0.0
  9
$DIMDLE
 40
0.0
  9
$DIMEXE
 40
0.125
  9
$DIMTP
 40
0.01
  9
$DIMTM
 40
0.01
  9
$DIMTXT
 40
2.0
  9
$DIMCEN
 40
0.1052362205
  9
$DIMTSZ
 40
0.0
  9
$DIMTOL
 70
     1
  9
$DIMLIM
 70
     0
  9
$DIMTIH
 70
     1
  9
$DIMTOH
 70
     1
  9
$DIMSE1
 70
     0
  9
$DIMSE2
 70
     0
  9
$DIMTAD
 70
     0
  9
$DIMZIN
 70
     0
  9
$DIMBLK
  1

  9
$DIMASO
 70
     1
  9
$DIMSHO
 70
     1
  9
$DIMPOST
  1
\X
  9
$DIMAPOST
  1

  9
$DIMALT
 70
     1
  9
$DIMALTD
 70
     2
  9
$DIMALTF
 40
25.3999999999999986
  9
$DIMLFAC
 40
1.0
  9
$DIMTOFL
 70
     0
  9
$DIMTVP
 40
0.0
  9
$DIMTIX
 70
     0
  9
$DIMSOXD
 70
     0
  9
$DIMSAH
 70
     0
  9
$DIMBLK1
  1

  9
$DIMBLK2
  1

  9
$DIMSTYLE
  2
STANDARD
  9
$DIMCLRD
 70
     0
  9
$DIMCLRE
 70
     0
  9
$DIMCLRT
 70
     0
  9
$DIMTFAC
 40
1.0
  9
$DIMGAP
 40
0.09
  9
$LUNITS
 70
     2
  9
$LUPREC
 70
     4
  9
$SKETCHINC
 40
0.1
  9
$FILLETRAD
 40
0.0
  9
$AUNITS
 70
     0
  9
$AUPREC
 70
     0
  9
$MENU
  1
.
  9
$ELEVATION
 40
0.0
  9
$PELEVATION
 40
0.0
  9
$THICKNESS
 40
0.0
  9
$LIMCHECK
 70
     0
  9
$BLIPMODE
 70
     0
  9
$CHAMFERA
 40
0.0
  9
$CHAMFERB
 40
0.0
  9
$SKPOLY
 70
     0
  9
$TDCREATE
 40
2458060.468368056230247
  9
$TDUPDATE
 40
2459313.2214930560439825
  9
$TDINDWG
 40
0.4094283565
  9
$TDUSRTIMER
 40
0.4094283565
  9
$USRTIMER
 70
     1
  9
$ANGBASE
 50
0.0
  9
$ANGDIR
 70
     0
  9
$PDMODE
 70
     0
  9
$PDSIZE
 40
0.3125
  9
$PLINEWID
 40
0.0
  9
$COORDS
 70
     1
  9
$SPLFRAME
 70
     0
  9
$SPLINETYPE
 70
     6
  9
$SPLINESEGS
 70
     8
  9
$ATTDIA
 70
     1
  9
$ATTREQ
 70
     1
  9
$HANDLING
 70
     1
  9
$HANDSEED
  5
A12E
  9
$SURFTAB1
 70
     6
  9
$SURFTAB2
 70
     6
  9
$SURFTYPE
 70
     6
  9
$SURFU
 70
     6
  9
$SURFV
 70
     6
  9
$UCSNAME
  2

  9
$UCSORG
 10
0.0
 20
0.0
 30
0.0
  9
$UCSXDIR
 10
1.0
 20
0.0
 30
0.0
  9
$UCSYDIR
 10
0.0
 20
1.0
 30
0.0
  9
$PUCSNAME
  2

  9
$PUCSORG
 10
0.0
 20
0.0
 30
0.0
  9
$PUCSXDIR
 10
1.0
 20
0.0
 30
0.0
  9
$PUCSYDIR
 10
0.0
 20
1.0
 30
0.0
  9
$USERI1
 70
     0
  9
$USERI2
 70
     0
  9
$USERI3
 70
     0
  9
$USERI4
 70
     0
  9
$USERI5
 70
     0
  9
$USERR1
 40
0.0
  9
$USERR2
 40
0.0
  9
$USERR3
 40
0.0
  9
$USERR4
 40
0.0
  9
$USERR5
 40
0.0
  9
$WORLDVIEW
 70
     1
  9
$SHADEDGE
 70
     3
  9
$SHADEDIF
 70
    70
  9
$TILEMODE
 70
     1
  9
$MAXACTVP
 70
    64
  9
$PLIMCHECK
 70
     0
  9
$PEXTMIN
 10
1.0000000000000000E+20
 20
1.0000000000000000E+20
 30
1.0000000000000000E+20
  9
$PEXTMAX
 10
-1.0000000000000000E+20
 20
-1.0000000000000000E+20
 30
-1.0000000000000000E+20
  9
$PLIMMIN
 10
0.0
 20
0.0
  9
$PLIMMAX
 10
12.0
 20
9.0
  9
$UNITMODE
 70
     0
  9
$VISRETAIN
 70
     1
  9
$PLINEGEN
 70
     0
  9
$PSLTSCALE
 70
     1
  0
ENDSEC
  0
SECTION
  2
TABLES
  0
TABLE
  2
VPORT
 70
     1
  0
VPORT
  2
*ACTIVE
 70
     0
 10
0.0
 20
0.0
 11
1.0
 21
1.0
 12
156.9037225537929032
 22
18.0890924653891787
 13
0.0
 23
0.0
 14
1.0
 24
1.0
 15
0.0
 25
0.0
 16
0.0
 26
0.0
 36
95.5902297660485658
 17
3089.811279296875
 27
197.161570589386713
 37
0.0
 40
116.4212723385307982
 41
2.0416666666666661
 42
50.0
 43
0.0
 44
0.0
 50
0.0
 51
0.0
 71
     0
 72
   100
 73
     1
 74
     1
 75
     0
 76
     0
 77
     0
 78
     0
  0
ENDTAB
  0
TABLE
  2
LTYPE
 70
     2
  0
LTYPE
  2
CONTINUOUS
 70
     0
  3
Solid line
 72
    65
 73
     0
 40
0.0
  0
LTYPE
  2
PHANTOM2
 70
     0
  3
___ _ _ ___ _ _ ___ _ _ ___ _ _
 72
    65
 73
     6
 40
1.25
 49
0.625
 49
-0.125
 49
0.125
 49
-0.125
 49
0.125
 49
-0.125
  0
ENDTAB
  0
TABLE
  2
LAYER
 70
     2
  0
LAYER
  2
0
 70
     0
 62
   255
  6
CONTINUOUS
  0
LAYER
  2
DEFPOINTS
 70
     0
 62
     7
  6
CONTINUOUS
  0
ENDTAB
  0
TABLE
  2
STYLE
 70
     1
  0
STYLE
  2
STANDARD
 70
     0
 40
0.0
 41
0.8
 50
0.0
 71
     0
 42
0.2
  3
txt
  4

  0
ENDTAB
  0
TABLE
  2
VIEW
 70
     0
  0
ENDTAB
  0
TABLE
  2
UCS
 70
     0
  0
ENDTAB
  0
TABLE
  2
APPID
 70
     9
  0
APPID
  2
ACAD
 70
     0
  0
APPID
  2
ACAD_MLEADERVER
 70
     0
  0
APPID
  2
ACAD_EXEMPT_FROM_CAD_STANDARDS
 70
     0
  0
APPID
  2
ACAD_NAV_VCDISPLAY
 70
     0
  0
APPID
  2
ACAECLAYERSTANDARD
 70
     0
  0
APPID
  2
ACCMTRANSPARENCY
 70
     0
  0
APPID
  2
ACAD_DSTYLE_DIMJAG
 70
     0
  0
APPID
  2
ACAD_DSTYLE_DIMTALN
 70
     0
  0
APPID
  2
ACDBATTR
 70
     0
  0
ENDTAB
  0
TABLE
  2
DIMSTYLE
 70
     1
  0
DIMSTYLE
  2
STANDARD
 70
     0
  3

  4

  5

  6

  7

 40
1.0
 41
0.1875
 42
0.0625
 43
0.38
 44
0.125
 45
0.0
 46
0.0
 47
0.01
 48
0.01
140
0.15625
141
0.09
142
0.0
143
25.3999999999999986
144
1.0
145
0.0
146
1.0
147
0.09
 71
     1
 72
     0
 73
     1
 74
     1
 75
     0
 76
     0
 77
     0
 78
     4
170
     0
171
     2
172
     0
173
     0
174
     0
175
     0
176
     0
177
     0
178
     0
  0
ENDTAB
  0
ENDSEC
  0
SECTION
  2
BLOCKS
  0
BLOCK
  8
0
  2
$MODEL_SPACE
 70
     0
 10
0.0
 20
0.0
 30
0.0
  3
$MODEL_SPACE
  1

  0
ENDBLK
  5
21
  8
0
  0
BLOCK
 67
     1
  8
0
  2
$PAPER_SPACE
 70
     0
 10
0.0
 20
0.0
 30
0.0
  3
$PAPER_SPACE
  1

  0
ENDBLK
  5
1D
 67
     1
  8
0
  0
ENDSEC
  0
SECTION
  2
ENTITIES
  0
ATTDEF
  5
3930
  8
DEFPOINTS
 10
3239.6639708284637891
 20
220.7472056831556984
 30
0.0
 40
0.001
  1
K-33084T-9
  3

  2
MODELNUMBER
 70
     0
1001
ACDBATTR
1070
     0
1070
     1
  0
ATTDEF
  5
3931
  8
DEFPOINTS
 10
3239.6639708284637891
 20
220.7455390164890048
 30
0.0
 40
0.001
  1

  3

  2
TRADENAME
 70
     0
1001
ACDBATTR
1070
     0
1070
     1
  0
ATTDEF
  5
3932
  8
DEFPOINTS
 10
3239.6639708284637891
 20
220.7438723498223112
 30
0.0
 40
0.001
  1
BATH AND SHOWER FAUCET
  3

  2
PRODUCT
 70
     0
1001
ACDBATTR
1070
     0
1070
     1
  0
LINE
  5
9EA4
  8
0
 10
3237.9888315752509698
 20
220.7419973501527863
 30
0.0
 11
3235.4297764571510925
 21
220.7419973500527135
 31
0.0
  0
ARC
  5
9EA5
  8
0
 10
3235.4297759142409632
 20
220.7223136214732051
 30
0.0
 40
0.0196837285870005
 50
89.9984195420005051
 51
180.0038152706611925
  0
LINE
  5
9EA6
  8
0
 10
3235.4100921856979767
 20
220.7223123107526987
 30
0.0
 11
3235.4100921856979767
 21
220.6002650656450896
 31
0.0
  0
ARC
  5
9EA7
  8
0
 10
3235.6069387795828334
 20
220.6002626134196873
 30
0.0
 40
0.1968465939005292
 50
179.9992862352281975
 51
232.0002557957980969
  0
LINE
  5
9EA8
  8
0
 10
3235.4857486076880377
 20
220.4451448395626869
 30
0.0
 11
3236.0922579066018443
 21
219.971287841952801
 31
0.0
  0
ARC
  5
9EA9
  8
0
 10
3236.1407352285641537
 20
220.0333360499793969
 30
0.0
 40
0.0787402747266546
 50
232.0000293114377996
 51
269.9999706295924966
  0
LINE
  5
9EAA
  8
0
 10
3236.1384378744510286
 20
219.9545957753028063
 30
0.0
 11
3237.2801701579510336
 21
219.9545957753028063
 31
0.0
  0
ARC
  5
9EAB
  8
0
 10
3237.9888315753000825
 20
220.7223123106520006
 30
0.0
 40
0.0196850394007697
 50
0.0000002933023052
 51
89.9999999977592609
  0
LINE
  5
9EAC
  8
0
 10
3238.0085166147009659
 20
220.7223123107526987
 30
0.0
 11
3238.0085166153257887
 21
220.6002650666528098
 31
0.0
  0
ARC
  5
9EAD
  8
0
 10
3237.8116662246720807
 20
220.6002650656450896
 30
0.0
 40
0.1968503906530736
 50
307.9999993400107883
 51
0.0000002933023052
  0
LINE
  5
9EAE
  8
0
 10
3237.9328594248140689
 20
220.4451448395626869
 30
0.0
 11
3237.3263501259011719
 21
219.971287841952801
 31
0.0
  0
ARC
  5
9EAF
  8
0
 10
3237.2778710909060464
 20
220.0333392049936094
 30
0.0
 40
0.0787438155620308
 50
270.0012758097647065
 51
307.9995395493842807
  0
LINE
  5
9EB0
  8
0
 10
3224.0222960526261886
 20
220.6317745836389861
 30
0.0
 11
3223.8057605296248767
 21
220.6317745836389861
 31
0.0
  0
ARC
  5
9EB1
  8
0
 10
3223.8057605296248767
 20
220.621931243766511
 30
0.0
 40
0.0098433398725177
 50
90.0
 51
180.7904305597907921
  0
LINE
  5
9EB2
  8
0
 10
3223.7959181264259314
 20
220.6217954531389864
 30
0.0
 11
3223.795919680571842
 21
220.4445918083422953
 31
0.0
  0
ARC
  5
9EB3
  8
0
 10
3223.8057606461297837
 20
220.4447667112407885
 30
0.0
 40
0.0098425197042987
 50
181.0182072985107027
 51
270.0012823967816189
  0
LINE
  5
9EB4
  8
0
 10
3223.8057608664262261
 20
220.434924191539011
 30
0.0
 11
3224.0222960023670566
 21
220.4349241915392952
 31
0.0
  0
LINE
  5
9EB5
  8
0
 10
3222.9529207934351689
 20
220.7419838582665079
 30
0.0
 11
3222.9590683482260829
 21
219.7418772388390096
 31
0.0
  0
ARC
  5
9EB6
  8
0
 10
3227.1510293058390744
 20
219.7479063064764091
 30
0.0
 40
4.1919652932496687
 50
180.0824053218356937
 51
198.2064301889039086
  0
ARC
  5
9EB7
  8
0
 10
3223.2369851851372005
 20
218.4558352301791899
 30
0.0
 40
0.0703159446697855
 50
194.5566219786676925
 51
257.8476069220855038
  0
LINE
  5
9EB8
  8
0
 10
3223.2221827934258727
 20
218.3870949852390027
 30
0.0
 11
3223.2764443012360971
 21
218.3792122625542049
 31
0.0
  0
ARC
  5
9EB9
  8
0
 10
3223.2789839720549026
 20
218.3987334253781967
 30
0.0
 40
0.0196856731118945
 50
262.5875472856778856
 51
353.0848592366414778
  0
LINE
  5
9EBA
  8
0
 10
3223.2985264429257768
 20
218.3963632865390139
 30
0.0
 11
3223.2988733362981293
 21
218.4333124250343872
 31
0.0
  0
LINE
  5
9EBB
  8
0
 10
3224.5038724961759726
 20
219.5316851723389107
 30
0.0
 11
3223.3241843497257832
 21
219.5316851704390047
 31
0.0
  0
ARC
  5
9EBC
  8
0
 10
3223.3241843497571608
 20
219.5120000822182078
 30
0.0
 40
0.019685088220804
 50
90.0000000922611036
 51
179.7003831847987954
  0
LINE
  5
9EBD
  8
0
 10
3223.3044995306859164
 20
219.5121030209793105
 30
0.0
 11
3223.299385385577807
 21
218.5341330115209928
 31
0.0
  0
LINE
  5
9EBE
  8
0
 10
3223.3116661579260835
 20
219.5271921055042981
 30
0.0
 11
3223.3116661579260835
 21
218.6645110696686061
 31
0.0
  0
ARC
  5
9EBF
  8
0
 10
3223.9141691486961463
 20
218.930680977977687
 30
0.0
 40
0.5514873682560806
 50
90.0146367082414258
 51
173.1918611197887117
  0
ARC
  5
9EC0
  8
0
 10
3226.6178564781821478
 20
218.2873218472734038
 30
0.0
 40
3.3276367204437141
 50
167.7026878882479934
 51
176.920838548834098
  0
ARC
  5
9EC1
  8
0
 10
3223.3985869226721661
 20
218.4616345662261949
 30
0.0
 40
0.1036578168267083
 50
177.5487264447957898
 51
206.7699500128404964
  0
ARC
  5
9EC2
  8
0
 10
3221.6291688209280437
 20
218.1382442215366098
 30
0.0
 40
1.6995462006103419
 50
3.9560258473721772
 51
9.3699947402769599
  0
ARC
  5
9EC3
  8
0
 10
3192.737281333339979
 20
216.1182714216992053
 30
0.0
 40
30.6619602257060784
 50
2.2408142322268541
 51
3.9969198773666621
  0
ARC
  5
9EC4
  8
0
 10
3222.4188360816801833
 20
218.8260295980834087
 30
0.0
 40
1.78675991339144
 50
291.590450870119696
 51
302.3834797613470755
  0
ARC
  5
9EC5
  8
0
 10
3223.7107602947958185
 20
215.5639081845027931
 30
0.0
 40
1.721873034762603
 50
111.6210152211901061
 51
137.643400397903406
  0
ARC
  5
9EC6
  8
0
 10
3223.2117438517889241
 20
216.0208185925642965
 30
0.0
 40
1.045277770778698
 50
137.7219192043160092
 51
175.8439841867246116
  0
LINE
  5
9EC7
  8
0
 10
3222.1692147371259125
 20
216.0965725572388862
 30
0.0
 11
3222.1482820008509407
 21
215.6500973310290021
 31
0.0
  0
ARC
  5
9EC8
  8
0
 10
3223.0714196845719925
 20
215.6501052073273001
 30
0.0
 40
0.9231376837550682
 50
180.0004888530237963
 51
195.4075134296772092
  0
ARC
  5
9EC9
  8
0
 10
3223.2832622848550272
 20
215.7302627647800932
 30
0.0
 40
1.1488550798216119
 50
196.4545789583173985
 51
228.5226234396280915
  0
ARC
  5
9ECA
  8
0
 10
3223.7752507999521185
 20
216.3125067473044112
 30
0.0
 40
1.9110141432122281
 50
229.0331618828346052
 51
258.3752216941479105
  0
ARC
  5
9ECB
  8
0
 10
3223.9192090706578711
 20
216.8767340274353046
 30
0.0
 40
2.4928255492574189
 50
257.7474451063691276
 51
269.8809229025915783
  0
ARC
  5
9ECC
  8
0
 10
3223.1483907941760663
 20
216.069064300427101
 30
0.0
 40
0.9795694363467125
 50
178.4233391994501119
 51
219.0977029431475955
  0
ARC
  5
9ECD
  8
0
 10
3223.5774710854320801
 20
216.4177398316234076
 30
0.0
 40
1.53245687733223
 50
219.0977029431475955
 51
248.2954407439559077
  0
ARC
  5
9ECE
  8
0
 10
3223.9406221738358909
 20
217.330086897332194
 30
0.0
 40
2.5144221930721788
 50
248.2954408206807102
 51
269.3939971301933838
  0
ARC
  5
9ECF
  8
0
 10
3223.2806742051989204
 20
218.6266587603799962
 30
0.0
 40
0.0208730231215544
 50
250.7995721451592033
 51
336.5676047329272933
  0
LINE
  5
9ED0
  8
0
 10
3223.2738096168791344
 20
218.6069468218292116
 30
0.0
 11
3223.1845565488260945
 21
218.6255851175390035
 31
0.0
  0
ARC
  5
9ED1
  8
0
 10
3223.191883790853808
 20
218.6809699693750986
 30
0.0
 40
0.0558674349567402
 50
227.9525222908283126
 51
262.4637127417472016
  0
ARC
  5
9ED2
  8
0
 10
3225.0785583534320722
 20
219.5221121377672091
 30
0.0
 40
2.116875503007499
 50
193.983946802592186
 51
204.6421039270958033
  0
LINE
  5
9ED3
  8
0
 10
3223.1544667898251646
 20
218.6394833652391014
 30
0.0
 11
3223.1689264011261002
 21
218.4381622566390035
 31
0.0
  0
LINE
  5
9ED4
  8
0
 10
3224.8751359304669677
 20
220.7420108685381024
 30
0.0
 11
3224.8689881846230492
 21
219.7418772388390096
 31
0.0
  0
ARC
  5
9ED5
  8
0
 10
3220.6770272270091482
 20
219.7479063064764091
 30
0.0
 40
4.1919652932496687
 50
341.7935698110960061
 51
359.9175946781626863
  0
ARC
  5
9ED6
  8
0
 10
3224.5910713477110221
 20
218.4558352301791899
 30
0.0
 40
0.0703159446697855
 50
282.1523930779144962
 51
345.4433780213323075
  0
LINE
  5
9ED7
  8
0
 10
3224.6058737394218952
 20
218.3870949852390027
 30
0.0
 11
3224.5516122316121255
 21
218.3792122625542049
 31
0.0
  0
ARC
  5
9ED8
  8
0
 10
3224.5490725607937748
 20
218.3987334253781967
 30
0.0
 40
0.0196856731118945
 50
186.9151407633584085
 51
277.4124527142963075
  0
LINE
  5
9ED9
  8
0
 10
3224.5295300899229005
 20
218.3963632865390139
 30
0.0
 11
3224.5291831965500933
 21
218.4333124250343872
 31
0.0
  0
ARC
  5
9EDA
  8
0
 10
3224.5038721798300685
 20
219.5120000808524026
 30
0.0
 40
0.019685091489017
 50
0.2996207408699265
 51
89.9990792351640039
  0
LINE
  5
9EDB
  8
0
 10
3224.5235570021618514
 20
219.5121030209793105
 30
0.0
 11
3224.5286711472699608
 21
218.5341330115209928
 31
0.0
  0
LINE
  5
9EDC
  8
0
 10
3224.516390374922139
 20
219.5271921055042981
 30
0.0
 11
3224.516390374922139
 21
218.6645110696686061
 31
0.0
  0
ARC
  5
9EDD
  8
0
 10
3223.9138873841520763
 20
218.930680977977687
 30
0.0
 40
0.5514873682560806
 50
6.8081388802112262
 51
89.9853632917585884
  0
ARC
  5
9EDE
  8
0
 10
3221.2102000546669842
 20
218.2873218472734038
 30
0.0
 40
3.3276367204437141
 50
3.0791614511658771
 51
12.2973121117519995
  0
ARC
  5
9EDF
  8
0
 10
3224.429469610175147
 20
218.4616345662261949
 30
0.0
 40
0.1036578168267083
 50
333.2300499871594752
 51
2.4512735552042031
  0
ARC
  5
9EE0
  8
0
 10
3226.1988877119201788
 20
218.1382442215366098
 30
0.0
 40
1.6995462006103419
 50
170.6300052597229922
 51
176.0439741526278112
  0
ARC
  5
9EE1
  8
0
 10
3255.090775199509153
 20
216.1182714216992053
 30
0.0
 40
30.6619602257060784
 50
176.0030801226332926
 51
177.75918576777309
  0
ARC
  5
9EE2
  8
0
 10
3225.4092204511689488
 20
218.8260295980834087
 30
0.0
 40
1.78675991339144
 50
237.6165202386528108
 51
248.409549129880304
  0
ARC
  5
9EE3
  8
0
 10
3224.1172962380519493
 20
215.5639081845027931
 30
0.0
 40
1.721873034762603
 50
42.3565996020965372
 51
68.3789847788098939
  0
ARC
  5
9EE4
  8
0
 10
3224.6163126810588437
 20
216.0208185925642965
 30
0.0
 40
1.045277770778698
 50
4.1560158132753893
 51
42.2780807956839624
  0
LINE
  5
9EE5
  8
0
 10
3225.6588417957232195
 20
216.0965725572388862
 30
0.0
 11
3225.6797438673770557
 21
215.6500973310290021
 31
0.0
  0
ARC
  5
9EE6
  8
0
 10
3224.7583020115698673
 20
215.6497647381432898
 30
0.0
 40
0.9214419158313512
 50
344.5853872970611746
 51
0.02068081421035
  0
ARC
  5
9EE7
  8
0
 10
3224.5447942479931953
 20
215.7302627647800932
 30
0.0
 40
1.1488550798216119
 50
311.4773765603719085
 51
343.5454210416825731
  0
ARC
  5
9EE8
  8
0
 10
3224.052805732896104
 20
216.3125067473044112
 30
0.0
 40
1.9110141432122281
 50
281.6247783058520895
 51
310.9668381171654232
  0
ARC
  5
9EE9
  8
0
 10
3223.9088474621898968
 20
216.8767340274353046
 30
0.0
 40
2.4928255492574189
 50
270.1190770974084217
 51
282.2525548936304745
  0
ARC
  5
9EEA
  8
0
 10
3224.6796657386730658
 20
216.069064300427101
 30
0.0
 40
0.9795694363467125
 50
320.902297056852376
 51
1.576660800549855
  0
ARC
  5
9EEB
  8
0
 10
3224.2505854474161424
 20
216.4177398316234076
 30
0.0
 40
1.53245687733223
 50
291.7045592560440923
 51
320.902297056852376
  0
ARC
  5
9EEC
  8
0
 10
3223.8874343590127864
 20
217.330086897332194
 30
0.0
 40
2.514422193072186
 50
270.6060028698066162
 51
291.7045591793192898
  0
ARC
  5
9EED
  8
0
 10
3224.5473823276488474
 20
218.6266587603799962
 30
0.0
 40
0.0208730231215544
 50
203.432395267072593
 51
289.2004278548408251
  0
LINE
  5
9EEE
  8
0
 10
3224.5542469159699976
 20
218.6069468218292116
 30
0.0
 11
3224.643499984022128
 21
218.6255851175390035
 31
0.0
  0
ARC
  5
9EEF
  8
0
 10
3224.6361727419948693
 20
218.6809699693750986
 30
0.0
 40
0.0558674349567402
 50
277.5362872582526848
 51
312.0474777091512237
  0
ARC
  5
9EF0
  8
0
 10
3222.7494981794170599
 20
219.5221121377672091
 30
0.0
 40
2.116875503007499
 50
335.3578960729042251
 51
346.0160531974061087
  0
LINE
  5
9EF1
  8
0
 10
3224.6735897430221485
 20
218.6394833652391014
 30
0.0
 11
3224.6591301317230318
 21
218.4381622566390035
 31
0.0
  0
ARC
  5
9EF2
  8
0
 10
3224.0222960032219817
 20
220.6219312437663973
 30
0.0
 40
0.0098433398727189
 50
359.2095694406796724
 51
89.9997124319021111
  0
LINE
  5
9EF3
  8
0
 10
3224.0321384064218364
 20
220.6217954531389864
 30
0.0
 11
3224.0321368522759258
 21
220.4445918083422953
 31
0.0
  0
ARC
  5
9EF4
  8
0
 10
3224.0222958867211673
 20
220.4447667112393106
 30
0.0
 40
0.0098425197006734
 50
270.0006731969505154
 51
358.9817927100884276
  0
LINE
  5
9EF5
  8
0
 10
3222.9529207934351689
 20
220.7419838582665079
 30
0.0
 11
3224.8751359304669677
 21
220.7420108685381024
 31
0.0
  0
LINE
  5
9EF6
  8
0
 10
3235.4857486076880377
 20
220.4451448395626869
 30
0.0
 11
3237.9328594248140689
 21
220.4451448395626869
 31
0.0
  0
LINE
  5
9EF7
  8
0
 10
3236.1384378773700519
 20
219.9545957753028063
 30
0.0
 11
3236.0990677957511252
 21
219.9152256966027892
 31
0.0
  0
LINE
  5
9EF8
  8
0
 10
3236.0990677957511252
 20
219.9152256966027892
 30
0.0
 11
3236.0990677957511252
 21
219.2065642792026949
 31
0.0
  0
LINE
  5
9EF9
  8
0
 10
3236.0990677957511252
 20
219.2065642792026949
 30
0.0
 11
3236.1384378744510286
 21
219.1671942005027915
 31
0.0
  0
LINE
  5
9EFA
  8
0
 10
3236.1384378744510286
 20
219.1671942005027915
 30
0.0
 11
3237.2801701579510336
 21
219.1671942005027915
 31
0.0
  0
LINE
  5
9EFB
  8
0
 10
3237.2801701579510336
 20
219.1671942005027915
 30
0.0
 11
3237.319540236650937
 21
219.2065642792026949
 31
0.0
  0
LINE
  5
9EFC
  8
0
 10
3237.319540236650937
 20
219.2065642792026949
 30
0.0
 11
3237.319540236650937
 21
219.9152256966027892
 31
0.0
  0
LINE
  5
9EFD
  8
0
 10
3237.319540236650937
 20
219.9152256966027892
 30
0.0
 11
3237.2801701579510336
 21
219.9545957753028063
 31
0.0
  0
LINE
  5
9EFE
  8
0
 10
3236.3227388363520731
 20
219.2065642792026949
 30
0.0
 11
3236.3227388363520731
 21
219.9152256966027892
 31
0.0
  0
LINE
  5
9EFF
  8
0
 10
3236.3227388363520731
 20
219.9152256966027892
 30
0.0
 11
3236.4936652140509068
 21
219.9152256966027892
 31
0.0
  0
LINE
  5
9F00
  8
0
 10
3236.4936652140509068
 20
219.9152256966027892
 30
0.0
 11
3236.4936652140509068
 21
219.2065642792026949
 31
0.0
  0
LINE
  5
9F01
  8
0
 10
3236.4936652140509068
 20
219.2065642792026949
 30
0.0
 11
3236.3227388363520731
 21
219.2065642792026949
 31
0.0
  0
LINE
  5
9F02
  8
0
 10
3236.9249428183511554
 20
219.2065642792026949
 30
0.0
 11
3236.9249428183511554
 21
219.9152256966027892
 31
0.0
  0
LINE
  5
9F03
  8
0
 10
3236.9249428183511554
 20
219.9152256966027892
 30
0.0
 11
3237.0958691960508986
 21
219.9152256966027892
 31
0.0
  0
LINE
  5
9F04
  8
0
 10
3237.0958691960508986
 20
219.9152256966027892
 30
0.0
 11
3237.0958691960508986
 21
219.2065642792026949
 31
0.0
  0
LINE
  5
9F05
  8
0
 10
3237.0958691960508986
 20
219.2065642792026949
 30
0.0
 11
3236.9249428183511554
 21
219.2065642792026949
 31
0.0
  0
ARC
  5
9F06
  8
0
 10
3236.7093040162008037
 20
219.7774304214622134
 30
0.0
 40
0.6102362209594425
 50
249.3064587878297971
 51
290.6935412121702029
  0
LINE
  5
9F07
  8
0
 10
3236.0990677957511252
 20
219.2065642792026949
 30
0.0
 11
3236.1071000342508341
 21
219.2065642792026949
 31
0.0
  0
LINE
  5
9F08
  8
0
 10
3236.1071000342508341
 20
219.2065642792026949
 30
0.0
 11
3236.1071000342508341
 21
219.9152256966027892
 31
0.0
  0
LINE
  5
9F09
  8
0
 10
3236.1071000342508341
 20
219.9152256966027892
 30
0.0
 11
3236.0990677957511252
 21
219.9152256966027892
 31
0.0
  0
ARC
  5
9F0A
  8
0
 10
3236.2149194353009989
 20
219.787272940618891
 30
0.0
 40
0.1673228346839103
 50
49.8808331277089678
 51
130.1191668722910038
  0
ARC
  5
9F0B
  8
0
 10
3236.7093040162008037
 20
219.3443595543432991
 30
0.0
 40
0.6102362209594929
 50
69.3064587878298113
 51
110.6935412121702029
  0
ARC
  5
9F0C
  8
0
 10
3237.2036885971019728
 20
219.787272940753212
 30
0.0
 40
0.1673228345811577
 50
49.8808330980649188
 51
130.1191669019351025
  0
LINE
  5
9F0D
  8
0
 10
3237.319540236650937
 20
219.9152256966027892
 30
0.0
 11
3237.3115079981507733
 21
219.9152256966027892
 31
0.0
  0
LINE
  5
9F0E
  8
0
 10
3237.3115079981507733
 20
219.9152256966027892
 30
0.0
 11
3237.3115079981507733
 21
219.2065642792026949
 31
0.0
  0
LINE
  5
9F0F
  8
0
 10
3237.3115079981507733
 20
219.2065642792026949
 30
0.0
 11
3237.319540236650937
 21
219.2065642792026949
 31
0.0
  0
ARC
  5
9F10
  8
0
 10
3237.2036885971019728
 20
219.3346749728194141
 30
0.0
 40
0.1674436414490224
 50
229.9156573418426035
 51
310.0843426581573112
  0
ARC
  5
9F11
  8
0
 10
3236.2149194353009989
 20
219.3345170351867068
 30
0.0
 40
0.1673228346839003
 50
229.880833127708911
 51
310.1191668722909753
  0
LINE
  5
9F12
  8
0
 10
3235.5990668088511484
 20
218.3797926245804035
 30
0.0
 11
3235.5990668088511484
 21
216.8049894761026906
 31
0.0
  0
ARC
  5
9F13
  8
0
 10
3235.5008987402338789
 20
216.4175522874022022
 30
0.0
 40
0.38250408104757
 50
121.6652055510652986
 51
140.9561731728823872
  0
ARC
  5
9F14
  8
0
 10
3235.5074485311311037
 20
216.4056484752778999
 30
0.0
 40
0.3960746919191278
 50
105.7313540519558046
 51
121.5676705587718942
  0
ARC
  5
9F15
  8
0
 10
3235.5345273390339571
 20
216.281333316620703
 30
0.0
 40
0.5231310461844645
 50
90.3226853964876568
 51
104.894479633674095
  0
LINE
  5
9F16
  8
0
 10
3235.5315811210389256
 20
216.8044560663473987
 30
0.0
 11
3235.5990668088511484
 21
216.8049894761026906
 31
0.0
  0
ARC
  5
9F17
  8
0
 10
3235.1734242146671932
 20
216.6835140053541124
 30
0.0
 40
0.0393679053158184
 50
270.4513997782048023
 51
320.5457778179236925
  0
ARC
  5
9F18
  8
0
 10
13044.698308557170094
 20
-1240907.0859692010562867
 30
0.0
 40
1241162.4954979598987848
 50
90.4528417598157546
 51
90.4529060845552948
  0
ARC
  5
9F19
  8
0
 10
3233.7452808308048589
 20
218.3550736023863976
 30
0.0
 40
0.0393695023864212
 50
89.5108579459195965
 51
168.71584729023931
  0
ARC
  5
9F1A
  8
0
 10
3237.559008337870182
 20
217.5938381011067122
 30
0.0
 40
3.9283278443877521
 50
168.7119219846804015
 51
175.5060458922897055
  0
LINE
  5
9F1B
  8
0
 10
3233.642757716151209
 20
217.9016379076028045
 30
0.0
 11
3233.642757716151209
 21
217.2831441942026913
 31
0.0
  0
ARC
  5
9F1C
  8
0
 10
3237.5675706928918771
 20
217.5923910444803937
 30
0.0
 40
3.937007819802774
 50
184.5164644253165136
 51
193.6512894834278029
  0
ARC
  5
9F1D
  8
0
 10
3233.7801970736391013
 20
216.6727032285292864
 30
0.0
 40
0.0395699321110538
 50
193.8818301843946017
 51
270.2236327020909243
  0
ARC
  5
9F1E
  8
0
 10
3233.657697448739782
 20
217.8404225471371944
 30
0.0
 40
0.031496062693748
 50
118.3161593238032054
 51
172.6891651315760043
  0
ARC
  5
9F1F
  8
0
 10
3235.6029228742850137
 20
217.5923910508527115
 30
0.0
 40
1.9924707036721601
 50
172.7328478356770916
 51
187.2671577638124063
  0
ARC
  5
9F20
  8
0
 10
3233.6576974489689746
 20
217.3443595548230007
 30
0.0
 40
0.031496063026353
 50
187.3111884331623003
 51
241.6838405290783953
  0
LINE
  5
9F21
  8
0
 10
3233.6264574611827811
 20
217.3403514194372121
 30
0.0
 11
3233.6264574365509361
 21
217.8444304891092997
 31
0.0
  0
LINE
  5
9F22
  8
0
 10
3233.7066723874640957
 20
218.362777226265905
 30
0.0
 11
3233.7066675706969363
 21
216.8619306724476985
 31
0.0
  0
ARC
  5
9F23
  8
0
 10
3235.1737944682217858
 20
217.0338156096186992
 30
0.0
 40
1.4771608349891709
 50
186.6817072658108998
 51
194.1377873447677018
  0
ARC
  5
9F24
  8
0
 10
3408.8608948357168629
 20
223.9518076111702953
 30
0.0
 40
175.270724978713389
 50
182.3801135156124928
 51
182.3833207681053921
  0
ARC
  5
9F25
  8
0
 10
3235.2748605029801183
 20
216.0299837393648943
 30
0.0
 40
0.8159122875642907
 50
71.6607715253982889
 51
91.8169006950178357
  0
ARC
  5
9F26
  8
0
 10
-9126.7348779113708588
 20
1480765.0702806720510125
 30
0.0
 40
1480599.832699015038088
 50
270.4783274832265079
 51
270.4783856623408838
  0
ARC
  5
9F27
  8
0
 10
3233.7440768367741839
 20
216.8715229914737108
 30
0.0
 40
0.0386197001948353
 50
194.3899943762268947
 51
272.2857014375354083
  0
LINE
  5
9F28
  8
0
 10
3235.5990668088511484
 20
218.3797926245804035
 30
0.0
 11
3233.745616929651078
 21
218.3944416701027933
 31
0.0
  0
LINE
  5
9F29
  8
0
 10
3235.9022164217508362
 20
218.3797926257028053
 30
0.0
 11
3235.6659959427511239
 21
218.3797653151966927
 31
0.0
  0
LINE
  5
9F2A
  8
0
 10
3235.646311002929906
 20
218.3601067834028129
 30
0.0
 11
3235.646311002929906
 21
216.8246753184027114
 31
0.0
  0
LINE
  5
9F2B
  8
0
 10
3235.6659959427511239
 20
216.8049894761026906
 30
0.0
 11
3243.6581219269519352
 21
216.8049894761026906
 31
0.0
  0
LINE
  5
9F2C
  8
0
 10
3235.5990668088511484
 20
216.9034146729026986
 30
0.0
 11
3235.6364683836509357
 21
216.9034146729026986
 31
0.0
  0
LINE
  5
9F2D
  8
0
 10
3235.5990668088511484
 20
218.2813674288026959
 30
0.0
 11
3235.6364683836509357
 21
218.2813674288026959
 31
0.0
  0
ARC
  5
9F2E
  8
0
 10
3235.6364683132369464
 20
218.2912101184973039
 30
0.0
 40
0.0098426896948172
 50
270.0004098907921843
 51
359.9990104360318242
  0
ARC
  5
9F2F
  8
0
 10
3235.6659493294750973
 20
218.3601270335321942
 30
0.0
 40
0.0196383369848871
 50
89.8640034280326034
 51
180.0590807234389956
  0
ARC
  5
9F30
  8
0
 10
3235.6364683132369464
 20
216.8935719832082043
 30
0.0
 40
0.0098426896948183
 50
0.0009895639258464
 51
89.9995901091817245
  0
ARC
  5
9F31
  8
0
 10
3235.6659958723507771
 20
216.8246743455476064
 30
0.0
 40
0.0196848694449857
 50
179.997168358520895
 51
270.0002049091144158
  0
ARC
  5
9F32
  8
0
 10
3235.9022164152720507
 20
218.5766430192821019
 30
0.0
 40
0.1968503935793142
 50
270.0000018858945054
 51
0.0000071952651443
  0
ARC
  5
9F33
  8
0
 10
3236.1187518482511223
 20
219.0687690036027107
 30
0.0
 40
0.0196850394000165
 50
90.0000000000260485
 51
179.9999999999575948
  0
LINE
  5
9F34
  8
0
 10
3236.0990668088511484
 20
219.0687690036027959
 30
0.0
 11
3236.0990668088938946
 21
218.5766430439566932
 31
0.0
  0
LINE
  5
9F35
  8
0
 10
3236.1187529490512134
 20
219.088454043002713
 30
0.0
 11
3237.2998531096509396
 21
219.088454043002713
 31
0.0
  0
ARC
  5
9F36
  8
0
 10
3237.5163896434851267
 20
219.0293989248368973
 30
0.0
 40
0.1968503936341328
 50
179.9999999808283064
 51
270.0000000191765821
  0
ARC
  5
9F37
  8
0
 10
3237.2998542103991895
 20
219.0687690035809965
 30
0.0
 40
0.0196850394525434
 50
0.0000000633676413
 51
90.003203863722419
  0
LINE
  5
9F38
  8
0
 10
3237.3195392498510046
 20
219.0687690035809965
 30
0.0
 11
3237.3195392498510046
 21
219.0293989249028073
 31
0.0
  0
ARC
  5
9F39
  8
0
 10
3234.6225361474289457
 20
220.3795097183225948
 30
0.0
 40
3.232399600223169
 50
319.8678224901423732
 51
328.4995044738282104
  0
ARC
  5
9F3A
  8
0
 10
3236.6344728806370767
 20
218.8666135252084075
 30
0.0
 40
0.7916478360555825
 50
246.8893337387515885
 51
277.5104531012796087
  0
ARC
  5
9F3B
  8
0
 10
3236.6073649534391734
 20
218.7014210698706052
 30
0.0
 40
0.6332731872828217
 50
281.8998441836099005
 51
320.1999694680649213
  0
ARC
  5
9F3C
  8
0
 10
3237.6996315884539399
 20
221.0309191220945877
 30
0.0
 40
3.2029943773543481
 50
235.8634488573493115
 51
244.5601853042512914
  0
ARC
  5
9F3D
  8
0
 10
3238.3720080802308985
 20
217.8643375468550971
 30
0.0
 40
1.2920972948648171
 50
131.4673772904631051
 51
140.2496090142242053
  0
LINE
  5
9F3E
  8
0
 10
3237.5163896435510651
 20
218.8325485312026899
 30
0.0
 11
3241.8077282262511289
 21
218.8325485312026899
 31
0.0
  0
LINE
  5
9F3F
  8
0
 10
3224.8232428963910934
 20
219.1302748283403901
 30
0.0
 11
3233.7112086933398132
 21
218.3747977355340879
 31
0.0
  0
LINE
  5
9F40
  8
0
 10
3224.705081054987204
 20
218.5871499243187088
 30
0.0
 11
3233.6245502961528473
 21
217.8289950387465979
 31
0.0
  0
ARC
  5
9F41
  8
0
 10
3223.9140349724480075
 20
217.6280729278468868
 30
0.0
 40
0.4955062335773166
 50
33.8888246254334078
 51
146.1064589200624937
  0
ARC
  5
9F42
  8
0
 10
3223.3190945545097748
 20
217.5173321090024956
 30
0.0
 40
0.1909637503698343
 50
321.2035276321396964
 51
1.3844403192829999
  0
ARC
  5
9F43
  8
0
 10
3228.314343185564212
 20
217.8046279209112015
 30
0.0
 40
4.8126497851788086
 50
178.8121901903467972
 51
183.36733684800231
  0
ARC
  5
9F44
  8
0
 10
3223.0650667197569419
 20
217.7655595844649099
 30
0.0
 40
0.5455547791319317
 50
304.71974356406281
 51
317.5988571213571277
  0
ARC
  5
9F45
  8
0
 10
3224.5089422577389087
 20
217.5173321090024956
 30
0.0
 40
0.1909637503698343
 50
178.6155596807170127
 51
218.7964723678601899
  0
ARC
  5
9F46
  8
0
 10
3219.4785338275028153
 20
217.8059961702859937
 30
0.0
 40
4.8478292977863093
 50
356.6409281250856225
 51
1.162614171696762
  0
ARC
  5
9F47
  8
0
 10
3224.7623490775599748
 20
217.7649249615022029
 30
0.0
 40
0.5446682608489835
 50
222.3958967344044027
 51
235.2975747006912002
  0
LINE
  5
9F48
  8
0
 10
3241.3352862945512243
 20
220.7419973501527863
 30
0.0
 11
3243.8943414126511016
 21
220.7419973500527135
 31
0.0
  0
ARC
  5
9F49
  8
0
 10
3243.8943419555607761
 20
220.7223136214732051
 30
0.0
 40
0.0196837285870005
 50
359.9961847293387791
 51
90.0015804579995233
  0
LINE
  5
9F4A
  8
0
 10
3243.9140256841042174
 20
220.7223123107526987
 30
0.0
 11
3243.9140256841042174
 21
220.6002650656450896
 31
0.0
  0
ARC
  5
9F4B
  8
0
 10
3243.7171790902189059
 20
220.6002626134196873
 30
0.0
 40
0.1968465939005292
 50
307.9997442042018747
 51
0.0007137647718164
  0
LINE
  5
9F4C
  8
0
 10
3243.8383692621141563
 20
220.4451448395626869
 30
0.0
 11
3243.2318599632008045
 21
219.971287841952801
 31
0.0
  0
ARC
  5
9F4D
  8
0
 10
3243.1833826412380404
 20
220.0333360499793969
 30
0.0
 40
0.0787402747266546
 50
270.0000293704075034
 51
307.9999706885622004
  0
LINE
  5
9F4E
  8
0
 10
3243.1856799953520749
 20
219.9545957753028063
 30
0.0
 11
3242.0439477118511604
 21
219.9545957753028063
 31
0.0
  0
ARC
  5
9F4F
  8
0
 10
3241.3352862945021116
 20
220.7223123106520006
 30
0.0
 40
0.0196850394007697
 50
90.0000000022407391
 51
179.9999997066977073
  0
LINE
  5
9F50
  8
0
 10
3241.3156012551007734
 20
220.7223123107526987
 30
0.0
 11
3241.3156012544759506
 21
220.6002650666528098
 31
0.0
  0
ARC
  5
9F51
  8
0
 10
3241.5124516451292038
 20
220.6002650656450896
 30
0.0
 40
0.1968503906530736
 50
179.9999997066977073
 51
232.000000659989098
  0
LINE
  5
9F52
  8
0
 10
3241.3912584449881251
 20
220.4451448395626869
 30
0.0
 11
3241.9977677439010222
 21
219.971287841952801
 31
0.0
  0
ARC
  5
9F53
  8
0
 10
3242.0462467788961476
 20
220.0333392049936094
 30
0.0
 40
0.0787438155620308
 50
232.0004604506156909
 51
269.9987241902352935
  0
LINE
  5
9F54
  8
0
 10
3243.8383692621141563
 20
220.4451448395626869
 30
0.0
 11
3241.3912584449881251
 21
220.4451448395626869
 31
0.0
  0
LINE
  5
9F55
  8
0
 10
3243.1856799924321422
 20
219.9545957753028063
 30
0.0
 11
3243.2250500740510688
 21
219.9152256966027892
 31
0.0
  0
LINE
  5
9F56
  8
0
 10
3243.2250500740510688
 20
219.9152256966027892
 30
0.0
 11
3243.2250500740510688
 21
219.2065642792026949
 31
0.0
  0
LINE
  5
9F57
  8
0
 10
3243.2250500740510688
 20
219.2065642792026949
 30
0.0
 11
3243.1856799953520749
 21
219.1671942005027915
 31
0.0
  0
LINE
  5
9F58
  8
0
 10
3243.1856799953520749
 20
219.1671942005027915
 30
0.0
 11
3242.0439477118511604
 21
219.1671942005027915
 31
0.0
  0
LINE
  5
9F59
  8
0
 10
3242.0439477118511604
 20
219.1671942005027915
 30
0.0
 11
3242.0045776331508023
 21
219.2065642792026949
 31
0.0
  0
LINE
  5
9F5A
  8
0
 10
3242.0045776331508023
 20
219.2065642792026949
 30
0.0
 11
3242.0045776331508023
 21
219.9152256966027892
 31
0.0
  0
LINE
  5
9F5B
  8
0
 10
3242.0045776331508023
 20
219.9152256966027892
 30
0.0
 11
3242.0439477118511604
 21
219.9545957753028063
 31
0.0
  0
LINE
  5
9F5C
  8
0
 10
3243.0013790334510304
 20
219.2065642792026949
 30
0.0
 11
3243.0013790334510304
 21
219.9152256966027892
 31
0.0
  0
LINE
  5
9F5D
  8
0
 10
3243.0013790334510304
 20
219.9152256966027892
 30
0.0
 11
3242.8304526557508325
 21
219.9152256966027892
 31
0.0
  0
LINE
  5
9F5E
  8
0
 10
3242.8304526557508325
 20
219.9152256966027892
 30
0.0
 11
3242.8304526557508325
 21
219.2065642792026949
 31
0.0
  0
LINE
  5
9F5F
  8
0
 10
3242.8304526557508325
 20
219.2065642792026949
 30
0.0
 11
3243.0013790334510304
 21
219.2065642792026949
 31
0.0
  0
LINE
  5
9F60
  8
0
 10
3242.3991750514510386
 20
219.2065642792026949
 30
0.0
 11
3242.3991750514510386
 21
219.9152256966027892
 31
0.0
  0
LINE
  5
9F61
  8
0
 10
3242.3991750514510386
 20
219.9152256966027892
 30
0.0
 11
3242.2282486737508407
 21
219.9152256966027892
 31
0.0
  0
LINE
  5
9F62
  8
0
 10
3242.2282486737508407
 20
219.9152256966027892
 30
0.0
 11
3242.2282486737508407
 21
219.2065642792026949
 31
0.0
  0
LINE
  5
9F63
  8
0
 10
3242.2282486737508407
 20
219.2065642792026949
 30
0.0
 11
3242.3991750514510386
 21
219.2065642792026949
 31
0.0
  0
ARC
  5
9F64
  8
0
 10
3242.6148138536009355
 20
219.7774304214622134
 30
0.0
 40
0.6102362209594425
 50
249.3064587878297971
 51
290.6935412121702029
  0
LINE
  5
9F65
  8
0
 10
3243.2250500740510688
 20
219.2065642792026949
 30
0.0
 11
3243.2170178355509051
 21
219.2065642792026949
 31
0.0
  0
LINE
  5
9F66
  8
0
 10
3243.2170178355509051
 20
219.2065642792026949
 30
0.0
 11
3243.2170178355509051
 21
219.9152256966027892
 31
0.0
  0
LINE
  5
9F67
  8
0
 10
3243.2170178355509051
 20
219.9152256966027892
 30
0.0
 11
3243.2250500740510688
 21
219.9152256966027892
 31
0.0
  0
ARC
  5
9F68
  8
0
 10
3243.1091984345011952
 20
219.787272940618891
 30
0.0
 40
0.1673228346839103
 50
49.8808331277089678
 51
130.1191668722910038
  0
ARC
  5
9F69
  8
0
 10
3242.6148138536009355
 20
219.3443595543432991
 30
0.0
 40
0.6102362209594929
 50
69.3064587878298113
 51
110.6935412121702029
  0
ARC
  5
9F6A
  8
0
 10
3242.1204292727011307
 20
219.787272940753212
 30
0.0
 40
0.1673228345811577
 50
49.8808330980649188
 51
130.1191669019351025
  0
LINE
  5
9F6B
  8
0
 10
3242.0045776331508023
 20
219.9152256966027892
 30
0.0
 11
3242.0126098716509659
 21
219.9152256966027892
 31
0.0
  0
LINE
  5
9F6C
  8
0
 10
3242.0126098716509659
 20
219.9152256966027892
 30
0.0
 11
3242.0126098716509659
 21
219.2065642792026949
 31
0.0
  0
LINE
  5
9F6D
  8
0
 10
3242.0126098716509659
 20
219.2065642792026949
 30
0.0
 11
3242.0045776331508023
 21
219.2065642792026949
 31
0.0
  0
ARC
  5
9F6E
  8
0
 10
3242.1204292727011307
 20
219.3346749728194141
 30
0.0
 40
0.1674436414490224
 50
229.9156573418426035
 51
310.0843426581573112
  0
ARC
  5
9F6F
  8
0
 10
3243.1091984345011952
 20
219.3345170351867068
 30
0.0
 40
0.1673228346839003
 50
229.880833127708911
 51
310.1191668722909753
  0
LINE
  5
9F70
  8
0
 10
3243.7250510608510012
 20
218.3797926245796077
 30
0.0
 11
3243.7250510608510012
 21
216.8049894761034864
 31
0.0
  0
ARC
  5
9F71
  8
0
 10
3243.8232191295692246
 20
216.4175522874022022
 30
0.0
 40
0.38250408104757
 50
39.0438268271175488
 51
58.3347944489346517
  0
ARC
  5
9F72
  8
0
 10
3243.8166693386719999
 20
216.4056484752778999
 30
0.0
 40
0.3960746919191278
 50
58.4323294412280703
 51
74.2686459480441954
  0
ARC
  5
9F73
  8
0
 10
3243.7895905307677822
 20
216.281333316620703
 30
0.0
 40
0.5231310461844645
 50
75.1055203663258766
 51
89.6773146035123432
  0
LINE
  5
9F74
  8
0
 10
3243.7925367487628137
 20
216.8044560663473987
 30
0.0
 11
3243.7250510608510012
 21
216.8049894761034864
 31
0.0
  0
ARC
  5
9F75
  8
0
 10
3244.1506936551350009
 20
216.6835140053541124
 30
0.0
 40
0.0393679053158184
 50
219.4542221820763075
 51
269.5486002217951977
  0
ARC
  5
9F76
  8
0
 10
-6565.3741906873729022
 20
-1240907.0859692010562867
 30
0.0
 40
1241162.4954979598987848
 50
89.5470939154447336
 51
89.5471582401842738
  0
ARC
  5
9F77
  8
0
 10
3245.5788370389968804
 20
218.3550736023863976
 30
0.0
 40
0.0393695023864212
 50
11.2841527097607095
 51
90.4891420540804035
  0
ARC
  5
9F78
  8
0
 10
3241.765109531932012
 20
217.5938381011067122
 30
0.0
 40
3.9283278443877521
 50
4.4939541077102962
 51
11.2880780153211706
  0
LINE
  5
9F79
  8
0
 10
3245.681360153650985
 20
217.9016379076028045
 30
0.0
 11
3245.681360153650985
 21
217.2831441942026913
 31
0.0
  0
ARC
  5
9F7A
  8
0
 10
3241.7565471769098622
 20
217.5923910444803937
 30
0.0
 40
3.937007819802774
 50
346.3487105165722255
 51
355.4835355746835148
  0
ARC
  5
9F7B
  8
0
 10
3245.5439207961621833
 20
216.6727032285292864
 30
0.0
 40
0.0395699321110538
 50
269.7763672979090757
 51
346.1181698156054267
  0
ARC
  5
9F7C
  8
0
 10
3245.6664204210619573
 20
217.8404225471371944
 30
0.0
 40
0.031496062693748
 50
7.3108348684240001
 51
61.6838406761967732
  0
ARC
  5
9F7D
  8
0
 10
3243.7211949830998492
 20
217.5923910508527115
 30
0.0
 40
1.992470715990017
 50
352.7328422813594102
 51
7.2671521191543826
  0
ARC
  5
9F7E
  8
0
 10
3245.6664204208332194
 20
217.3443595548230007
 30
0.0
 40
0.031496063026353
 50
298.3161594709216047
 51
352.6888115668377282
  0
LINE
  5
9F7F
  8
0
 10
3245.6976604086198677
 20
217.3403514194372121
 30
0.0
 11
3245.6976604332508032
 21
217.8444304891092997
 31
0.0
  0
LINE
  5
9F80
  8
0
 10
3245.6174454823380984
 20
218.362777226265905
 30
0.0
 11
3245.617450299104803
 21
216.8619306724476985
 31
0.0
  0
ARC
  5
9F81
  8
0
 10
3244.1503234015799535
 20
217.0338156096186992
 30
0.0
 40
1.4771608349891709
 50
345.8622126552323266
 51
353.3182927341874233
  0
ARC
  5
9F82
  8
0
 10
3070.4632230340848764
 20
223.9518076111702953
 30
0.0
 40
175.270724978713389
 50
357.6166792318945795
 51
357.6198864843875072
  0
ARC
  5
9F83
  8
0
 10
3244.0492573668220757
 20
216.0299837393648943
 30
0.0
 40
0.8159122875642907
 50
88.1830993049821643
 51
108.3392284746016969
  0
ARC
  5
9F84
  8
0
 10
15606.0589957811698696
 20
1480765.0702806720510125
 30
0.0
 40
1480599.832699015038088
 50
269.5216143376591162
 51
269.5216725167734921
  0
ARC
  5
9F85
  8
0
 10
3245.5800410330280101
 20
216.8715229914737108
 30
0.0
 40
0.0386197001948353
 50
267.7142985624645917
 51
345.6100056237714853
  0
LINE
  5
9F86
  8
0
 10
3243.7250510609510457
 20
218.3797926245804035
 30
0.0
 11
3244.6285943659740951
 21
218.3869340945753095
 31
0.0
  0
LINE
  5
9F87
  8
0
 10
3245.1049717521709681
 20
218.3906990543952134
 30
0.0
 11
3245.5785009401511161
 21
218.3944416701027933
 31
0.0
  0
LINE
  5
9F88
  8
0
 10
3243.4219014480509031
 20
218.3797926257028053
 30
0.0
 11
3243.6581219270510701
 21
218.3797653151966927
 31
0.0
  0
LINE
  5
9F89
  8
0
 10
3243.6778068667717889
 20
218.3601067834028129
 30
0.0
 11
3243.6778068667717889
 21
216.8246753184027114
 31
0.0
  0
LINE
  5
9F8A
  8
0
 10
3243.7250510608510012
 20
216.9034146729026986
 30
0.0
 11
3243.6876494861508036
 21
216.9034146729026986
 31
0.0
  0
LINE
  5
9F8B
  8
0
 10
3243.7250510608510012
 20
218.2813674288026959
 30
0.0
 11
3243.6876494861508036
 21
218.2813674288026959
 31
0.0
  0
ARC
  5
9F8C
  8
0
 10
3243.6876495566361882
 20
218.2912101186676068
 30
0.0
 40
0.0098426898651011
 50
180.0009905551856946
 51
269.9995896986313824
  0
ARC
  5
9F8D
  8
0
 10
3243.6581685403980373
 20
218.3601270337019002
 30
0.0
 40
0.0196383368153082
 50
359.9409187808216757
 51
90.1359967774124726
  0
ARC
  5
9F8E
  8
0
 10
3243.6876495566361882
 20
216.8935719830379014
 30
0.0
 40
0.0098426898650922
 50
90.0004103013945951
 51
179.9990094448548916
  0
ARC
  5
9F8F
  8
0
 10
3243.6581219975219028
 20
216.8246743453773036
 30
0.0
 40
0.0196848692747036
 50
269.9997948855714185
 51
0.0028321371334416
  0
ARC
  5
9F90
  8
0
 10
3243.4219014545301434
 20
218.5766430192821019
 30
0.0
 40
0.1968503935793142
 50
179.9999928047348021
 51
269.9999981141054946
  0
ARC
  5
9F91
  8
0
 10
3243.2053660215510718
 20
219.0687690036027107
 30
0.0
 40
0.0196850394000165
 50
0.0000000000407111
 51
89.9999999999739515
  0
LINE
  5
9F92
  8
0
 10
3243.2250510609519552
 20
219.0687690036027959
 30
0.0
 11
3243.2250510609078447
 21
218.5766430439566932
 31
0.0
  0
LINE
  5
9F93
  8
0
 10
3243.2053649207509807
 20
219.088454043002713
 30
0.0
 11
3242.0242647601507997
 21
219.088454043002713
 31
0.0
  0
ARC
  5
9F94
  8
0
 10
3241.8077282263170673
 20
219.0293989248368973
 30
0.0
 40
0.1968503936341328
 50
269.9999999808234179
 51
0.0000000191716712
  0
ARC
  5
9F95
  8
0
 10
3242.0242636594030046
 20
219.0687690035809965
 30
0.0
 40
0.0196850394525434
 50
89.9967961362775668
 51
179.9999999366322925
  0
LINE
  5
9F96
  8
0
 10
3242.0045786199511895
 20
219.0687690035809965
 30
0.0
 11
3242.0045786199511895
 21
219.0293989249028073
 31
0.0
  0
ARC
  5
9F97
  8
0
 10
3244.7015817223727936
 20
220.3795097183225948
 30
0.0
 40
3.232399600223169
 50
211.5004955261717896
 51
220.1321775098575984
  0
ARC
  5
9F98
  8
0
 10
3242.6896449891651173
 20
218.8666135252084075
 30
0.0
 40
0.7916478360555825
 50
262.4895468987205049
 51
293.1106662612484115
  0
ARC
  5
9F99
  8
0
 10
3242.7167529163639301
 20
218.7014210698706052
 30
0.0
 40
0.6332731872828217
 50
219.8000305319351071
 51
258.1001558163900995
  0
ARC
  5
9F9A
  8
0
 10
3241.6244862813491636
 20
221.0309191220945877
 30
0.0
 40
3.2029943773543481
 50
295.4398146957486802
 51
304.1365511426507169
  0
ARC
  5
9F9B
  8
0
 10
3240.952109789572205
 20
217.8643375468550971
 30
0.0
 40
1.2920972948648171
 50
39.7503909857758373
 51
48.5326227095368878
  0
ARC
  5
9F9C
  8
0
 10
3244.6561534230509096
 20
218.5293990920027056
 30
0.0
 40
0.0196850394000023
 50
90.0
 51
179.9999999999787974
  0
ARC
  5
9F9D
  8
0
 10
3245.0774132650249157
 20
218.5293990917849953
 30
0.0
 40
0.0196850399257156
 50
0.0000006338180871
 51
90.0101347232472762
  0
ARC
  5
9F9E
  8
0
 10
3244.8607770223447915
 20
219.1487579675950883
 30
0.0
 40
0.7964197382175991
 50
253.0502416283692071
 51
287.8554327335994003
  0
LINE
  5
9F9F
  8
0
 10
3244.6561534230509096
 20
218.549084131402708
 30
0.0
 11
3245.0774097830508254
 21
218.549084131402708
 31
0.0
  0
LINE
  5
9FA0
  8
0
 10
3244.6364683836509357
 20
218.5293990920027056
 30
0.0
 11
3244.6364683836509357
 21
218.3845786469969141
 31
0.0
  0
LINE
  5
9FA1
  8
0
 10
3245.0970983049510323
 20
218.5293990917849953
 30
0.0
 11
3245.0970983049510323
 21
218.3882077386095091
 31
0.0
  0
ENDSEC
  0
EOF
