  0
SECTION
  2
HEADER
  9
$ACADVER
  1
AC1009
  9
$INSBASE
 10
4350.9693921530979424
 20
209.9090865341665051
 30
0.0
  9
$EXTMIN
 10
4345.8922102981050557
 20
186.2950905838387996
 30
-0.0000000000112498
  9
$EXTMAX
 10
4356.5279351667086303
 20
209.9170886795043884
 30
0.0000000000002956
  9
$LIMMIN
 10
0.0
 20
0.0
  9
$LIMMAX
 10
11.6929133858000007
 20
8.2677165353999982
  9
$ORTHOMODE
 70
     0
  9
$REGENMODE
 70
     1
  9
$FILLMODE
 70
     1
  9
$QTEXTMODE
 70
     0
  9
$MIRRTEXT
 70
     0
  9
$DRAGMODE
 70
     2
  9
$LTSCALE
 40
0.6431102362
  9
$OSMODE
 70
  4095
  9
$ATTMODE
 70
     1
  9
$TEXTSIZE
 40
0.2
  9
$TRACEWID
 40
0.05
  9
$TEXTSTYLE
  7
STANDARD
  9
$CLAYER
  8
0
  9
$CELTYPE
  6
BYLAYER
  9
$CECOLOR
 62
   256
  9
$DIMSCALE
 40
1.0
  9
$DIMASZ
 40
0.1875
  9
$DIMEXO
 40
0.0625
  9
$DIMDLI
 40
0.4443307087
  9
$DIMRND
 40
0.0
  9
$DIMDLE
 40
0.0
  9
$DIMEXE
 40
0.125
  9
$DIMTP
 40
0.01
  9
$DIMTM
 40
0.01
  9
$DIMTXT
 40
2.0
  9
$DIMCEN
 40
0.1052362205
  9
$DIMTSZ
 40
0.0
  9
$DIMTOL
 70
     1
  9
$DIMLIM
 70
     0
  9
$DIMTIH
 70
     1
  9
$DIMTOH
 70
     1
  9
$DIMSE1
 70
     0
  9
$DIMSE2
 70
     0
  9
$DIMTAD
 70
     0
  9
$DIMZIN
 70
     0
  9
$DIMBLK
  1

  9
$DIMASO
 70
     1
  9
$DIMSHO
 70
     1
  9
$DIMPOST
  1
\X
  9
$DIMAPOST
  1

  9
$DIMALT
 70
     1
  9
$DIMALTD
 70
     2
  9
$DIMALTF
 40
25.3999999999999986
  9
$DIMLFAC
 40
1.0
  9
$DIMTOFL
 70
     0
  9
$DIMTVP
 40
0.0
  9
$DIMTIX
 70
     0
  9
$DIMSOXD
 70
     0
  9
$DIMSAH
 70
     0
  9
$DIMBLK1
  1

  9
$DIMBLK2
  1

  9
$DIMSTYLE
  2
STANDARD
  9
$DIMCLRD
 70
     0
  9
$DIMCLRE
 70
     0
  9
$DIMCLRT
 70
     0
  9
$DIMTFAC
 40
1.0
  9
$DIMGAP
 40
0.09
  9
$LUNITS
 70
     2
  9
$LUPREC
 70
     4
  9
$SKETCHINC
 40
0.1
  9
$FILLETRAD
 40
0.0
  9
$AUNITS
 70
     0
  9
$AUPREC
 70
     0
  9
$MENU
  1
.
  9
$ELEVATION
 40
0.0
  9
$PELEVATION
 40
0.0
  9
$THICKNESS
 40
0.0
  9
$LIMCHECK
 70
     0
  9
$BLIPMODE
 70
     0
  9
$CHAMFERA
 40
0.0
  9
$CHAMFERB
 40
0.0
  9
$SKPOLY
 70
     0
  9
$TDCREATE
 40
2458060.468368056230247
  9
$TDUPDATE
 40
2459323.9284953707829118
  9
$TDINDWG
 40
0.4026575231
  9
$TDUSRTIMER
 40
0.4026575231
  9
$USRTIMER
 70
     1
  9
$ANGBASE
 50
0.0
  9
$ANGDIR
 70
     0
  9
$PDMODE
 70
     0
  9
$PDSIZE
 40
0.3125
  9
$PLINEWID
 40
0.0
  9
$COORDS
 70
     1
  9
$SPLFRAME
 70
     0
  9
$SPLINETYPE
 70
     6
  9
$SPLINESEGS
 70
     8
  9
$ATTDIA
 70
     1
  9
$ATTREQ
 70
     1
  9
$HANDLING
 70
     1
  9
$HANDSEED
  5
C7DF
  9
$SURFTAB1
 70
     6
  9
$SURFTAB2
 70
     6
  9
$SURFTYPE
 70
     6
  9
$SURFU
 70
     6
  9
$SURFV
 70
     6
  9
$UCSNAME
  2

  9
$UCSORG
 10
0.0
 20
0.0
 30
0.0
  9
$UCSXDIR
 10
1.0
 20
0.0
 30
0.0
  9
$UCSYDIR
 10
0.0
 20
1.0
 30
0.0
  9
$PUCSNAME
  2

  9
$PUCSORG
 10
0.0
 20
0.0
 30
0.0
  9
$PUCSXDIR
 10
1.0
 20
0.0
 30
0.0
  9
$PUCSYDIR
 10
0.0
 20
1.0
 30
0.0
  9
$USERI1
 70
     0
  9
$USERI2
 70
     0
  9
$USERI3
 70
     0
  9
$USERI4
 70
     0
  9
$USERI5
 70
     0
  9
$USERR1
 40
0.0
  9
$USERR2
 40
0.0
  9
$USERR3
 40
0.0
  9
$USERR4
 40
0.0
  9
$USERR5
 40
0.0
  9
$WORLDVIEW
 70
     1
  9
$SHADEDGE
 70
     3
  9
$SHADEDIF
 70
    70
  9
$TILEMODE
 70
     1
  9
$MAXACTVP
 70
    64
  9
$PLIMCHECK
 70
     0
  9
$PEXTMIN
 10
1.0000000000000000E+20
 20
1.0000000000000000E+20
 30
1.0000000000000000E+20
  9
$PEXTMAX
 10
-1.0000000000000000E+20
 20
-1.0000000000000000E+20
 30
-1.0000000000000000E+20
  9
$PLIMMIN
 10
0.0
 20
0.0
  9
$PLIMMAX
 10
12.0
 20
9.0
  9
$UNITMODE
 70
     0
  9
$VISRETAIN
 70
     1
  9
$PLINEGEN
 70
     0
  9
$PSLTSCALE
 70
     1
  0
ENDSEC
  0
SECTION
  2
TABLES
  0
TABLE
  2
VPORT
 70
     1
  0
VPORT
  2
*ACTIVE
 70
     0
 10
0.0
 20
0.0
 11
1.0
 21
1.0
 12
547.666005349594343
 22
72.1108274349217169
 13
0.0
 23
0.0
 14
1.0
 24
1.0
 15
0.0
 25
0.0
 16
0.0
 26
0.0
 36
17.1152628219792007
 17
3803.5440673828129547
 27
125.9952621967499056
 37
0.0
 40
23.9261439938930813
 41
2.9182795698924728
 42
50.0
 43
0.0
 44
0.0
 50
0.0
 51
0.0
 71
     0
 72
   100
 73
     1
 74
     1
 75
     0
 76
     0
 77
     0
 78
     0
  0
ENDTAB
  0
TABLE
  2
LTYPE
 70
     2
  0
LTYPE
  2
CONTINUOUS
 70
     0
  3
Solid line
 72
    65
 73
     0
 40
0.0
  0
LTYPE
  2
PHANTOM2
 70
     0
  3
___ _ _ ___ _ _ ___ _ _ ___ _ _
 72
    65
 73
     6
 40
1.25
 49
0.625
 49
-0.125
 49
0.125
 49
-0.125
 49
0.125
 49
-0.125
  0
ENDTAB
  0
TABLE
  2
LAYER
 70
     2
  0
LAYER
  2
0
 70
     0
 62
   255
  6
CONTINUOUS
  0
LAYER
  2
DEFPOINTS
 70
     0
 62
     7
  6
CONTINUOUS
  0
ENDTAB
  0
TABLE
  2
STYLE
 70
     1
  0
STYLE
  2
STANDARD
 70
     0
 40
0.0
 41
0.8
 50
0.0
 71
     0
 42
0.2
  3
txt
  4

  0
ENDTAB
  0
TABLE
  2
VIEW
 70
     0
  0
ENDTAB
  0
TABLE
  2
UCS
 70
     0
  0
ENDTAB
  0
TABLE
  2
APPID
 70
     9
  0
APPID
  2
ACAD
 70
     0
  0
APPID
  2
ACAD_MLEADERVER
 70
     0
  0
APPID
  2
ACAD_EXEMPT_FROM_CAD_STANDARDS
 70
     0
  0
APPID
  2
ACAD_NAV_VCDISPLAY
 70
     0
  0
APPID
  2
ACAECLAYERSTANDARD
 70
     0
  0
APPID
  2
ACCMTRANSPARENCY
 70
     0
  0
APPID
  2
ACAD_DSTYLE_DIMJAG
 70
     0
  0
APPID
  2
ACAD_DSTYLE_DIMTALN
 70
     0
  0
APPID
  2
ACDBATTR
 70
     0
  0
ENDTAB
  0
TABLE
  2
DIMSTYLE
 70
     1
  0
DIMSTYLE
  2
STANDARD
 70
     0
  3

  4

  5

  6

  7

 40
1.0
 41
0.1875
 42
0.0625
 43
0.38
 44
0.125
 45
0.0
 46
0.0
 47
0.01
 48
0.01
140
0.15625
141
0.09
142
0.0
143
25.3999999999999986
144
1.0
145
0.0
146
1.0
147
0.09
 71
     1
 72
     0
 73
     1
 74
     1
 75
     0
 76
     0
 77
     0
 78
     4
170
     0
171
     2
172
     0
173
     0
174
     0
175
     0
176
     0
177
     0
178
     0
  0
ENDTAB
  0
ENDSEC
  0
SECTION
  2
BLOCKS
  0
BLOCK
  8
0
  2
$MODEL_SPACE
 70
     0
 10
0.0
 20
0.0
 30
0.0
  3
$MODEL_SPACE
  1

  0
ENDBLK
  5
21
  8
0
  0
BLOCK
 67
     1
  8
0
  2
$PAPER_SPACE
 70
     0
 10
0.0
 20
0.0
 30
0.0
  3
$PAPER_SPACE
  1

  0
ENDBLK
  5
1D
 67
     1
  8
0
  0
ENDSEC
  0
SECTION
  2
ENTITIES
  0
ATTDEF
  5
3930
  8
DEFPOINTS
 10
4350.9646566085557424
 20
209.9071620510619027
 30
0.0
 40
0.001
  1
K-33082T-4
  3

  2
MODELNUMBER
 70
     0
1001
ACDBATTR
1070
     0
1070
     1
  0
ATTDEF
  5
3931
  8
DEFPOINTS
 10
4350.9646566085557424
 20
209.9054953843952092
 30
0.0
 40
0.001
  1

  3

  2
TRADENAME
 70
     0
1001
ACDBATTR
1070
     0
1070
     1
  0
ATTDEF
  5
3932
  8
DEFPOINTS
 10
4350.9646566085557424
 20
209.9038287177286009
 30
0.0
 40
0.001
  1
BATH AND SHOWER FAUCET
  3

  2
PRODUCT
 70
     0
1001
ACDBATTR
1070
     0
1070
     1
  0
LINE
  5
C52A
  8
0
 10
4349.2961488460477995
 20
209.9090865341665051
 30
0.0
 11
4346.7371236491471791
 21
209.9090865341665051
 31
0.0
  0
LINE
  5
C52B
  8
0
 10
4349.3158488460494482
 20
209.7673784453658925
 30
0.0
 11
4349.3158488460494482
 21
209.8893865341665048
 31
0.0
  0
LINE
  5
C52C
  8
0
 10
4346.7174236491482588
 20
209.7673784453658925
 30
0.0
 11
4346.7174236491482588
 21
209.8893865341665048
 31
0.0
  0
LINE
  5
C52D
  8
0
 10
4347.3996010342061709
 20
209.1383685130550987
 30
0.0
 11
4346.7930999046639045
 21
209.6122191279742992
 31
0.0
  0
LINE
  5
C52E
  8
0
 10
4348.6336714609897172
 20
209.1383685130550987
 30
0.0
 11
4349.2401725905319836
 21
209.6122191279742992
 31
0.0
  0
LINE
  5
C52F
  8
0
 10
4348.5852189028846624
 20
209.1216849593664904
 30
0.0
 11
4347.4480535923112257
 21
209.1216849593664904
 31
0.0
  0
ARC
  5
C530
  8
0
 10
4348.5852189028846624
 20
209.2003849593664881
 30
0.0
 40
0.0787
 50
270.0
 51
307.9999999969962232
  0
ARC
  5
C531
  8
0
 10
4347.4480535923112257
 20
209.2003849593664881
 30
0.0
 40
0.0787
 50
232.0000000030007925
 51
270.0
  0
ARC
  5
C532
  8
0
 10
4346.914323649148173
 20
209.7673784453658925
 30
0.0
 40
0.1969
 50
180.0000000000032117
 51
232.0000000030007925
  0
ARC
  5
C533
  8
0
 10
4349.1189488460468056
 20
209.7673784453658925
 30
0.0
 40
0.1969
 50
307.9999999969991791
 51
359.9999999999902229
  0
ARC
  5
C534
  8
0
 10
4349.2961488460477995
 20
209.8893865341665048
 30
0.0
 40
0.0197
 50
359.9999999999575948
 51
90.0
  0
ARC
  5
C535
  8
0
 10
4346.7371236491471791
 20
209.8893865341665048
 30
0.0
 40
0.0197
 50
90.0
 51
180.0000000000194973
  0
LINE
  5
C536
  8
0
 10
4347.4457701058481689
 20
208.3185353530664941
 30
0.0
 11
4348.5875023893477191
 21
208.3185353530664941
 31
0.0
  0
LINE
  5
C537
  8
0
 10
4347.4064000271482655
 20
208.3579054317665111
 30
0.0
 11
4347.4457701058481689
 21
208.3185353530664941
 31
0.0
  0
LINE
  5
C538
  8
0
 10
4347.4064000271482655
 20
208.3579054317665111
 30
0.0
 11
4347.4064000271482655
 21
208.8303463765664958
 31
0.0
  0
LINE
  5
C539
  8
0
 10
4348.6268724680476225
 20
208.3579054317665111
 30
0.0
 11
4348.6268724680476225
 21
208.8303463765664958
 31
0.0
  0
LINE
  5
C53A
  8
0
 10
4348.6268724680476225
 20
208.3579054317665111
 30
0.0
 11
4348.5875023893477191
 21
208.3185353530664941
 31
0.0
  0
LINE
  5
C53B
  8
0
 10
4348.5312031767471126
 20
208.8697164553665004
 30
0.0
 11
4348.5312031767471126
 21
209.1216849593664051
 31
0.0
  0
LINE
  5
C53C
  8
0
 10
4347.4457701058481689
 20
208.8697164553665004
 30
0.0
 11
4348.5875023893477191
 21
208.8697164553665004
 31
0.0
  0
LINE
  5
C53D
  8
0
 10
4348.5875023893477191
 20
208.8697164553665004
 30
0.0
 11
4348.6268724680476225
 21
208.8303463765664958
 31
0.0
  0
LINE
  5
C53E
  8
0
 10
4347.4064000271482655
 20
208.8303463765664958
 30
0.0
 11
4347.4457701058481689
 21
208.8697164553665004
 31
0.0
  0
LINE
  5
C53F
  8
0
 10
4347.502069318447866
 20
209.1216849593664904
 30
0.0
 11
4347.502069318447866
 21
208.8697164553665004
 31
0.0
  0
LINE
  5
C540
  8
0
 10
4352.2095496333968185
 20
209.9090865341665051
 30
0.0
 11
4349.7292346727981567
 21
209.9090865341665051
 31
0.0
  0
LINE
  5
C541
  8
0
 10
4352.1800493250993895
 20
209.5153857467664977
 30
0.0
 11
4349.7587349810974047
 21
209.5153857467664977
 31
0.0
  0
LINE
  5
C542
  8
0
 10
4352.1997425744011707
 20
209.5345700608847892
 30
0.0
 11
4352.2095496333968185
 21
209.9090865341665051
 31
0.0
  0
LINE
  5
C543
  8
0
 10
4349.7390417317938045
 20
209.5345700608847892
 30
0.0
 11
4349.7292346727981567
 21
209.9090865341665051
 31
0.0
  0
LINE
  5
C544
  8
0
 10
4351.4615181372973893
 20
207.8224723608664988
 30
0.0
 11
4351.4615181372973893
 21
209.5153857467664977
 31
0.0
  0
LINE
  5
C545
  8
0
 10
4350.4772668406967568
 20
207.8224723608664988
 30
0.0
 11
4350.477266184068867
 21
209.5153857467664977
 31
0.0
  0
LINE
  5
C546
  8
0
 10
4350.4772667108982205
 20
208.1571180301664867
 30
0.0
 11
4351.4615181372973893
 21
208.1571180301664867
 31
0.0
  0
ARC
  5
C547
  8
0
 10
4352.1800493250993895
 20
209.535085746766498
 30
0.0
 40
0.0197
 50
270.0
 51
358.4999999998116209
  0
ARC
  5
C548
  8
0
 10
4349.7587349810974047
 20
209.535085746766498
 30
0.0
 40
0.0197
 50
181.5000000001884075
 51
270.0
  0
LINE
  5
C549
  8
0
 10
4350.5756913656978213
 20
207.0547558254664864
 30
0.0
 11
4350.5756913656978213
 21
191.3067243293664887
 31
0.0
  0
LINE
  5
C54A
  8
0
 10
4351.3630929404980634
 20
207.0547558254664864
 30
0.0
 11
4351.3630929404980634
 21
191.3067243293664887
 31
0.0
  0
ARC
  5
C54B
  8
0
 10
4350.9693921530979424
 20
207.0547558254664864
 30
0.0
 40
0.3937007874
 50
0.0
 51
180.0
  0
LINE
  5
C54C
  8
0
 10
4350.6544315230994471
 20
207.6456872756496921
 30
0.0
 11
4350.6544315230994471
 21
208.1571180301664867
 31
0.0
  0
LINE
  5
C54D
  8
0
 10
4351.2843527829982122
 20
207.6456874888233131
 30
0.0
 11
4351.2843527829982122
 21
208.1571180301664867
 31
0.0
  0
ARC
  5
C54E
  8
0
 10
4350.9693921530979424
 20
207.0547558254664864
 30
0.0
 40
0.6496062992000005
 50
307.3052009664626212
 51
232.6947990335374072
  0
ARC
  5
C54F
  8
0
 10
4351.3237990015895775
 20
207.6456688782994888
 30
0.0
 40
0.0394462229854254
 50
179.9729681466999125
 51
237.9307856444252991
  0
ARC
  5
C550
  8
0
 10
4350.6149853044062183
 20
207.6456688782994888
 30
0.0
 40
0.0394462229854254
 50
302.0692071341812266
 51
0.0267222177490295
  0
ARC
  5
C551
  8
0
 10
4350.9693921530979424
 20
207.0547558254664864
 30
0.0
 40
0.4330708660999977
 50
335.3800226828889208
 51
204.6199773171140919
  0
LINE
  5
C552
  8
0
 10
4350.5756913656978213
 20
207.0153857454876913
 30
0.0
 11
4350.538114548791782
 21
207.0153857454876913
 31
0.0
  0
LINE
  5
C553
  8
0
 10
4350.5776648156297597
 20
207.0941259025622116
 30
0.0
 11
4350.5381145487817776
 21
207.0941259025622116
 31
0.0
  0
ARC
  5
C554
  8
0
 10
4350.9693921530988518
 20
207.0547558240801891
 30
0.0
 40
0.401574881201844
 50
174.3737301879999109
 51
185.6262698278569019
  0
ARC
  5
C555
  8
0
 10
4350.9693921530979424
 20
207.0547558240801891
 30
0.0
 40
0.4212598575998363
 50
174.6374286098291861
 51
185.3625714052832052
  0
ARC
  5
C556
  8
0
 10
4350.9693921530979424
 20
191.3067243293664887
 30
0.0
 40
0.3937007874000002
 50
180.0
 51
0.0
  0
ARC
  5
C557
  8
0
 10
4350.969466363070751
 20
191.3064610617159076
 30
0.0
 40
0.413536655581974
 50
162.2156851426686046
 51
17.8515179710711109
  0
ARC
  5
C558
  8
0
 10
4350.9693921530979424
 20
191.320261766118108
 30
0.0
 40
0.4879454727516622
 50
143.789693872162502
 51
36.210306127837498
  0
ARC
  5
C559
  8
0
 10
4350.3788409708367908
 20
207.2739591469697871
 30
0.0
 40
0.0196850382399001
 50
159.6336891836492953
 51
180.0000003007866098
  0
ARC
  5
C55A
  8
0
 10
4350.378840971997306
 20
206.8355525040664133
 30
0.0
 40
0.0196850393998762
 50
179.9999999999153033
 51
200.3610441532740936
  0
LINE
  5
C55B
  8
0
 10
4350.3591559325968774
 20
207.2739591468665026
 30
0.0
 11
4350.3591559325968774
 21
206.8355525040664986
 31
0.0
  0
LINE
  5
C55C
  8
0
 10
4351.5796283735980978
 20
207.2739591468665026
 30
0.0
 11
4351.5796283735980978
 21
206.8355525040664986
 31
0.0
  0
ARC
  5
C55D
  8
0
 10
4351.5599433362785931
 20
206.8355525038811038
 30
0.0
 40
0.0196850373190435
 50
339.6379424026313814
 51
0.0000140659130055
  0
ARC
  5
C55E
  8
0
 10
4351.5599433349152605
 20
207.2739591469301956
 30
0.0
 40
0.0196850386842164
 50
359.9999998144061806
 51
20.3610447041073606
  0
ARC
  5
C55F
  8
0
 10
4347.5222516666981392
 20
208.4858581878872883
 30
0.0
 40
0.16732283482083
 50
229.8808331448202864
 51
310.1191668551796852
  0
ARC
  5
C560
  8
0
 10
4348.0166362475983988
 20
208.9287715742997875
 30
0.0
 40
0.6102362212333003
 50
249.3064587925348121
 51
290.6935412074652163
  0
ARC
  5
C561
  8
0
 10
4348.5110208284977489
 20
208.4858581878872883
 30
0.0
 40
0.1673228348208017
 50
229.8808331448161084
 51
310.1191668551838916
  0
ARC
  5
C562
  8
0
 10
4347.5222516666981392
 20
208.7023936204456049
 30
0.0
 40
0.16732283482083
 50
49.8808331448203219
 51
130.1191668551797136
  0
ARC
  5
C563
  8
0
 10
4348.0166362475983988
 20
208.259480234033191
 30
0.0
 40
0.6102362212333003
 50
69.3064587925348405
 51
110.6935412074652021
  0
ARC
  5
C564
  8
0
 10
4348.5110208284977489
 20
208.7023936204456049
 30
0.0
 40
0.1673228348208017
 50
49.8808331448161297
 51
130.1191668551838916
  0
LINE
  5
C565
  8
0
 10
4347.4064000270982433
 20
208.830346376516701
 30
0.0
 11
4347.414432265598407
 21
208.8303463765664958
 31
0.0
  0
LINE
  5
C566
  8
0
 10
4347.414432265598407
 20
208.8303463765664958
 30
0.0
 11
4347.414432265598407
 21
208.3579054317665111
 31
0.0
  0
LINE
  5
C567
  8
0
 10
4347.414432265598407
 20
208.3579054317665111
 30
0.0
 11
4347.4064000271482655
 21
208.3579054317665111
 31
0.0
  0
LINE
  5
C568
  8
0
 10
4347.6300710677978714
 20
208.3579054317665111
 30
0.0
 11
4347.6300710677978714
 21
208.8303463765664958
 31
0.0
  0
LINE
  5
C569
  8
0
 10
4347.6300710677978714
 20
208.8303463765664958
 30
0.0
 11
4347.8009974453980249
 21
208.8303463765664958
 31
0.0
  0
LINE
  5
C56A
  8
0
 10
4347.8009974453980249
 20
208.8303463765664958
 30
0.0
 11
4347.8009974453980249
 21
208.3579054317665111
 31
0.0
  0
LINE
  5
C56B
  8
0
 10
4347.8009974453980249
 20
208.3579054317665111
 30
0.0
 11
4347.6300710677978714
 21
208.3579054317665111
 31
0.0
  0
LINE
  5
C56C
  8
0
 10
4348.2322750497978632
 20
208.3579054317665111
 30
0.0
 11
4348.4032014273971072
 21
208.3579054317665111
 31
0.0
  0
LINE
  5
C56D
  8
0
 10
4348.4032014273971072
 20
208.3579054317665111
 30
0.0
 11
4348.4032014273971072
 21
208.8303463765664958
 31
0.0
  0
LINE
  5
C56E
  8
0
 10
4348.4032014273971072
 20
208.8303463765664958
 30
0.0
 11
4348.2322750497978632
 21
208.8303463765664958
 31
0.0
  0
LINE
  5
C56F
  8
0
 10
4348.2322750497978632
 20
208.8303463765664958
 30
0.0
 11
4348.2322750497978632
 21
208.3579054317665111
 31
0.0
  0
LINE
  5
C570
  8
0
 10
4346.7930999046711804
 20
209.6122191280082063
 30
0.0
 11
4349.2401725905319836
 21
209.6122191279742992
 31
0.0
  0
ARC
  5
C571
  8
0
 10
4350.9693921530979424
 20
191.3067243293664887
 30
0.0
 40
4.9997203197000033
 50
94.5164067818196969
 51
85.4835932181803031
  0
ARC
  5
C572
  8
0
 10
4350.9693921530979424
 20
191.3067243293664887
 30
0.0
 40
4.9409448819000001
 50
94.5702456483213041
 51
85.429754351678838
  0
ARC
  5
C573
  8
0
 10
4350.9693921530979424
 20
191.3067243293664887
 30
0.0
 40
4.9485883382999978
 50
94.5631715952605418
 51
85.4368284047394582
  0
ARC
  5
C574
  8
0
 10
4350.9693921530979424
 20
191.3067243293664887
 30
0.0
 40
0.7480314949999965
 50
121.7568639095339051
 51
58.2431360904661233
  0
ARC
  5
C575
  8
0
 10
4350.9693921530979424
 20
191.3067243293664887
 30
0.0
 40
0.7874015747999934
 50
119.9999999999997016
 51
60.0000000000002771
  0
ARC
  5
C576
  8
0
 10
4350.9693921530979424
 20
191.3067243293664887
 30
0.0
 40
0.8070866142000028
 50
119.1964044084616035
 51
60.8035955915384179
  0
LINE
  5
C577
  8
0
 10
4348.6188402295983906
 20
208.8303463765664958
 30
0.0
 11
4348.6188402295983906
 21
208.3579054317665111
 31
0.0
  0
LINE
  5
C578
  8
0
 10
4348.6188402295983906
 20
208.3579054317665111
 30
0.0
 11
4348.6268724680476225
 21
208.3579054317665111
 31
0.0
  0
LINE
  5
C579
  8
0
 10
4348.6188402295983906
 20
208.8303463765664958
 30
0.0
 11
4348.6268724680476225
 21
208.8303463765664958
 31
0.0
  0
LINE
  5
C57A
  8
0
 10
4347.5953764053647319
 20
208.2870392900665024
 30
0.0
 11
4347.5953764053647319
 21
208.2201101561664984
 31
0.0
  0
LINE
  5
C57B
  8
0
 10
4347.6079748305655812
 20
208.3185353530664941
 30
0.0
 11
4347.5953764053647319
 21
208.2870392900665024
 31
0.0
  0
LINE
  5
C57C
  8
0
 10
4348.4378960904659834
 20
208.2870392900665024
 30
0.0
 11
4348.4378960904659834
 21
208.2201101561664984
 31
0.0
  0
LINE
  5
C57D
  8
0
 10
4348.4252976652660436
 20
208.3185353530664941
 30
0.0
 11
4348.4378960904659834
 21
208.2870392900665024
 31
0.0
  0
LINE
  5
C57E
  8
0
 10
4348.4378960904659834
 20
208.2870392900665024
 30
0.0
 11
4347.5953764053647319
 21
208.2870392900665024
 31
0.0
  0
LINE
  5
C57F
  8
0
 10
4348.0310046714830605
 20
206.2933962367455933
 30
0.0
 11
4348.6522712612359101
 21
206.2870393530664899
 31
0.0
  0
LINE
  5
C580
  8
0
 10
4348.6978565921308473
 20
206.2870393530664899
 30
0.0
 11
4350.5756913656978213
 21
206.2870393530664899
 31
0.0
  0
LINE
  5
C581
  8
0
 10
4351.3630929404980634
 20
206.2870393530664899
 30
0.0
 11
4351.596275428856643
 21
206.2870393530664899
 31
0.0
  0
LINE
  5
C582
  8
0
 10
4348.6978563727498113
 20
207.8224723608664988
 30
0.0
 11
4350.6544315230994471
 21
207.8224723608664988
 31
0.0
  0
LINE
  5
C583
  8
0
 10
4351.2843527829982122
 20
207.8224723608664988
 30
0.0
 11
4352.8509661960661106
 21
207.8224723608664988
 31
0.0
  0
LINE
  5
C584
  8
0
 10
4352.8942512354660721
 20
207.8224723608664988
 30
0.0
 11
4354.4320636420379742
 21
207.8224723608664988
 31
0.0
  0
LINE
  5
C585
  8
0
 10
4348.6522712613714248
 20
207.8224723608664988
 30
0.0
 11
4348.0310569926250537
 21
207.8161158424576058
 31
0.0
  0
ARC
  5
C586
  8
0
 10
4372.8818956634695496
 20
207.0538649916603902
 30
0.0
 40
24.8931496877445397
 50
178.3163496936467993
 51
181.6795414962788016
  0
ARC
  5
C587
  8
0
 10
4348.0312266782575534
 20
206.3251954617832098
 30
0.0
 40
0.0318
 50
181.6795414962656992
 51
269.5999951397261043
  0
ARC
  5
C588
  8
0
 10
4348.0312789966992568
 20
207.7843166174010889
 30
0.0
 40
0.0318
 50
90.3999999946252473
 51
178.3163496936467993
  0
LINE
  5
C589
  8
0
 10
4352.8627661960663318
 20
206.8316698375047906
 30
0.0
 11
4352.8627661960663318
 21
207.810672360866505
 31
0.0
  0
LINE
  5
C58A
  8
0
 10
4352.8824512354658509
 20
206.8353427681558117
 30
0.0
 11
4352.8824512354658509
 21
207.810672360866505
 31
0.0
  0
LINE
  5
C58B
  8
0
 10
4352.8745772196662074
 20
206.8338820350707863
 30
0.0
 11
4352.8745772196662074
 21
207.7436617293269023
 31
0.0
  0
ARC
  5
C58C
  8
0
 10
4352.8863881531342486
 20
207.7436658530714908
 30
0.0
 40
0.0118109341865477
 50
109.4709098857556029
 51
180.0200046127542919
  0
ARC
  5
C58D
  8
0
 10
4352.8586778934459289
 20
207.7196020358954058
 30
0.0
 40
0.0160379738072938
 50
7.5393239777650241
 51
75.2315159948465322
  0
ARC
  5
C58E
  8
0
 10
4352.8942512354660721
 20
207.810672360866505
 30
0.0
 40
0.0118
 50
90.0
 51
179.9999999999820943
  0
ARC
  5
C58F
  8
0
 10
4352.8509661960661106
 20
207.810672360866505
 30
0.0
 40
0.0118
 50
0.0000000000162844
 51
90.0
  0
ARC
  5
C590
  8
0
 10
4347.7326728887592253
 20
207.0547557176276996
 30
0.0
 40
1.2204731066376151
 50
321.7893082348775806
 51
38.2107083081423013
  0
ARC
  5
C591
  8
0
 10
4348.6978563727498113
 20
207.8145723608664923
 30
0.0
 40
0.0079
 50
90.0
 51
218.2107083081409939
  0
ARC
  5
C592
  8
0
 10
4348.6978565921308473
 20
206.2949393530664963
 30
0.0
 40
0.0079
 50
141.7893082348275016
 51
270.0
  0
ARC
  5
C593
  8
0
 10
4347.7326705150735506
 20
207.054755857048491
 30
0.0
 40
1.200790041900768
 50
320.4349136969200913
 51
39.5650862928549074
  0
ARC
  5
C594
  8
0
 10
4348.6522712612359101
 20
206.2949393530664963
 30
0.0
 40
0.0079
 50
270.0
 51
320.4349136969747178
  0
ARC
  5
C595
  8
0
 10
4348.6522712613714248
 20
207.8145723608664923
 30
0.0
 40
0.0079
 50
39.5650862927740121
 51
90.0000000000521254
  0
LINE
  5
C596
  8
0
 10
4348.9283898384928762
 20
206.9445196364663957
 30
0.0
 11
4348.9481574054998418
 21
206.9445196364663957
 31
0.0
  0
LINE
  5
C597
  8
0
 10
4348.9283898385083376
 20
207.1649920774665077
 30
0.0
 11
4348.9481573802258936
 21
207.1649920774665077
 31
0.0
  0
ARC
  5
C598
  8
0
 10
4322.5100025359406573
 20
207.0547454529904883
 30
0.0
 40
26.4317107104087796
 50
359.8055551878492793
 51
0.1944891396433249
  0
ARC
  5
C599
  8
0
 10
4348.9653427014018234
 20
207.144547811098704
 30
0.0
 40
0.0237818711661552
 50
148.5241283900398912
 51
180.1944891396416892
  0
ARC
  5
C59A
  8
0
 10
4348.9668579094868619
 20
206.9653888829033122
 30
0.0
 40
0.0252992200003887
 50
180.7804758927777868
 51
210.5115182531685889
  0
LINE
  5
C59B
  8
0
 10
4348.9450619455474225
 20
206.9525441762665139
 30
0.0
 11
4348.9488584851378619
 21
206.9525441762665139
 31
0.0
  0
LINE
  5
C59C
  8
0
 10
4348.9450600918280543
 20
207.1569652643412098
 30
0.0
 11
4348.9488586527713778
 21
207.1569652643412098
 31
0.0
  0
LINE
  5
C59D
  8
0
 10
4348.6899563727511122
 20
207.8145723608664923
 30
0.0
 11
4348.6899563727511122
 21
207.7796699977720891
 31
0.0
  0
LINE
  5
C59E
  8
0
 10
4348.6899565921312387
 20
206.2949393530664963
 30
0.0
 11
4348.6899565921312387
 21
206.3298420060299065
 31
0.0
  0
LINE
  5
C59F
  8
0
 10
4351.4221480589658313
 20
208.1571180301664867
 30
0.0
 11
4351.4221480589658313
 21
207.8224723608664988
 31
0.0
  0
LINE
  5
C5A0
  8
0
 10
4350.5166362479658346
 20
208.1571180301664867
 30
0.0
 11
4350.5166362479658346
 21
207.8224723608664988
 31
0.0
  0
ARC
  5
C5A1
  8
0
 10
4350.8910679996806721
 20
207.3219888946663048
 30
0.0
 40
0.9613361033639547
 50
31.3733369690806292
 51
53.601840976855982
  0
ARC
  5
C5A2
  8
0
 10
4351.0399755793187069
 20
207.3292198382854963
 30
0.0
 40
0.9514211083361132
 50
126.2592874244171952
 51
148.7724896879680045
  0
ARC
  5
C5A3
  8
0
 10
4349.4167332229817475
 20
231.3705937956339085
 30
0.0
 40
24.1020796594591502
 50
265.4996580849398242
 51
266.6065380041918047
  0
LINE
  5
C5A4
  8
0
 10
4347.4673214517833912
 20
208.2004252479333957
 30
0.0
 11
4347.4673214517833912
 21
207.4058292352183059
 31
0.0
  0
LINE
  5
C5A5
  8
0
 10
4347.4724399494789395
 20
208.2201101561664984
 30
0.0
 11
4348.6000142360926475
 21
208.2201101561664984
 31
0.0
  0
LINE
  5
C5A6
  8
0
 10
4348.633555863494621
 20
208.2397951955665008
 30
0.0
 11
4350.4772666788303468
 21
208.2397951955663871
 31
0.0
  0
LINE
  5
C5A7
  8
0
 10
4351.4615181372973893
 20
208.2397951955663871
 30
0.0
 11
4353.3052284435234469
 21
208.2397951955663871
 31
0.0
  0
ARC
  5
C5A8
  8
0
 10
4348.63230988048781
 20
208.2034996891071899
 30
0.0
 40
0.0363168867412491
 50
88.033873861184091
 51
152.7820946912850957
  0
ARC
  5
C5A9
  8
0
 10
4347.5048893828461587
 20
208.2011646949571002
 30
0.0
 40
0.0375752076006981
 50
149.7216656884262136
 51
181.1276032774364921
  0
ARC
  5
C5AA
  8
0
 10
4347.5305214517820787
 20
207.4058292352183059
 30
0.0
 40
0.0632
 50
180.0000000000129887
 51
265.4996580849398242
  0
LINE
  5
C5AB
  8
0
 10
4349.9127811750659021
 20
208.2594802348664871
 30
0.0
 11
4350.1489984526660919
 21
208.2594802348664871
 31
0.0
  0
LINE
  5
C5AC
  8
0
 10
4350.1489984526660919
 20
208.2594802348664871
 30
0.0
 11
4350.1489984526660919
 21
208.2397951955665008
 31
0.0
  0
LINE
  5
C5AD
  8
0
 10
4349.9127811750659021
 20
208.2397951955665008
 30
0.0
 11
4349.9127811750659021
 21
208.2594802348664871
 31
0.0
  0
LINE
  5
C5AE
  8
0
 10
4352.6426354608838665
 20
209.9090865341665051
 30
0.0
 11
4355.2016606577835773
 21
209.9090865341665051
 31
0.0
  0
LINE
  5
C5AF
  8
0
 10
4352.6229354608840367
 20
209.7673784453658925
 30
0.0
 11
4352.6229354608840367
 21
209.8893865341665048
 31
0.0
  0
LINE
  5
C5B0
  8
0
 10
4355.2213606577843166
 20
209.7673784453658925
 30
0.0
 11
4355.2213606577843166
 21
209.8893865341665048
 31
0.0
  0
LINE
  5
C5B1
  8
0
 10
4354.5391832727264045
 20
209.1383685130550987
 30
0.0
 11
4355.1456844022677615
 21
209.6122191279742992
 31
0.0
  0
LINE
  5
C5B2
  8
0
 10
4353.3051128459419488
 20
209.1383685130550987
 30
0.0
 11
4352.6986117164005918
 21
209.6122191279742992
 31
0.0
  0
LINE
  5
C5B3
  8
0
 10
4353.3535654040470035
 20
209.1216849593664904
 30
0.0
 11
4354.4907307146213498
 21
209.1216849593664904
 31
0.0
  0
ARC
  5
C5B4
  8
0
 10
4353.3535654040470035
 20
209.2003849593664881
 30
0.0
 40
0.0787
 50
232.0000000030038052
 51
270.0
  0
ARC
  5
C5B5
  8
0
 10
4354.4907307146213498
 20
209.2003849593664881
 30
0.0
 40
0.0787
 50
270.0
 51
307.9999999969991791
  0
ARC
  5
C5B6
  8
0
 10
4355.0244606577844024
 20
209.7673784453658925
 30
0.0
 40
0.1969
 50
307.9999999969991791
 51
359.9999999999968168
  0
ARC
  5
C5B7
  8
0
 10
4352.8198354608830414
 20
209.7673784453658925
 30
0.0
 40
0.1969
 50
180.0000000000098055
 51
232.0000000030007925
  0
ARC
  5
C5B8
  8
0
 10
4352.6426354608838665
 20
209.8893865341665048
 30
0.0
 40
0.0197
 50
90.0
 51
180.0000000000422915
  0
ARC
  5
C5B9
  8
0
 10
4355.2016606577835773
 20
209.8893865341665048
 30
0.0
 40
0.0197
 50
359.9999999999805027
 51
90.0
  0
LINE
  5
C5BA
  8
0
 10
4354.493014201085316
 20
208.3185353530664941
 30
0.0
 11
4353.3512819175839468
 21
208.3185353530664941
 31
0.0
  0
LINE
  5
C5BB
  8
0
 10
4354.5323842797843099
 20
208.3579054317665111
 30
0.0
 11
4354.493014201085316
 21
208.3185353530664941
 31
0.0
  0
LINE
  5
C5BC
  8
0
 10
4354.5323842797843099
 20
208.3579054317665111
 30
0.0
 11
4354.5323842797843099
 21
208.8303463765664958
 31
0.0
  0
LINE
  5
C5BD
  8
0
 10
4353.3119118388840434
 20
208.3579054317665111
 30
0.0
 11
4353.3119118388840434
 21
208.8303463765664958
 31
0.0
  0
LINE
  5
C5BE
  8
0
 10
4353.3119118388840434
 20
208.3579054317665111
 30
0.0
 11
4353.3512819175839468
 21
208.3185353530664941
 31
0.0
  0
LINE
  5
C5BF
  8
0
 10
4353.4075811301827343
 20
208.8697164553665004
 30
0.0
 11
4353.4075811301827343
 21
209.1216849593664051
 31
0.0
  0
LINE
  5
C5C0
  8
0
 10
4354.493014201085316
 20
208.8697164553665004
 30
0.0
 11
4353.3512819175839468
 21
208.8697164553665004
 31
0.0
  0
LINE
  5
C5C1
  8
0
 10
4353.3512819175839468
 20
208.8697164553665004
 30
0.0
 11
4353.3119118388840434
 21
208.8303463765664958
 31
0.0
  0
LINE
  5
C5C2
  8
0
 10
4354.5323842797843099
 20
208.8303463765664958
 30
0.0
 11
4354.493014201085316
 21
208.8697164553665004
 31
0.0
  0
LINE
  5
C5C3
  8
0
 10
4354.4367149884838
 20
209.1216849593664904
 30
0.0
 11
4354.4367149884838
 21
208.8697164553665004
 31
0.0
  0
ARC
  5
C5C4
  8
0
 10
4354.4165326402344363
 20
208.4858581878872883
 30
0.0
 40
0.16732283482083
 50
229.8808331448202864
 51
310.1191668551796852
  0
ARC
  5
C5C5
  8
0
 10
4353.9221480593341767
 20
208.9287715742997875
 30
0.0
 40
0.6102362212333003
 50
249.3064587925348121
 51
290.6935412074652163
  0
ARC
  5
C5C6
  8
0
 10
4353.427763478433917
 20
208.4858581878872883
 30
0.0
 40
0.1673228348208017
 50
229.8808331448161084
 51
310.1191668551838916
  0
ARC
  5
C5C7
  8
0
 10
4354.4165326402344363
 20
208.7023936204456049
 30
0.0
 40
0.16732283482083
 50
49.8808331448203219
 51
130.1191668551797136
  0
ARC
  5
C5C8
  8
0
 10
4353.9221480593341767
 20
208.259480234033191
 30
0.0
 40
0.6102362212333003
 50
69.3064587925348405
 51
110.6935412074652021
  0
ARC
  5
C5C9
  8
0
 10
4353.427763478433917
 20
208.7023936204456049
 30
0.0
 40
0.1673228348208017
 50
49.8808331448161297
 51
130.1191668551838916
  0
LINE
  5
C5CA
  8
0
 10
4354.5323842798343321
 20
208.830346376516701
 30
0.0
 11
4354.5243520413341685
 21
208.8303463765664958
 31
0.0
  0
LINE
  5
C5CB
  8
0
 10
4354.5243520413341685
 20
208.8303463765664958
 30
0.0
 11
4354.5243520413341685
 21
208.3579054317665111
 31
0.0
  0
LINE
  5
C5CC
  8
0
 10
4354.5243520413341685
 20
208.3579054317665111
 30
0.0
 11
4354.5323842797843099
 21
208.3579054317665111
 31
0.0
  0
LINE
  5
C5CD
  8
0
 10
4354.3087132391337946
 20
208.3579054317665111
 30
0.0
 11
4354.3087132391337946
 21
208.8303463765664958
 31
0.0
  0
LINE
  5
C5CE
  8
0
 10
4354.3087132391337946
 20
208.8303463765664958
 30
0.0
 11
4354.1377868615327316
 21
208.8303463765664958
 31
0.0
  0
LINE
  5
C5CF
  8
0
 10
4354.1377868615327316
 20
208.8303463765664958
 30
0.0
 11
4354.1377868615327316
 21
208.3579054317665111
 31
0.0
  0
LINE
  5
C5D0
  8
0
 10
4354.1377868615327316
 20
208.3579054317665111
 30
0.0
 11
4354.3087132391337946
 21
208.3579054317665111
 31
0.0
  0
LINE
  5
C5D1
  8
0
 10
4353.7065092571338027
 20
208.3579054317665111
 30
0.0
 11
4353.5355828795327398
 21
208.3579054317665111
 31
0.0
  0
LINE
  5
C5D2
  8
0
 10
4353.5355828795327398
 20
208.3579054317665111
 30
0.0
 11
4353.5355828795327398
 21
208.8303463765664958
 31
0.0
  0
LINE
  5
C5D3
  8
0
 10
4353.5355828795327398
 20
208.8303463765664958
 30
0.0
 11
4353.7065092571338027
 21
208.8303463765664958
 31
0.0
  0
LINE
  5
C5D4
  8
0
 10
4353.7065092571338027
 20
208.8303463765664958
 30
0.0
 11
4353.7065092571338027
 21
208.3579054317665111
 31
0.0
  0
LINE
  5
C5D5
  8
0
 10
4355.1456844022623045
 20
209.6122191280082063
 30
0.0
 11
4352.6986117164005918
 21
209.6122191279742992
 31
0.0
  0
LINE
  5
C5D6
  8
0
 10
4353.3199440773341848
 20
208.8303463765664958
 30
0.0
 11
4353.3199440773341848
 21
208.3579054317665111
 31
0.0
  0
LINE
  5
C5D7
  8
0
 10
4353.3199440773341848
 20
208.3579054317665111
 30
0.0
 11
4353.3119118388840434
 21
208.3579054317665111
 31
0.0
  0
LINE
  5
C5D8
  8
0
 10
4353.3199440773341848
 20
208.8303463765664958
 30
0.0
 11
4353.3119118388840434
 21
208.8303463765664958
 31
0.0
  0
LINE
  5
C5D9
  8
0
 10
4354.343407901565115
 20
208.2870392900665024
 30
0.0
 11
4354.343407901565115
 21
208.2201101561664984
 31
0.0
  0
LINE
  5
C5DA
  8
0
 10
4354.3308094763651752
 20
208.3185353530664941
 30
0.0
 11
4354.343407901565115
 21
208.2870392900665024
 31
0.0
  0
LINE
  5
C5DB
  8
0
 10
4353.5008882164656825
 20
208.2870392900665024
 30
0.0
 11
4353.5008882164656825
 21
208.2201101561664984
 31
0.0
  0
LINE
  5
C5DC
  8
0
 10
4353.5134866416656223
 20
208.3185353530664941
 30
0.0
 11
4353.5008882164656825
 21
208.2870392900665024
 31
0.0
  0
LINE
  5
C5DD
  8
0
 10
4353.5008882164656825
 20
208.2870392900665024
 30
0.0
 11
4354.343407901565115
 21
208.2870392900665024
 31
0.0
  0
LINE
  5
C5DE
  8
0
 10
4354.4714628551491842
 20
208.2004252479333957
 30
0.0
 11
4354.4714628551491842
 21
207.4058292352183059
 31
0.0
  0
LINE
  5
C5DF
  8
0
 10
4354.4663443574527264
 20
208.2201101561664984
 30
0.0
 11
4353.3387700708390184
 21
208.2201101561664984
 31
0.0
  0
ARC
  5
C5E0
  8
0
 10
4353.3064744264447654
 20
208.2034996891071899
 30
0.0
 40
0.0363168867412491
 50
27.2179053087149185
 51
91.9661261388679918
  0
ARC
  5
C5E1
  8
0
 10
4354.4338949240873262
 20
208.2011646949571002
 30
0.0
 40
0.0375752076006981
 50
358.8723967225635079
 51
30.2783343115737615
  0
ARC
  5
C5E2
  8
0
 10
4354.4082628551495873
 20
207.4058292352183059
 30
0.0
 40
0.0632
 50
340.9862622972974009
 51
359.9999999999869829
  0
ARC
  5
C5E3
  8
0
 10
4354.4320636420379742
 20
207.794872360866492
 30
0.0
 40
0.0276
 50
1.7767883702196201
 51
90.0
  0
LINE
  5
C5E4
  8
0
 10
4354.3068876690140314
 20
207.406936176766493
 30
0.0
 11
4354.431937949566418
 21
207.406936176766493
 31
0.0
  0
ARC
  5
C5E5
  8
0
 10
4354.4321056279641198
 20
207.4347160075820113
 30
0.0
 40
0.0279919719553442
 50
270.2624979645801773
 51
355.564471404887513
  0
ARC
  5
C5E6
  8
0
 10
4352.6754669290121456
 20
207.6123542336707999
 30
0.0
 40
1.7935820419846931
 50
354.2465472367916277
 51
5.8681120053512021
  0
ARC
  5
C5E7
  8
0
 10
4351.0547337092184534
 20
203.2759386057956874
 30
0.0
 40
0.776833409141077
 50
180.8683246835869909
 51
231.9273381441487913
  0
ARC
  5
C5E8
  8
0
 10
3809.2282964247751806
 20
195.0638626601630108
 30
0.0
 40
541.1118325838745022
 50
0.868324683587029
 51
1.188454460030395
  0
ARC
  5
C5E9
  8
0
 10
4349.0541078342421315
 20
205.4223926396402931
 30
0.0
 40
1.6688540744764859
 50
24.2511928096662395
 51
31.2054279110082611
  0
ARC
  5
C5EA
  8
0
 10
4350.8840505977132125
 20
203.2759386057956874
 30
0.0
 40
0.776833409141077
 50
308.072661855851095
 51
359.1316753164130091
  0
ARC
  5
C5EB
  8
0
 10
4892.7104878821573948
 20
195.0638626601630108
 30
0.0
 40
541.1118325838745022
 50
178.8903866009902117
 51
179.1316753164130091
  0
ARC
  5
C5EC
  8
0
 10
4352.8846764726904439
 20
205.4223926396402931
 30
0.0
 40
1.6688540744764859
 50
148.794572088990293
 51
155.7488071903322862
  0
ARC
  5
C5EE
  8
0
 10
4352.1436895039760202
 20
209.4362364273223989
 30
0.0
 40
0.4538209014433983
 50
29.4807634955471904
 51
81.734888671038334
  0
ARC
  5
C5EF
  8
0
 10
4351.8841055001921632
 20
209.2894858928214887
 30
0.0
 40
0.7520147551633923
 50
1.062302006327793
 51
29.4807634955471904
  0
ARC
  5
C5F0
  8
0
 10
4343.1334948347202953
 20
209.1272251354938874
 30
0.0
 40
9.5041296751163369
 50
354.6423116011379761
 51
1.062302006327793
  0
ARC
  5
C5F1
  8
0
 10
4353.918865135347005
 20
206.4329714007267
 30
0.0
 40
3.3988338412612542
 50
123.206206907461393
 51
136.3024838815684916
  0
ARC
  5
C5F2
  8
0
 10
4347.7861802205115964
 20
208.9166225944007067
 30
0.0
 40
4.286458876701837
 50
350.9150346679422228
 51
4.819965416787209
  0
ARC
  5
C5F3
  8
0
 10
4352.1111841690299116
 20
205.808826608472998
 30
0.0
 40
1.789652527337346
 50
311.4813790242387199
 51
333.7870569383592851
  0
ARC
  5
C5F4
  8
0
 10
4352.5461629164947226
 20
205.3168504812589106
 30
0.0
 40
1.132958519069847
 50
287.831571334565183
 51
311.4813790242387199
  0
ARC
  5
C5F5
  8
0
 10
4352.685258870737016
 20
204.8844360811530976
 30
0.0
 40
0.67872300977355
 50
231.133897553432007
 51
287.831571334565183
  0
ARC
  5
C5F6
  8
0
 10
4353.0756500742218122
 20
205.1808162728958962
 30
0.0
 40
1.160473721129613
 50
185.9037551558741939
 51
225.2985736272601116
  0
ARC
  5
C5F7
  8
0
 10
4355.1335301299650382
 20
205.5893759572064994
 30
0.0
 40
3.2552916419309992
 50
182.9579060191800011
 51
189.33310035610711
  0
ARC
  5
C5F8
  8
0
 10
4353.0856264198637291
 20
205.1753438263309022
 30
0.0
 40
0.5970697242241643
 50
176.4216586104041937
 51
220.4474494463615031
  0
ARC
  5
C5F9
  8
0
 10
4352.672949073736163
 20
204.8235381608606929
 30
0.0
 40
0.0547876774394773
 50
220.447449446359002
 51
305.2588150982675188
  0
ARC
  5
C5FA
  8
0
 10
4352.473405866048779
 20
205.4590016173424942
 30
0.0
 40
0.7184097135370934
 50
288.770661360502686
 51
326.785414145273478
  0
ARC
  5
C5FB
  8
0
 10
4355.1757387169400317
 20
206.9344675259694952
 30
0.0
 40
1.8045596772778449
 50
176.5560744657620091
 51
179.9977789998266928
  0
ARC
  5
C5FC
  8
0
 10
4351.2756148337748527
 20
207.2145897736909035
 30
0.0
 40
2.105836181738082
 50
355.3226505982768799
 51
357.5624755524842726
  0
ARC
  5
C5FD
  8
0
 10
4353.4685730395131031
 20
207.1174479810391063
 30
0.0
 40
0.089349561499446
 50
156.5981878408672117
 51
175.133064496955086
  0
ARC
  5
C5FE
  8
0
 10
4353.9932961235999755
 20
206.8862284186934062
 30
0.0
 40
0.662755929099528
 50
94.1714448271883384
 51
156.2703627690326016
  0
ARC
  5
C5FF
  8
0
 10
4353.2519430781203482
 20
206.9869270715448124
 30
0.0
 40
0.130237799504155
 50
333.5900177065993262
 51
336.2803960008030799
  0
ARC
  5
C600
  8
0
 10
4353.2248749566633705
 20
207.1728072593431023
 30
0.0
 40
0.2830129450586563
 50
273.915495265431673
 51
300.5173023085669115
  0
ARC
  5
C601
  8
0
 10
4353.93641812396163
 20
201.1320291708277921
 30
0.0
 40
5.7998820842764509
 50
96.8546073629371591
 51
107.5078848835712932
  0
ARC
  5
C602
  8
0
 10
4352.6320161412113521
 20
205.1225173827463948
 30
0.0
 40
1.602428827599109
 50
105.9526974658489991
 51
122.2351023386010951
  0
ARC
  5
C603
  8
0
 10
4352.0435262271221291
 20
206.0442632882318037
 30
0.0
 40
0.5088943841355811
 50
121.5449570436955042
 51
151.7168504679382863
  0
ARC
  5
C604
  8
0
 10
4352.1209715621898795
 20
206.0712474021271134
 30
0.0
 40
0.5675376253294676
 50
157.8320464929047944
 51
171.0310199160738023
  0
ARC
  5
C605
  8
0
 10
4352.5849038758597089
 20
205.9713748637136916
 30
0.0
 40
1.04170015869128
 50
169.5829623320508119
 51
179.4966840350861048
  0
ARC
  5
C606
  8
0
 10
4352.5245478068000011
 20
205.9840453848970867
 30
0.0
 40
0.981310209534906
 50
180.2055112045092926
 51
196.827395323023012
  0
ARC
  5
C607
  8
0
 10
4352.9889285302442659
 20
207.7390035871572991
 30
0.0
 40
2.5681363425707402
 50
244.4634264196483002
 51
253.9722653180234033
  0
ARC
  5
C608
  8
0
 10
4352.2160717635097171
 20
206.1213339211143989
 30
0.0
 40
0.7753277274860939
 50
224.5717362919955917
 51
244.4634264196483002
  0
ARC
  5
C609
  8
0
 10
4351.9138576446739535
 20
205.8236042328352937
 30
0.0
 40
0.3510915421987248
 50
200.619042378293301
 51
224.5717362919955917
  0
ARC
  5
C60A
  8
0
 10
4353.9451843335091326
 20
212.9699520166026048
 30
0.0
 40
7.912513597763577
 50
269.0410487441145051
 51
269.9992915622447072
  0
ARC
  5
C60B
  8
0
 10
4353.9420172727641329
 20
212.7807419829586024
 30
0.0
 40
7.7232770603155076
 50
265.9800492189634724
 51
269.0410486238272938
  0
ARC
  5
C60C
  8
0
 10
4353.8651388479784146
 20
211.6868034225186079
 30
0.0
 40
6.62664044492504
 50
261.872753228356089
 51
265.9800492189634724
  0
ARC
  5
C60D
  8
0
 10
4353.5415635728668349
 20
209.4209698768007968
 30
0.0
 40
4.3378192165274463
 50
253.0904650895076031
 51
261.872753228356089
  0
LINE
  5
C60E
  8
0
 10
4353.8708931858918731
 20
205.057788501572503
 30
0.0
 11
4353.8763579810192823
 21
205.0277454745979924
 31
0.0
  0
ARC
  5
C60F
  8
0
 10
4353.9044618415846344
 20
205.0328575373864908
 30
0.0
 40
0.0285650164472568
 50
190.3093261151581999
 51
233.0388558388254125
  0
ARC
  5
C610
  8
0
 10
4353.9388566769239333
 20
205.0992897179640977
 30
0.0
 40
0.1030838303047419
 50
239.9818344720272023
 51
273.4647541593250253
  0
ARC
  5
C611
  8
0
 10
4353.9426561773443609
 20
205.2127510691890961
 30
0.0
 40
0.2023572356967888
 50
256.5856851873006121
 51
270.688800993475013
  0
ARC
  5
C612
  8
0
 10
4353.9074101587002588
 20
205.0649675581767895
 30
0.0
 40
0.0504288053179153
 50
237.8027886923941026
 51
256.5856851873006121
  0
ARC
  5
C613
  8
0
 10
4353.8858133703388376
 20
205.0306687381649056
 30
0.0
 40
0.0098969620129125
 50
197.1797127688926139
 51
237.8027886924002985
  0
LINE
  5
C614
  8
0
 10
4353.8127599093959361
 20
205.0585466290187071
 30
0.0
 11
4353.8108909565507929
 21
205.0473645821685977
 31
0.0
  0
ARC
  5
C615
  8
0
 10
4353.7851287297653471
 20
205.0516704474262042
 30
0.0
 40
0.0261195866082664
 50
328.1731881821110051
 51
350.5113648962823731
  0
ARC
  5
C616
  8
0
 10
4353.7049985253515842
 20
205.0535377130325116
 30
0.0
 40
0.0310653746013525
 50
190.7669221179426984
 51
245.8085316497964925
  0
ARC
  5
C617
  8
0
 10
4353.7419888071271998
 20
205.1552875494035959
 30
0.0
 40
0.139265126321707
 50
249.0826861732365103
 51
293.1162238751401787
  0
ARC
  5
C618
  8
0
 10
4353.7798308208475646
 20
205.0546391613304991
 30
0.0
 40
0.0321876404724391
 50
301.5316105421260886
 51
328.6565049473537101
  0
LINE
  5
C619
  8
0
 10
4353.6744800484193547
 20
205.0477342601980126
 30
0.0
 11
4353.6721424738252608
 21
205.0621814861241035
 31
0.0
  0
ARC
  5
C61A
  8
0
 10
4353.7424383711204428
 20
205.1783748146303878
 30
0.0
 40
0.1483205853707741
 50
242.8541988510513079
 51
297.435935091802321
  0
ARC
  5
C61B
  8
0
 10
4353.5979047503160473
 20
205.1857177087611888
 30
0.0
 40
0.134821087050745
 50
247.7621615782001925
 51
294.317926625721384
  0
LINE
  5
C61C
  8
0
 10
4353.5481147005439198
 20
205.0675163727489974
 30
0.0
 11
4353.5435987005193965
 21
205.0438874795979984
 31
0.0
  0
ARC
  5
C61D
  8
0
 10
4353.5151197976547337
 20
205.0493304229136129
 30
0.0
 40
0.0289943708376528
 50
301.6058954813739206
 51
349.180002718745925
  0
ARC
  5
C61E
  8
0
 10
4353.4748349250339743
 20
205.148259060473805
 30
0.0
 40
0.1355010133130404
 50
245.9964912608706982
 51
294.1699025037502224
  0
ARC
  5
C61F
  8
0
 10
4353.4312403699059359
 20
205.0469224585723964
 30
0.0
 40
0.0252327859529713
 50
185.9622183836214901
 51
242.819405104278502
  0
LINE
  5
C620
  8
0
 10
4353.40614407801786
 20
205.044301462497998
 30
0.0
 11
4353.4005859952003448
 21
205.0764664996875126
 31
0.0
  0
ARC
  5
C621
  8
0
 10
4353.474723586971777
 20
205.1780709136803011
 30
0.0
 40
0.1513157032345249
 50
243.1144554868652961
 51
297.0236608298869214
  0
ARC
  5
C622
  8
0
 10
4353.3491968960752274
 20
205.1875005760435897
 30
0.0
 40
0.1437426759989763
 50
264.4004562993782201
 51
292.5567119390485118
  0
ARC
  5
C623
  8
0
 10
4353.3453864140001315
 20
205.1486350864603025
 30
0.0
 40
0.1046908379604218
 50
239.2467593888191004
 51
264.4004562993782201
  0
ARC
  5
C624
  8
0
 10
4353.3112614714382289
 20
205.0805451396556975
 30
0.0
 40
0.0292464582951395
 50
190.8163495465408914
 51
228.4252564439711932
  0
LINE
  5
C625
  8
0
 10
4353.2825346133022322
 20
205.0750567023227973
 30
0.0
 11
4353.280804966812866
 21
205.085976390877903
 31
0.0
  0
ARC
  5
C626
  8
0
 10
4353.3559415215759145
 20
205.2215825804447888
 30
0.0
 40
0.1642146321247668
 50
243.4791047210881061
 51
286.5469897436819906
  0
LINE
  5
C627
  8
0
 10
4353.1053430014508194
 20
205.1038653354698056
 30
0.0
 11
4353.1029208375193775
 21
205.0917610749980042
 31
0.0
  0
ARC
  5
C628
  8
0
 10
4353.0755669850459526
 20
205.0972348100536067
 30
0.0
 40
0.0278961470550874
 50
326.8668233940936716
 51
348.6840968685942244
  0
ARC
  5
C629
  8
0
 10
4353.0592668171539117
 20
205.1143815914772972
 30
0.0
 40
0.051208916528639
 50
274.3277734071386931
 51
320.7582396465099919
  0
ARC
  5
C62A
  8
0
 10
4353.0350383803679506
 20
205.2156976411943106
 30
0.0
 40
0.1549469228755454
 50
251.8886468619382981
 51
280.4458255275487204
  0
ARC
  5
C62B
  8
0
 10
4352.9990769011446901
 20
205.1014665918796993
 30
0.0
 40
0.0352215362046207
 50
206.6457458013856865
 51
249.7234942179211998
  0
ARC
  5
C62C
  8
0
 10
4352.992635775409326
 20
205.0971609850934954
 30
0.0
 40
0.0275502523463319
 50
189.8978273097862939
 51
204.6495411987845898
  0
LINE
  5
C62D
  8
0
 10
4352.9654955852847706
 20
205.0924253241639121
 30
0.0
 11
4352.9606032269193747
 21
205.1221865949979986
 31
0.0
  0
ARC
  5
C62E
  8
0
 10
4352.971729400544973
 20
205.1534448020061063
 30
0.0
 40
0.0534634069569136
 50
226.3877307175173996
 51
261.8661325315069917
  0
ARC
  5
C62F
  8
0
 10
4352.9502650089771123
 20
205.1309146330852968
 30
0.0
 40
0.0223454279583442
 50
190.826487462652608
 51
226.3877307175106068
  0
ARC
  5
C630
  8
0
 10
4352.9519933844276238
 20
205.1484775746816922
 30
0.0
 40
0.0317361883633606
 50
223.5275339983487015
 51
262.4203466908376754
  0
ARC
  5
C631
  8
0
 10
4352.9832181628617036
 20
205.2506019333532095
 30
0.0
 40
0.1381970263063762
 50
255.1532204879794108
 51
261.1397659177146124
  0
LINE
  5
C632
  8
0
 10
4352.5784277356669918
 20
205.1914255852277051
 30
0.0
 11
4352.5820474487672982
 21
205.1694330904707897
 31
0.0
  0
ARC
  5
C633
  8
0
 10
4352.6098516458168888
 20
205.1740093432970014
 30
0.0
 40
0.0281782799952654
 50
189.3464347357883071
 51
225.8790923758776046
  0
ARC
  5
C634
  8
0
 10
4352.6230836264639947
 20
205.187653721798597
 30
0.0
 40
0.0471849729354466
 50
225.8790923758776046
 51
264.3393590958954746
  0
ARC
  5
C635
  8
0
 10
4352.6509213622503012
 20
205.3101974310245907
 30
0.0
 40
0.1725847430510696
 50
259.1483786290673947
 51
274.160864327362674
  0
ARC
  5
C636
  8
0
 10
4352.6608492449968253
 20
205.2356196160127979
 30
0.0
 40
0.0975865326599414
 50
271.5233907031952754
 51
296.3930294946301274
  0
ARC
  5
C637
  8
0
 10
4352.6915406602411167
 20
205.1737732698167918
 30
0.0
 40
0.028543549616644
 50
296.3930294946301274
 51
335.9155427253778043
  0
ARC
  5
C638
  8
0
 10
4352.6488493140277569
 20
205.2901760176187906
 30
0.0
 40
0.1391112268299335
 50
241.4294115422574123
 51
274.8436978652291032
  0
ARC
  5
C639
  8
0
 10
4352.6408035887498045
 20
205.3851215336513008
 30
0.0
 40
0.2343970322258506
 50
274.8436978652291032
 51
288.3812477705076844
  0
LINE
  5
C63A
  8
0
 10
4352.2798593233837892
 20
205.2706954350184105
 30
0.0
 11
4352.281799857824808
 21
205.263743245053405
 31
0.0
  0
ARC
  5
C63B
  8
0
 10
4352.297645683474002
 20
205.2681662212067124
 30
0.0
 40
0.0164515321039175
 50
195.595780614730387
 51
230.3218499063409013
  0
ARC
  5
C63C
  8
0
 10
4352.3330840033286222
 20
205.3108850208190006
 30
0.0
 40
0.0719562197834606
 50
230.3218499063409013
 51
249.1571646843065935
  0
ARC
  5
C63D
  8
0
 10
4352.3428173001739196
 20
205.364258689124398
 30
0.0
 40
0.1256903184997259
 50
253.6721447992592005
 51
265.7941479423901114
  0
ARC
  5
C63E
  8
0
 10
4352.3485333536900725
 20
205.4165547349296048
 30
0.0
 40
0.1782745046154734
 50
265.1946580601725145
 51
280.5094465598484135
  0
ARC
  5
C63F
  8
0
 10
4353.9283595100769162
 20
213.4575008201348965
 30
0.0
 40
7.92222497037507
 50
262.2699665164885232
 51
270.1209744189208095
  0
ARC
  5
C640
  8
0
 10
4353.2555640965338171
 20
209.0626771020112074
 30
0.0
 40
3.4776637963267838
 50
246.2408706702906898
 51
263.5148293715975001
  0
ARC
  5
C641
  8
0
 10
4352.0949504129357592
 20
206.4249510960746079
 30
0.0
 40
0.5960825634492763
 50
212.0627235461371924
 51
246.5050967419680035
  0
ARC
  5
C642
  8
0
 10
4351.7689555912893411
 20
206.1916556664226903
 30
0.0
 40
0.1975133742097613
 50
183.1935483567430083
 51
204.8914308072585868
  0
ARC
  5
C643
  8
0
 10
4351.8213177772267954
 20
206.1898857626651136
 30
0.0
 40
0.2497395779053267
 50
172.8797810631693892
 51
182.118819257898906
  0
ARC
  5
C644
  8
0
 10
4352.7144342804003827
 20
206.9344675259694952
 30
0.0
 40
1.8045596772778449
 50
0.002221000171648
 51
3.4439255342379802
  0
ARC
  5
C645
  8
0
 10
4356.6145025073274155
 20
207.2145857672788907
 30
0.0
 40
2.1057803841488889
 50
182.4374799660091924
 51
184.6773642411644119
  0
ARC
  5
C646
  8
0
 10
4354.4215991850132923
 20
207.1174477183676004
 30
0.0
 40
0.0893503750718257
 50
4.8670601278522856
 51
23.4017699138098791
  0
ARC
  5
C647
  8
0
 10
4353.8968768737431674
 20
206.8862284186934062
 30
0.0
 40
0.662755929099528
 50
23.7296372309673416
 51
85.82855517281169
  0
ARC
  5
C648
  8
0
 10
4354.6382299192209757
 20
206.9869270715448124
 30
0.0
 40
0.130237799504155
 50
203.7196039991968917
 51
206.4099822933993096
  0
ARC
  5
C649
  8
0
 10
4354.6652980406779534
 20
207.1728072593431023
 30
0.0
 40
0.2830129450586563
 50
239.4826976914332022
 51
266.084504734568327
  0
ARC
  5
C64A
  8
0
 10
4353.9537548733796939
 20
201.1320291708277921
 30
0.0
 40
5.7998820842764509
 50
72.4921151164291615
 51
83.1453926370628551
  0
ARC
  5
C64B
  8
0
 10
4355.2581568561299719
 20
205.1225173827463948
 30
0.0
 40
1.602428827599109
 50
57.7648976613971286
 51
74.0473025341509725
  0
ARC
  5
C64C
  8
0
 10
4355.8466467702201044
 20
206.0442632882318037
 30
0.0
 40
0.5088943841355811
 50
28.2831495320616995
 51
58.4550429563045313
  0
ARC
  5
C64D
  8
0
 10
4355.7692014351514445
 20
206.0712474021271134
 30
0.0
 40
0.5675376253294676
 50
8.9689800839262084
 51
22.1679535070951808
  0
ARC
  5
C64E
  8
0
 10
4355.3052674914761155
 20
205.9713746364076883
 30
0.0
 40
1.0417018029298399
 50
0.5033276732393039
 51
10.4170337537532802
  0
ARC
  5
C64F
  8
0
 10
4355.3656246177233697
 20
205.9840455136948947
 30
0.0
 40
0.9813107951110563
 50
343.1726071608744064
 51
359.7944813979593732
  0
ARC
  5
C650
  8
0
 10
4354.9012444670970581
 20
207.7390035871572991
 30
0.0
 40
2.5681363425707402
 50
286.0277346819765967
 51
295.5365735803517282
  0
ARC
  5
C651
  8
0
 10
4355.6741012338306973
 20
206.1213339211143989
 30
0.0
 40
0.7753277274860939
 50
295.5365735803517282
 51
315.4282637080044083
  0
ARC
  5
C652
  8
0
 10
4355.97631535266828
 20
205.8236042328352937
 30
0.0
 40
0.3510915421987248
 50
315.4282637080044083
 51
339.3809576217067274
  0
ARC
  5
C653
  8
0
 10
4353.9449886638321914
 20
212.9699520165991942
 30
0.0
 40
7.9125135977601806
 50
270.0007084377552928
 51
270.9589512558856086
  0
ARC
  5
C654
  8
0
 10
4353.9481557245781005
 20
212.7807419829586024
 30
0.0
 40
7.7232770603155076
 50
270.9589513761727062
 51
274.0199507810365276
  0
ARC
  5
C655
  8
0
 10
4354.0250341493638189
 20
211.6868034225186079
 30
0.0
 40
6.62664044492504
 50
274.0199507810365276
 51
278.1272467716440246
  0
ARC
  5
C656
  8
0
 10
4354.3486094244753986
 20
209.4209698768007968
 30
0.0
 40
4.3378192165274463
 50
278.1272467716440246
 51
286.9095349104924821
  0
LINE
  5
C657
  8
0
 10
4354.0192798114494508
 20
205.057788501572503
 30
0.0
 11
4354.0138150163229511
 21
205.0277454745979924
 31
0.0
  0
ARC
  5
C658
  8
0
 10
4353.9857111557566895
 20
205.0328575373864908
 30
0.0
 40
0.0285650164472568
 50
306.9611441611745022
 51
349.6906738848417717
  0
ARC
  5
C659
  8
0
 10
4353.9513163204183002
 20
205.0992897179640977
 30
0.0
 40
0.1030838303047419
 50
266.5352458406749747
 51
300.0181655279728261
  0
ARC
  5
C65A
  8
0
 10
4353.9475168199978725
 20
205.2127510691890961
 30
0.0
 40
0.2023572356967888
 50
269.3111990065248733
 51
283.4143148126993879
  0
ARC
  5
C65B
  8
0
 10
4353.9827628386419747
 20
205.0649675581767895
 30
0.0
 40
0.0504288053179153
 50
283.4143148126993879
 51
302.1972113076059259
  0
ARC
  5
C65C
  8
0
 10
4354.0043596270015769
 20
205.0306687381649056
 30
0.0
 40
0.0098969620129125
 50
302.1972113075988773
 51
342.8202872311057945
  0
LINE
  5
C65D
  8
0
 10
4354.0774130879462973
 20
205.0585466290187071
 30
0.0
 11
4354.07928204079235
 21
205.0473645821685977
 31
0.0
  0
ARC
  5
C65E
  8
0
 10
4354.1050442675759768
 20
205.0516704474262042
 30
0.0
 40
0.0261195866082664
 50
189.4886351037175132
 51
211.8268118178876023
  0
ARC
  5
C65F
  8
0
 10
4354.1851744719888302
 20
205.0535377130325116
 30
0.0
 40
0.0310653746013525
 50
294.1914683502034222
 51
349.2330778820572164
  0
ARC
  5
C660
  8
0
 10
4354.1481841902150336
 20
205.1552875494035959
 30
0.0
 40
0.139265126321707
 50
246.8837761248597076
 51
290.9173138267635181
  0
ARC
  5
C661
  8
0
 10
4354.1103421764919403
 20
205.0546391613304991
 30
0.0
 40
0.0321876404724391
 50
211.3434950526464036
 51
238.4683894578739114
  0
LINE
  5
C662
  8
0
 10
4354.2156929489228787
 20
205.0477342601980126
 30
0.0
 11
4354.2180305235160631
 21
205.0621814861241035
 31
0.0
  0
ARC
  5
C663
  8
0
 10
4354.1477346262217907
 20
205.1783748146303878
 30
0.0
 40
0.1483205853707741
 50
242.5640649081977074
 51
297.1458011489485784
  0
ARC
  5
C664
  8
0
 10
4354.2922682470261861
 20
205.1857177087611888
 30
0.0
 40
0.134821087050745
 50
245.6820733742785023
 51
292.2378384217997791
  0
LINE
  5
C665
  8
0
 10
4354.3420582967983137
 20
205.0675163727489974
 30
0.0
 11
4354.3465742968228369
 21
205.0438874795979984
 31
0.0
  0
ARC
  5
C666
  8
0
 10
4354.3750531996856807
 20
205.0493304229136129
 30
0.0
 40
0.0289943708376528
 50
190.8199972812539897
 51
238.3941045186261078
  0
ARC
  5
C667
  8
0
 10
4354.4153380723073496
 20
205.148259060473805
 30
0.0
 40
0.1355010133130404
 50
245.830097496249806
 51
294.0035087391293018
  0
ARC
  5
C668
  8
0
 10
4354.458932627433569
 20
205.0469224585723964
 30
0.0
 40
0.0252327859529713
 50
297.1805948957215264
 51
354.0377816163784246
  0
LINE
  5
C669
  8
0
 10
4354.4840289193216449
 20
205.044301462497998
 30
0.0
 11
4354.4895870021418887
 21
205.0764664996875126
 31
0.0
  0
ARC
  5
C66A
  8
0
 10
4354.4154494103686375
 20
205.1780709136803011
 30
0.0
 40
0.1513157032345249
 50
242.9763391701129933
 51
296.8855445130868134
  0
ARC
  5
C66B
  8
0
 10
4354.540976101267006
 20
205.1875005760435897
 30
0.0
 40
0.1437426759989763
 50
247.4432880609516019
 51
275.5995437006217799
  0
ARC
  5
C66C
  8
0
 10
4354.5447865833421019
 20
205.1486350864603025
 30
0.0
 40
0.1046908379604218
 50
275.5995437006217799
 51
300.7532406111807859
  0
ARC
  5
C66D
  8
0
 10
4354.578911525903095
 20
205.0805451396556975
 30
0.0
 40
0.0292464582951395
 50
311.5747435560288068
 51
349.183650453457517
  0
LINE
  5
C66E
  8
0
 10
4354.6076383840400013
 20
205.0750567023227973
 30
0.0
 11
4354.6093680305293674
 21
205.085976390877903
 31
0.0
  0
ARC
  5
C66F
  8
0
 10
4354.5342314757663189
 20
205.2215825804447888
 30
0.0
 40
0.1642146321247668
 50
253.4530102563178957
 51
296.5208952789118939
  0
LINE
  5
C670
  8
0
 10
4354.784829995891414
 20
205.1038653354698056
 30
0.0
 11
4354.7872521598219464
 21
205.0917610749980042
 31
0.0
  0
ARC
  5
C671
  8
0
 10
4354.8146060122935523
 20
205.0972348100536067
 30
0.0
 40
0.0278961470550874
 50
191.3159031314058041
 51
213.1331766059049073
  0
ARC
  5
C672
  8
0
 10
4354.8309061801883217
 20
205.1143815914772972
 30
0.0
 40
0.051208916528639
 50
219.2417603534900081
 51
265.6722265928092952
  0
ARC
  5
C673
  8
0
 10
4354.8551346169751923
 20
205.2156976411943106
 30
0.0
 40
0.1549469228755454
 50
259.5541744724512228
 51
288.1113531380617019
  0
ARC
  5
C674
  8
0
 10
4354.8910960961966339
 20
205.1014665918796993
 30
0.0
 40
0.0352215362046207
 50
290.2765057820786865
 51
333.3542541986142851
  0
ARC
  5
C675
  8
0
 10
4354.8975372219319979
 20
205.0971609850934954
 30
0.0
 40
0.0275502523463319
 50
335.3504588012139038
 51
350.1021726902137061
  0
LINE
  5
C676
  8
0
 10
4354.9246774120547343
 20
205.0924253241639121
 30
0.0
 11
4354.9295697704228587
 21
205.1221865949979986
 31
0.0
  0
ARC
  5
C677
  8
0
 10
4354.9184435967972604
 20
205.1534448020061063
 30
0.0
 40
0.0534634069569136
 50
278.1338674684413945
 51
313.6122692824827141
  0
ARC
  5
C678
  8
0
 10
4354.9399079883651211
 20
205.1309146330852968
 30
0.0
 40
0.0223454279583442
 50
313.6122692824894216
 51
349.173512537347392
  0
ARC
  5
C679
  8
0
 10
4354.9381796129137001
 20
205.1484775746816922
 30
0.0
 40
0.0317361883633606
 50
277.5796533091622109
 51
316.4724660016512985
  0
ARC
  5
C67A
  8
0
 10
4354.9069548344787108
 20
205.2506019333532095
 30
0.0
 40
0.1381970263063762
 50
278.8602340822853876
 51
284.8467795120201913
  0
LINE
  5
C67B
  8
0
 10
4355.3117452616734226
 20
205.1914255852277051
 30
0.0
 11
4355.3081255485740257
 21
205.1694330904707897
 31
0.0
  0
ARC
  5
C67C
  8
0
 10
4355.2803213515244352
 20
205.1740093432970014
 30
0.0
 40
0.0281782799952654
 50
314.1209076241224238
 51
350.6535652642101013
  0
ARC
  5
C67D
  8
0
 10
4355.2670893708791482
 20
205.187653721798597
 30
0.0
 40
0.0471849729354466
 50
275.6606409041045254
 51
314.1209076241224238
  0
ARC
  5
C67E
  8
0
 10
4355.2392516350919323
 20
205.3101974310245907
 30
0.0
 40
0.1725847430510696
 50
265.839135672637326
 51
280.8516213709320937
  0
ARC
  5
C67F
  8
0
 10
4355.2293237523463176
 20
205.2356196160127979
 30
0.0
 40
0.0975865326599414
 50
243.606970505369901
 51
268.4766092968047246
  0
ARC
  5
C680
  8
0
 10
4355.1986323371011167
 20
205.1737732698167918
 30
0.0
 40
0.028543549616644
 50
204.0844572746221104
 51
243.606970505369901
  0
ARC
  5
C681
  8
0
 10
4355.241323683311748
 20
205.2901760176187906
 30
0.0
 40
0.1391112268299335
 50
265.1563021347189988
 51
298.570588457742474
  0
ARC
  5
C682
  8
0
 10
4355.249369408592429
 20
205.3851215336513008
 30
0.0
 40
0.2343970322258506
 50
251.6187522294922871
 51
265.1563021347189988
  0
LINE
  5
C683
  8
0
 10
4355.6103136739566253
 20
205.2706954350184105
 30
0.0
 11
4355.6083731395156065
 21
205.263743245053405
 31
0.0
  0
ARC
  5
C684
  8
0
 10
4355.5925273138664124
 20
205.2681662212067124
 30
0.0
 40
0.0164515321039175
 50
309.6781500936590987
 51
344.4042193852695846
  0
ARC
  5
C685
  8
0
 10
4355.5570889940127017
 20
205.3108850208190006
 30
0.0
 40
0.0719562197834606
 50
290.8428353156933781
 51
309.6781500936590987
  0
ARC
  5
C686
  8
0
 10
4355.5473556971683138
 20
205.364258689124398
 30
0.0
 40
0.1256903184997259
 50
274.2058520576100022
 51
286.3278552007407143
  0
ARC
  5
C687
  8
0
 10
4355.5416396436512514
 20
205.4165547349296048
 30
0.0
 40
0.1782745046154734
 50
259.4905534401517002
 51
274.8053419397754169
  0
ARC
  5
C688
  8
0
 10
4353.9618134872653172
 20
213.4575008201348965
 30
0.0
 40
7.92222497037507
 50
269.8790255810791905
 51
277.7300334835114768
  0
ARC
  5
C689
  8
0
 10
4354.6346089008084164
 20
209.0626771020112074
 30
0.0
 40
3.4776637963267838
 50
276.4851706284026136
 51
293.7591293297093102
  0
ARC
  5
C68A
  8
0
 10
4355.7952225844046552
 20
206.4249510960746079
 30
0.0
 40
0.5960825634492763
 50
293.4949032580319113
 51
327.9372764538628076
  0
ARC
  5
C68B
  8
0
 10
4356.1212174060528923
 20
206.1916556664226903
 30
0.0
 40
0.1975133742097613
 50
335.1085691927414132
 51
356.8064516432552864
  0
ARC
  5
C68C
  8
0
 10
4356.068855220113619
 20
206.1898857626651136
 30
0.0
 40
0.2497395779053267
 50
357.881180742101094
 51
7.1202189368305646
  0
ARC
  5
C68D
  8
0
 10
4354.3934432896739963
 20
207.4285075362896009
 30
0.0
 40
0.0882829789448468
 50
260.2661196327396738
 51
295.8362134544444757
  0
ARC
  5
C68E
  8
0
 10
4354.3981118147157758
 20
207.4188657851836979
 30
0.0
 40
0.077570440009137
 50
295.8362134544453284
 51
334.310116119011127
  0
ENDSEC
  0
EOF
