  0
SECTION
  2
HEADER
  9
$ACADVER
  1
AC1009
  9
$INSBASE
 10
3502.1578648396780409
 20
142.7283668729317014
 30
0.0
  9
$EXTMIN
 10
3478.3001696176661426
 20
137.4562177033629098
 30
-0.0000000000112498
  9
$EXTMAX
 10
3502.3481478515209346
 20
191.1924440162235896
 30
0.0000000000002956
  9
$LIMMIN
 10
0.0
 20
0.0
  9
$LIMMAX
 10
11.6929133858000007
 20
8.2677165353999982
  9
$ORTHOMODE
 70
     0
  9
$REGENMODE
 70
     1
  9
$FILLMODE
 70
     1
  9
$QTEXTMODE
 70
     0
  9
$MIRRTEXT
 70
     0
  9
$DRAGMODE
 70
     2
  9
$LTSCALE
 40
0.6431102362
  9
$OSMODE
 70
   575
  9
$ATTMODE
 70
     1
  9
$TEXTSIZE
 40
0.2
  9
$TRACEWID
 40
0.05
  9
$TEXTSTYLE
  7
STANDARD
  9
$CLAYER
  8
0
  9
$CELTYPE
  6
BYLAYER
  9
$CECOLOR
 62
   256
  9
$DIMSCALE
 40
1.0
  9
$DIMASZ
 40
0.1875
  9
$DIMEXO
 40
0.0625
  9
$DIMDLI
 40
0.4443307087
  9
$DIMRND
 40
0.0
  9
$DIMDLE
 40
0.0
  9
$DIMEXE
 40
0.125
  9
$DIMTP
 40
0.01
  9
$DIMTM
 40
0.01
  9
$DIMTXT
 40
2.0
  9
$DIMCEN
 40
0.1052362205
  9
$DIMTSZ
 40
0.0
  9
$DIMTOL
 70
     1
  9
$DIMLIM
 70
     0
  9
$DIMTIH
 70
     1
  9
$DIMTOH
 70
     1
  9
$DIMSE1
 70
     0
  9
$DIMSE2
 70
     0
  9
$DIMTAD
 70
     0
  9
$DIMZIN
 70
     0
  9
$DIMBLK
  1

  9
$DIMASO
 70
     1
  9
$DIMSHO
 70
     1
  9
$DIMPOST
  1
\X
  9
$DIMAPOST
  1

  9
$DIMALT
 70
     1
  9
$DIMALTD
 70
     2
  9
$DIMALTF
 40
25.3999999999999986
  9
$DIMLFAC
 40
1.0
  9
$DIMTOFL
 70
     0
  9
$DIMTVP
 40
0.0
  9
$DIMTIX
 70
     0
  9
$DIMSOXD
 70
     0
  9
$DIMSAH
 70
     0
  9
$DIMBLK1
  1

  9
$DIMBLK2
  1

  9
$DIMSTYLE
  2
STANDARD
  9
$DIMCLRD
 70
     0
  9
$DIMCLRE
 70
     0
  9
$DIMCLRT
 70
     0
  9
$DIMTFAC
 40
1.0
  9
$DIMGAP
 40
0.09
  9
$LUNITS
 70
     2
  9
$LUPREC
 70
     4
  9
$SKETCHINC
 40
0.1
  9
$FILLETRAD
 40
0.0
  9
$AUNITS
 70
     0
  9
$AUPREC
 70
     0
  9
$MENU
  1
.
  9
$ELEVATION
 40
0.0
  9
$PELEVATION
 40
0.0
  9
$THICKNESS
 40
0.0
  9
$LIMCHECK
 70
     0
  9
$BLIPMODE
 70
     0
  9
$CHAMFERA
 40
0.0
  9
$CHAMFERB
 40
0.0
  9
$SKPOLY
 70
     0
  9
$TDCREATE
 40
2458060.468368056230247
  9
$TDUPDATE
 40
2459599.552731481846422
  9
$TDINDWG
 40
0.6213265046000001
  9
$TDUSRTIMER
 40
0.6213265046000001
  9
$USRTIMER
 70
     1
  9
$ANGBASE
 50
0.0
  9
$ANGDIR
 70
     0
  9
$PDMODE
 70
     0
  9
$PDSIZE
 40
0.3125
  9
$PLINEWID
 40
0.0
  9
$COORDS
 70
     1
  9
$SPLFRAME
 70
     0
  9
$SPLINETYPE
 70
     6
  9
$SPLINESEGS
 70
     8
  9
$ATTDIA
 70
     1
  9
$ATTREQ
 70
     1
  9
$HANDLING
 70
     1
  9
$HANDSEED
  5
1397C
  9
$SURFTAB1
 70
     6
  9
$SURFTAB2
 70
     6
  9
$SURFTYPE
 70
     6
  9
$SURFU
 70
     6
  9
$SURFV
 70
     6
  9
$UCSNAME
  2

  9
$UCSORG
 10
0.0
 20
0.0
 30
0.0
  9
$UCSXDIR
 10
1.0
 20
0.0
 30
0.0
  9
$UCSYDIR
 10
0.0
 20
1.0
 30
0.0
  9
$PUCSNAME
  2

  9
$PUCSORG
 10
0.0
 20
0.0
 30
0.0
  9
$PUCSXDIR
 10
1.0
 20
0.0
 30
0.0
  9
$PUCSYDIR
 10
0.0
 20
1.0
 30
0.0
  9
$USERI1
 70
     0
  9
$USERI2
 70
     0
  9
$USERI3
 70
     0
  9
$USERI4
 70
     0
  9
$USERI5
 70
     0
  9
$USERR1
 40
0.0
  9
$USERR2
 40
0.0
  9
$USERR3
 40
0.0
  9
$USERR4
 40
0.0
  9
$USERR5
 40
0.0
  9
$WORLDVIEW
 70
     1
  9
$SHADEDGE
 70
     3
  9
$SHADEDIF
 70
    70
  9
$TILEMODE
 70
     1
  9
$MAXACTVP
 70
    64
  9
$PLIMCHECK
 70
     0
  9
$PEXTMIN
 10
1.0000000000000000E+20
 20
1.0000000000000000E+20
 30
1.0000000000000000E+20
  9
$PEXTMAX
 10
-1.0000000000000000E+20
 20
-1.0000000000000000E+20
 30
-1.0000000000000000E+20
  9
$PLIMMIN
 10
0.0
 20
0.0
  9
$PLIMMAX
 10
12.0
 20
9.0
  9
$UNITMODE
 70
     0
  9
$VISRETAIN
 70
     1
  9
$PLINEGEN
 70
     0
  9
$PSLTSCALE
 70
     1
  0
ENDSEC
  0
SECTION
  2
TABLES
  0
TABLE
  2
VPORT
 70
     1
  0
VPORT
  2
*ACTIVE
 70
     0
 10
0.0
 20
0.0
 11
1.0
 21
1.0
 12
-33.3494107853148876
 22
32.3993871590796019
 13
0.0
 23
0.0
 14
1.0
 24
1.0
 15
0.0
 25
0.0
 16
0.0
 26
0.0
 36
63.5766009093590512
 17
3529.667236328125
 27
145.6412200927734091
 37
0.0
 40
70.5408505508535342
 41
2.5179738562091498
 42
50.0
 43
0.0
 44
0.0
 50
0.0
 51
0.0
 71
     0
 72
   100
 73
     1
 74
     1
 75
     0
 76
     0
 77
     0
 78
     0
  0
ENDTAB
  0
TABLE
  2
LTYPE
 70
     2
  0
LTYPE
  2
CONTINUOUS
 70
     0
  3
Solid line
 72
    65
 73
     0
 40
0.0
  0
LTYPE
  2
PHANTOM2
 70
     0
  3
___ _ _ ___ _ _ ___ _ _ ___ _ _
 72
    65
 73
     6
 40
1.25
 49
0.625
 49
-0.125
 49
0.125
 49
-0.125
 49
0.125
 49
-0.125
  0
ENDTAB
  0
TABLE
  2
LAYER
 70
     2
  0
LAYER
  2
0
 70
     0
 62
   255
  6
CONTINUOUS
  0
LAYER
  2
DEFPOINTS
 70
     0
 62
     7
  6
CONTINUOUS
  0
ENDTAB
  0
TABLE
  2
STYLE
 70
     1
  0
STYLE
  2
STANDARD
 70
     0
 40
0.0
 41
0.8
 50
0.0
 71
     0
 42
0.2
  3
txt
  4

  0
ENDTAB
  0
TABLE
  2
VIEW
 70
     0
  0
ENDTAB
  0
TABLE
  2
UCS
 70
     0
  0
ENDTAB
  0
TABLE
  2
APPID
 70
     9
  0
APPID
  2
ACAD
 70
     0
  0
APPID
  2
ACAD_MLEADERVER
 70
     0
  0
APPID
  2
ACAD_EXEMPT_FROM_CAD_STANDARDS
 70
     0
  0
APPID
  2
ACAD_NAV_VCDISPLAY
 70
     0
  0
APPID
  2
ACAECLAYERSTANDARD
 70
     0
  0
APPID
  2
ACCMTRANSPARENCY
 70
     0
  0
APPID
  2
ACAD_DSTYLE_DIMJAG
 70
     0
  0
APPID
  2
ACAD_DSTYLE_DIMTALN
 70
     0
  0
APPID
  2
ACDBATTR
 70
     0
  0
ENDTAB
  0
TABLE
  2
DIMSTYLE
 70
     1
  0
DIMSTYLE
  2
STANDARD
 70
     0
  3

  4

  5

  6

  7

 40
1.0
 41
0.1875
 42
0.0625
 43
0.38
 44
0.125
 45
0.0
 46
0.0
 47
0.01
 48
0.01
140
0.15625
141
0.09
142
0.0
143
25.3999999999999986
144
1.0
145
0.0
146
1.0
147
0.09
 71
     1
 72
     0
 73
     1
 74
     1
 75
     0
 76
     0
 77
     0
 78
     4
170
     0
171
     2
172
     0
173
     0
174
     0
175
     0
176
     0
177
     0
178
     0
  0
ENDTAB
  0
ENDSEC
  0
SECTION
  2
BLOCKS
  0
BLOCK
  8
0
  2
$MODEL_SPACE
 70
     0
 10
0.0
 20
0.0
 30
0.0
  3
$MODEL_SPACE
  1

  0
ENDBLK
  5
21
  8
0
  0
BLOCK
 67
     1
  8
0
  2
$PAPER_SPACE
 70
     0
 10
0.0
 20
0.0
 30
0.0
  3
$PAPER_SPACE
  1

  0
ENDBLK
  5
1D
 67
     1
  8
0
  0
BLOCK
  8
0
  2
_FILLED
 70
     0
 10
0.0
 20
0.0
 30
0.0
  3
_FILLED
  1

  0
SOLID
  5
12D95
  8
0
  6
BYBLOCK
 62
     0
 10
0.0
 20
0.0
 30
0.0
 11
-1.0
 21
0.1666666667
 31
0.0
 12
-1.0
 22
-0.1666666667
 32
0.0
 13
-1.0
 23
-0.1666666667
 33
0.0
  0
ENDBLK
  5
12D96
  8
0
  6
BYBLOCK
 62
     0
  0
ENDSEC
  0
SECTION
  2
ENTITIES
  0
ATTDEF
  5
FFD0
  8
DEFPOINTS
 10
3502.1579530584408531
 20
142.7317758501409912
 30
0.0
 40
0.001
  1
K-33062T-4
  3

  2
MODELNUMBER
 70
     0
1001
ACDBATTR
1070
     0
1070
     1
  0
ATTDEF
  5
FFD1
  8
DEFPOINTS
 10
3502.1579530584408531
 20
142.7301091834742977
 30
0.0
 40
0.001
  1

  3

  2
TRADENAME
 70
     0
1001
ACDBATTR
1070
     0
1070
     1
  0
ATTDEF
  5
FFD2
  8
DEFPOINTS
 10
3502.1579530584408531
 20
142.7284425168076893
 30
0.0
 40
0.001
  1
BATH AND SHOWER FAUCET
  3

  2
PRODUCT
 70
     0
1001
ACDBATTR
1070
     0
1070
     1
  0
LINE
  5
13284
  8
0
 10
3483.8204233992778427
 20
187.0229233461317051
 30
0.0
 11
3483.9126289166779316
 21
187.0564834098317135
 31
0.0
  0
LINE
  5
13285
  8
0
 10
3483.0889671028780867
 20
187.9104537465316866
 30
0.0
 11
3483.040896225978031
 21
187.8623828709316967
 31
0.0
  0
LINE
  5
13286
  8
0
 10
3502.138179800278067
 20
141.4291542745316974
 30
0.0
 11
3502.0161325561780359
 21
141.4291542745316974
 31
0.0
  0
LINE
  5
13287
  8
0
 10
3499.9302194886781763
 20
142.1181309024316874
 30
0.0
 11
3500.5791245831778724
 21
142.1181309024316874
 31
0.0
  0
LINE
  5
13288
  8
0
 10
3482.6539277327788113
 20
185.8899419260316961
 30
0.0
 11
3482.6657387563777775
 21
185.9017529496317138
 31
0.0
  0
LINE
  5
13289
  8
0
 10
3500.5791245831778724
 20
143.3386033433316982
 30
0.0
 11
3499.9302190524781508
 21
143.3386033433316982
 31
0.0
  0
LINE
  5
1328A
  8
0
 10
3500.5362053317780919
 20
143.6511429417317061
 30
0.0
 11
3500.5791245831778724
 21
143.6511429417317061
 31
0.0
  0
LINE
  5
1328B
  8
0
 10
3501.1303056855781506
 20
143.6511429417317061
 30
0.0
 11
3501.1732249369779311
 21
143.6511429417317061
 31
0.0
  0
LINE
  5
1328C
  8
0
 10
3500.4885734020781456
 20
143.7262339102317128
 30
0.0
 11
3500.5791245831778724
 21
143.7262339102317128
 31
0.0
  0
LINE
  5
1328D
  8
0
 10
3501.1303056855781506
 20
143.7262339102317128
 30
0.0
 11
3501.2208568666778774
 21
143.7262339102317128
 31
0.0
  0
LINE
  5
1328E
  8
0
 10
3500.4482476920779845
 20
143.926733492931703
 30
0.0
 11
3500.4885734020781456
 21
143.926733492931703
 31
0.0
  0
LINE
  5
1328F
  8
0
 10
3501.2208568666778774
 20
143.926733492931703
 30
0.0
 11
3501.261182576577994
 21
143.926733492931703
 31
0.0
  0
LINE
  5
13290
  8
0
 10
3499.6834553974781556
 20
143.9980521622316871
 30
0.0
 11
3498.7189080423768246
 21
143.9980521622316871
 31
0.0
  0
LINE
  5
13291
  8
0
 10
3502.138179800278067
 20
144.0275794713317055
 30
0.0
 11
3502.0161325561780359
 21
144.0275794713317055
 31
0.0
  0
LINE
  5
13292
  8
0
 10
3498.7090458429788669
 20
144.0325009811317045
 30
0.0
 11
3499.6932978115778496
 21
144.0325009811317045
 31
0.0
  0
LINE
  5
13293
  8
0
 10
3499.6932978115778496
 20
144.8199025559316908
 30
0.0
 11
3498.7090458429788669
 21
144.8199025559316908
 31
0.0
  0
LINE
  5
13294
  8
0
 10
3500.5791245831778724
 20
144.8395875953316931
 30
0.0
 11
3499.1932978115778496
 21
144.8395875953316931
 31
0.0
  0
LINE
  5
13295
  8
0
 10
3498.7287308824779757
 20
144.8395875953316931
 30
0.0
 11
3499.1932978115778496
 21
144.8395875953316931
 31
0.0
  0
LINE
  5
13296
  8
0
 10
3501.1303056855781506
 20
144.8395875953316931
 30
0.0
 11
3501.6421167091780262
 21
144.8395875953316931
 31
0.0
  0
LINE
  5
13297
  8
0
 10
3494.3830660922781135
 20
142.7775323054316914
 30
0.0
 11
3495.0424625928731075
 21
142.6615023819051089
 31
0.0
  0
LINE
  5
13298
  8
0
 10
3494.1848743290788661
 20
142.8444608012316905
 30
0.0
 11
3495.2525044171270565
 21
142.656208811287911
 31
0.0
  0
LINE
  5
13299
  8
0
 10
3498.7245906336779626
 20
145.6663592489317125
 30
0.0
 11
3498.6027496438778144
 21
145.6663592489317125
 31
0.0
  0
LINE
  5
1329A
  8
0
 10
3498.7246606979069838
 20
146.2175403512316905
 30
0.0
 11
3498.6027496439778588
 21
146.2175403512316905
 31
0.0
  0
LINE
  5
1329B
  8
0
 10
3498.7246492803301408
 20
146.5325009811317045
 30
0.0
 11
3498.7208598801780681
 21
146.5325009811317045
 31
0.0
  0
LINE
  5
1329C
  8
0
 10
3494.5200285715782229
 20
142.7493603417316876
 30
0.0
 11
3494.5361968199781586
 21
142.7428809888317005
 31
0.0
  0
LINE
  5
1329D
  8
0
 10
3498.7248905555861711
 20
147.0836820835316985
 30
0.0
 11
3498.7208598800789332
 21
147.0836820835316985
 31
0.0
  0
LINE
  5
1329E
  8
0
 10
3498.7090458429788669
 20
147.7136033433316982
 30
0.0
 11
3500.5791245831778724
 21
147.7136033433316982
 31
0.0
  0
LINE
  5
1329F
  8
0
 10
3501.1303056855781506
 20
147.7136033433316982
 30
0.0
 11
3501.6421167091780262
 21
147.7136033433316982
 31
0.0
  0
LINE
  5
132A0
  8
0
 10
3500.4610143469781178
 20
147.7254143670317035
 30
0.0
 11
3500.5791245831778724
 21
147.7254143670317035
 31
0.0
  0
LINE
  5
132A1
  8
0
 10
3500.5791245831778724
 20
148.1073041307317055
 30
0.0
 11
3500.4747632834778415
 21
148.1073041307317055
 31
0.0
  0
LINE
  5
132A2
  8
0
 10
3501.1303056855781506
 20
148.1073041307317055
 30
0.0
 11
3501.352777223477915
 21
148.1073041307317055
 31
0.0
  0
LINE
  5
132A3
  8
0
 10
3494.4825749937781438
 20
142.7594115921316984
 30
0.0
 11
3494.4814961231581947
 21
142.7601764352849045
 31
0.0
  0
LINE
  5
132A4
  8
0
 10
3479.3199044928778676
 20
185.3654968200316944
 30
0.0
 11
3479.3253703504778969
 21
185.4175009811316954
 31
0.0
  0
LINE
  5
132A5
  8
0
 10
3479.5117326141780723
 20
185.3654968200316944
 30
0.0
 11
3479.5171984717781015
 21
185.4175009811316954
 31
0.0
  0
LINE
  5
132A6
  8
0
 10
3479.8249633005780197
 20
185.3654968200316944
 30
0.0
 11
3479.830429158178049
 21
185.4175009811316954
 31
0.0
  0
LINE
  5
132A7
  8
0
 10
3479.9831345432780836
 20
185.3654968200316944
 30
0.0
 11
3479.9886004008781129
 21
185.4175009811316954
 31
0.0
  0
LINE
  5
132A8
  8
0
 10
3480.1371457289778846
 20
185.3654968200316944
 30
0.0
 11
3480.1394767527840486
 21
185.3556471544347914
 31
0.0
  0
LINE
  5
132A9
  8
0
 10
3480.2500791963780102
 20
185.3654968200316944
 30
0.0
 11
3480.2555450539780395
 21
185.4175009811316954
 31
0.0
  0
LINE
  5
132AA
  8
0
 10
3480.4384370725779263
 20
185.3654968200316944
 30
0.0
 11
3480.4439029300779112
 21
185.4175009811316954
 31
0.0
  0
LINE
  5
132AB
  8
0
 10
3480.7741633699779413
 20
185.3654968200316944
 30
0.0
 11
3480.7796292275779706
 21
185.4175009811316954
 31
0.0
  0
LINE
  5
132AC
  8
0
 10
3480.8738406964780552
 20
185.3654968200316944
 30
0.0
 11
3480.8793065540780844
 21
185.4175009811316954
 31
0.0
  0
LINE
  5
132AD
  8
0
 10
3478.4603739977787882
 20
185.4755254453316979
 30
0.0
 11
3478.4534200114781015
 21
185.8739190535316936
 31
0.0
  0
LINE
  5
132AE
  8
0
 10
3481.0524008807778955
 20
185.3654968200316944
 30
0.0
 11
3481.0578667383779248
 21
185.4175009811316954
 31
0.0
  0
LINE
  5
132AF
  8
0
 10
3481.3812917891777943
 20
185.3654968200316944
 30
0.0
 11
3481.3867576467778235
 21
185.4175009811316954
 31
0.0
  0
LINE
  5
132B0
  8
0
 10
3481.4243273730780857
 20
185.3654968200316944
 30
0.0
 11
3481.4297932306781149
 21
185.4175009811316954
 31
0.0
  0
LINE
  5
132B1
  8
0
 10
3481.5028788660779355
 20
185.3654968200316944
 30
0.0
 11
3481.5083447236779648
 21
185.4175009811316954
 31
0.0
  0
LINE
  5
132B2
  8
0
 10
3481.6658746526782124
 20
185.3654968200316944
 30
0.0
 11
3481.671340510277787
 21
185.4175009811316954
 31
0.0
  0
LINE
  5
132B3
  8
0
 10
3482.0530171639779837
 20
185.3654968200316944
 30
0.0
 11
3482.058483021578013
 21
185.4175009811316954
 31
0.0
  0
LINE
  5
132B4
  8
0
 10
3482.0658381931780241
 20
185.3654968200316944
 30
0.0
 11
3482.07130405074804
 21
185.4175009811316954
 31
0.0
  0
LINE
  5
132B5
  8
0
 10
3482.0899532064781852
 20
185.3654968200316944
 30
0.0
 11
3482.0954190640782144
 21
185.4175009811316954
 31
0.0
  0
LINE
  5
132B6
  8
0
 10
3482.1404746873781733
 20
185.3654968200316944
 30
0.0
 11
3482.1459405449782025
 21
185.4175009811316954
 31
0.0
  0
LINE
  5
132B7
  8
0
 10
3482.2798384609782261
 20
185.3654968200316944
 30
0.0
 11
3482.2853043185778006
 21
185.4175009811316954
 31
0.0
  0
LINE
  5
132B8
  8
0
 10
3482.7736157557778824
 20
185.3654968200316944
 30
0.0
 11
3482.7790816133779117
 21
185.4175009811316954
 31
0.0
  0
LINE
  5
132B9
  8
0
 10
3482.7799015843779671
 20
185.3654968200316944
 30
0.0
 11
3482.7853674419779964
 21
185.4175009811316954
 31
0.0
  0
LINE
  5
132BA
  8
0
 10
3482.7986146237781213
 20
185.3654968200316944
 30
0.0
 11
3482.8040804813781506
 21
185.4175009811316954
 31
0.0
  0
LINE
  5
132BB
  8
0
 10
3482.8935122646780655
 20
185.3654968200316944
 30
0.0
 11
3482.8989781222780948
 21
185.4175009811316954
 31
0.0
  0
LINE
  5
132BC
  8
0
 10
3479.1470361173778656
 20
185.3654968200316944
 30
0.0
 11
3479.1415702597778363
 21
185.4175009811316954
 31
0.0
  0
LINE
  5
132BD
  8
0
 10
3479.2116330730777918
 20
185.3654968200316944
 30
0.0
 11
3479.2061672154782173
 21
185.4175009811316954
 31
0.0
  0
LINE
  5
132BE
  8
0
 10
3479.4034611943779964
 20
185.3654968200316944
 30
0.0
 11
3479.3979953367779672
 21
185.4175009811316954
 31
0.0
  0
LINE
  5
132BF
  8
0
 10
3479.7166918807779439
 20
185.3654968200316944
 30
0.0
 11
3479.7112260231779146
 21
185.4175009811316954
 31
0.0
  0
LINE
  5
132C0
  8
0
 10
3479.8753531597781148
 20
185.3654968200316944
 30
0.0
 11
3479.8698873022781299
 21
185.4175009811316954
 31
0.0
  0
LINE
  5
132C1
  8
0
 10
3480.0293643454779158
 20
185.3654968200316944
 30
0.0
 11
3480.0238984879779309
 21
185.4175009811316954
 31
0.0
  0
LINE
  5
132C2
  8
0
 10
3480.1418077765779344
 20
185.3654968200316944
 30
0.0
 11
3480.1363419189779052
 21
185.4175009811316954
 31
0.0
  0
LINE
  5
132C3
  8
0
 10
3480.3306556890779575
 20
185.3654968200316944
 30
0.0
 11
3480.3251898314779282
 21
185.4175009811316954
 31
0.0
  0
LINE
  5
132C4
  8
0
 10
3483.507276041077148
 20
185.3654968200316944
 30
0.0
 11
3483.5127418986780867
 21
185.4175009811316954
 31
0.0
  0
LINE
  5
132C5
  8
0
 10
3495.8110481301778236
 20
176.1043305514317012
 30
0.0
 11
3495.8667278007601453
 21
176.1345621458497988
 31
0.0
  0
LINE
  5
132C6
  8
0
 10
3496.2649161655781427
 20
176.215155318131707
 30
0.0
 11
3496.2701780151792263
 21
176.2178363644316903
 31
0.0
  0
LINE
  5
132C7
  8
0
 10
3496.3364107324778161
 20
176.0748393301317094
 30
0.0
 11
3496.3416725820779902
 21
176.0775203763317052
 31
0.0
  0
LINE
  5
132C8
  8
0
 10
3496.0154725912739195
 20
175.3583854651301124
 30
0.0
 11
3496.0048563781779194
 21
175.3538791500317018
 31
0.0
  0
LINE
  5
132C9
  8
0
 10
3496.0937753304788203
 20
175.1934388668317126
 30
0.0
 11
3496.1182532084249033
 21
175.2038291609937062
 31
0.0
  0
LINE
  5
132CA
  8
0
 10
3496.299073486078214
 20
175.0734983433316927
 30
0.0
 11
3496.3642603808561944
 21
175.0997796717969095
 31
0.0
  0
LINE
  5
132CB
  8
0
 10
3495.9561657272779485
 20
175.7269381442316956
 30
0.0
 11
3496.0107365294970805
 21
175.7477716453508947
 31
0.0
  0
LINE
  5
132CC
  8
0
 10
3496.1121391065771604
 20
175.231514567931697
 30
0.0
 11
3496.1671749968581935
 21
175.252442091161214
 31
0.0
  0
LINE
  5
132CD
  8
0
 10
3496.2046174584779692
 20
174.8540801647316982
 30
0.0
 11
3496.2430345752782159
 21
174.8686885110317064
 31
0.0
  0
LINE
  5
132CE
  8
0
 10
3495.8284106188780243
 20
175.9706437900316871
 30
0.0
 11
3495.8746055597262057
 21
175.9879153706623924
 31
0.0
  0
LINE
  5
132CF
  8
0
 10
3495.9090497841780234
 20
175.6215777864316863
 30
0.0
 11
3495.9578780272399854
 21
175.6396134298962011
 31
0.0
  0
LINE
  5
132D0
  8
0
 10
3496.0835322069779068
 20
175.0882931324316871
 30
0.0
 11
3496.1320992413620843
 21
175.1062322935007955
 31
0.0
  0
LINE
  5
132D1
  8
0
 10
3494.3830660922781135
 20
142.7775323054316914
 30
0.0
 11
3494.3764520509771501
 21
142.786978135331708
 31
0.0
  0
LINE
  5
132D2
  8
0
 10
3480.5588930944782078
 20
185.4175009811316954
 30
0.0
 11
3480.5643589519781926
 21
185.3654968200316944
 31
0.0
  0
LINE
  5
132D3
  8
0
 10
3480.6609471609767752
 20
185.3654968200316944
 30
0.0
 11
3480.6554813033781102
 21
185.4175009811316954
 31
0.0
  0
LINE
  5
132D4
  8
0
 10
3480.9441294609778197
 20
185.3654968200316944
 30
0.0
 11
3480.9386636033777904
 21
185.4175009811316954
 31
0.0
  0
LINE
  5
132D5
  8
0
 10
3481.2730203693781732
 20
185.3654968200316944
 30
0.0
 11
3481.2675545117781439
 21
185.4175009811316954
 31
0.0
  0
LINE
  5
132D6
  8
0
 10
3481.5580932691777889
 20
185.3654968200316944
 30
0.0
 11
3481.552627411677804
 21
185.4175009811316954
 31
0.0
  0
LINE
  5
132D7
  8
0
 10
3481.9447457441779079
 20
185.3654968200316944
 30
0.0
 11
3481.9392798865778786
 21
185.4175009811316954
 31
0.0
  0
LINE
  5
132D8
  8
0
 10
3482.1715670411781502
 20
185.3654968200316944
 30
0.0
 11
3482.166101183578121
 21
185.4175009811316954
 31
0.0
  0
LINE
  5
132D9
  8
0
 10
3482.9806993863780917
 20
187.0749812961317105
 30
0.0
 11
3482.9806993863780917
 21
187.8623828709316967
 31
0.0
  0
LINE
  5
132DA
  8
0
 10
3483.0594395437778985
 20
188.0285639733316998
 30
0.0
 11
3483.0594395437778985
 21
188.8159655481316861
 31
0.0
  0
LINE
  5
132DB
  8
0
 10
3483.0889671028780867
 20
187.9104537465316866
 30
0.0
 11
3483.0889671028780867
 21
188.0285639733316998
 31
0.0
  0
LINE
  5
132DC
  8
0
 10
3483.0988096225778463
 20
186.8768789123317049
 30
0.0
 11
3483.0988096225778463
 21
186.9135639732317031
 31
0.0
  0
LINE
  5
132DD
  8
0
 10
3483.0988096225778463
 20
186.9608080677317048
 30
0.0
 11
3483.0988096225778463
 21
187.0044254598317082
 31
0.0
  0
LINE
  5
132DE
  8
0
 10
3483.2643280664788108
 20
187.5474222410317111
 30
0.0
 11
3483.2643280664788108
 21
187.0749812961317105
 31
0.0
  0
LINE
  5
132DF
  8
0
 10
3483.6419525958781378
 20
187.0749812961317105
 30
0.0
 11
3483.6419525958781378
 21
187.5474222410317111
 31
0.0
  0
LINE
  5
132E0
  8
0
 10
3483.8074710398777825
 20
186.8768789123317049
 30
0.0
 11
3483.8074710398777825
 21
186.9135639732317031
 31
0.0
  0
LINE
  5
132E1
  8
0
 10
3483.8074710398777825
 20
186.9608080677317048
 30
0.0
 11
3483.8074710398777825
 21
187.0044254598317082
 31
0.0
  0
LINE
  5
132E2
  8
0
 10
3483.8173135595779968
 20
187.9104537465316866
 30
0.0
 11
3483.8173135595779968
 21
188.0285639733316998
 31
0.0
  0
LINE
  5
132E3
  8
0
 10
3483.8468411185781406
 20
188.0285639733316998
 30
0.0
 11
3483.8468411185781406
 21
188.8159655481316861
 31
0.0
  0
LINE
  5
132E4
  8
0
 10
3483.9255812760779918
 20
187.0749812961317105
 30
0.0
 11
3483.9255812760779918
 21
187.8623828709316967
 31
0.0
  0
LINE
  5
132E5
  8
0
 10
3496.3991210975777904
 20
174.691634226231713
 30
0.0
 11
3496.4546085901438346
 21
174.725965806141005
 31
0.0
  0
LINE
  5
132E6
  8
0
 10
3495.9563003391021994
 20
175.5894335778341997
 30
0.0
 11
3495.9309040197781542
 21
175.5741739297316997
 31
0.0
  0
LINE
  5
132E7
  8
0
 10
3496.0417825666781937
 20
175.4273708193317134
 30
0.0
 11
3496.0149676289779563
 21
175.4112588811316868
 31
0.0
  0
LINE
  5
132E8
  8
0
 10
3496.2556285226969521
 20
174.9853588562810103
 30
0.0
 11
3496.227524420878126
 21
174.9684692264316936
 31
0.0
  0
LINE
  5
132E9
  8
0
 10
3496.0698379947780268
 20
175.3537749748317083
 30
0.0
 11
3496.1264182031732162
 21
175.3875336004039127
 31
0.0
  0
LINE
  5
132EA
  8
0
 10
3496.1527019887780625
 20
174.9713579222317037
 30
0.0
 11
3496.2008167735662028
 21
175.0000656394923908
 31
0.0
  0
LINE
  5
132EB
  8
0
 10
3495.8743141354780164
 20
175.7473088976317115
 30
0.0
 11
3495.9239035922778385
 21
175.7762553711316968
 31
0.0
  0
LINE
  5
132EC
  8
0
 10
3496.0345679581778313
 20
175.2069366233316998
 30
0.0
 11
3496.0635256680780003
 21
175.2238398853315005
 31
0.0
  0
LINE
  5
132ED
  8
0
 10
3496.4258303291780976
 20
174.3819124416316981
 30
0.0
 11
3496.471311779737789
 21
174.408322502933288
 31
0.0
  0
LINE
  5
132EE
  8
0
 10
3496.2984987552781604
 20
174.72743291693169
 30
0.0
 11
3496.2519729836781153
 21
174.7005712061317126
 31
0.0
  0
LINE
  5
132EF
  8
0
 10
3496.378785214249092
 20
174.4865111821702897
 30
0.0
 11
3496.3644311829780236
 21
174.4782238713316929
 31
0.0
  0
LINE
  5
132F0
  8
0
 10
3496.2574671216780189
 20
175.1963753048316903
 30
0.0
 11
3496.3267139249778666
 21
175.2362970939317108
 31
0.0
  0
LINE
  5
132F1
  8
0
 10
3496.2812369340767873
 20
174.6692121656317056
 30
0.0
 11
3496.3276678838310545
 21
174.6955724636187881
 31
0.0
  0
LINE
  5
132F2
  8
0
 10
3496.1708603574779772
 20
174.8885653369316913
 30
0.0
 11
3496.1730746805719718
 21
174.8898007942345885
 31
0.0
  0
LINE
  5
132F3
  8
0
 10
3496.1750339462860211
 20
174.9954541795646037
 30
0.0
 11
3496.1277289803579151
 21
174.9689456699103971
 31
0.0
  0
LINE
  5
132F4
  8
0
 10
3495.9321352530778313
 20
175.8577729967317111
 30
0.0
 11
3495.9977403530310767
 21
175.8939853612922093
 31
0.0
  0
LINE
  5
132F5
  8
0
 10
3496.511160167081016
 20
174.1895415828477098
 30
0.0
 11
3496.5581611064098979
 21
174.2151903103373058
 31
0.0
  0
LINE
  5
132F6
  8
0
 10
3496.4615359125778014
 20
175.8463288313317037
 30
0.0
 11
3496.4546343932038326
 21
175.8428123315937057
 31
0.0
  0
LINE
  5
132F7
  8
0
 10
3496.5026119243780158
 20
175.7657126191317047
 30
0.0
 11
3496.4957104049781265
 21
175.7621961194317066
 31
0.0
  0
LINE
  5
132F8
  8
0
 10
3496.5402795554700788
 20
175.722420264229811
 30
0.0
 11
3496.5209861069579347
 21
175.7125897611211087
 31
0.0
  0
LINE
  5
132F9
  8
0
 10
3496.5683629403779378
 20
175.6196074901316138
 30
0.0
 11
3496.5736247899781119
 21
175.6222885364317108
 31
0.0
  0
LINE
  5
132FA
  8
0
 10
3496.8871296021138733
 20
174.9939926909989936
 30
0.0
 11
3496.8923914516781224
 21
174.9966737372317027
 31
0.0
  0
LINE
  5
132FB
  8
0
 10
3496.9586241690199131
 20
174.8536767029019074
 30
0.0
 11
3496.9638860185777958
 21
174.8563577492317052
 31
0.0
  0
LINE
  5
132FC
  8
0
 10
3496.7002963720779007
 20
173.8502373177317111
 30
0.0
 11
3496.7478140767461809
 21
173.8723542729786118
 31
0.0
  0
LINE
  5
132FD
  8
0
 10
3496.333192552690889
 20
174.5358107719567045
 30
0.0
 11
3496.3514541093099979
 21
174.5442232972233967
 31
0.0
  0
LINE
  5
132FE
  8
0
 10
3496.6197523568780525
 20
174.0063444181317038
 30
0.0
 11
3496.6686342254979536
 21
174.0287806944606928
 31
0.0
  0
LINE
  5
132FF
  8
0
 10
3496.4842594610781816
 20
174.2690250977317135
 30
0.0
 11
3496.5327389882531861
 21
174.2907535794203113
 31
0.0
  0
LINE
  5
13300
  8
0
 10
3496.411082112278109
 20
174.3863815837316906
 30
0.0
 11
3496.4603515861481355
 21
174.4083496708489065
 31
0.0
  0
LINE
  5
13301
  8
0
 10
3496.3459677150781317
 20
174.5107529215316902
 30
0.0
 11
3496.3624717635111665
 21
174.5181009976830921
 31
0.0
  0
LINE
  5
13302
  8
0
 10
3496.4888821364779687
 20
174.2345235758317017
 30
0.0
 11
3496.5383069265831182
 21
174.2565289743947972
 31
0.0
  0
LINE
  5
13303
  8
0
 10
3496.9113180375779848
 20
173.6037992947316866
 30
0.0
 11
3496.8626084897778128
 21
173.5823158243316868
 31
0.0
  0
LINE
  5
13304
  8
0
 10
3496.3192568497779575
 20
174.7572196269316862
 30
0.0
 11
3496.3193028389778192
 21
174.7572398629316979
 31
0.0
  0
LINE
  5
13305
  8
0
 10
3496.3368300475781325
 20
174.5548924517316891
 30
0.0
 11
3496.3461448141779329
 21
174.5589589091316896
 31
0.0
  0
LINE
  5
13306
  8
0
 10
3496.799474178877972
 20
173.7042706073316936
 30
0.0
 11
3496.8349620977969607
 21
173.7197112690872984
 31
0.0
  0
LINE
  5
13307
  8
0
 10
3496.7486329706780452
 20
174.218376338931705
 30
0.0
 11
3496.8202502961821665
 21
174.2492971143337002
 31
0.0
  0
LINE
  5
13308
  8
0
 10
3496.2242755180777749
 20
174.7731810231317127
 30
0.0
 11
3496.2723270025780948
 21
174.7937348178317052
 31
0.0
  0
LINE
  5
13309
  8
0
 10
3496.3192568497779575
 20
174.7572196269316862
 30
0.0
 11
3496.3480507991380364
 21
174.7694419431647077
 31
0.0
  0
LINE
  5
1330A
  8
0
 10
3496.623337421478027
 20
174.1896800384317032
 30
0.0
 11
3496.653326637570899
 21
174.2024098815946047
 31
0.0
  0
LINE
  5
1330B
  8
0
 10
3496.8962027019779271
 20
173.6655386205316915
 30
0.0
 11
3496.9289124504480242
 21
173.6794231281490966
 31
0.0
  0
LINE
  5
1330C
  8
0
 10
3496.6301309615778337
 20
174.0314603657317036
 30
0.0
 11
3496.6810730611118743
 21
174.0528178780431006
 31
0.0
  0
LINE
  5
1330D
  8
0
 10
3496.8261602446777943
 20
173.8618898005317135
 30
0.0
 11
3496.8871201592478428
 21
173.8874472890553022
 31
0.0
  0
LINE
  5
1330E
  8
0
 10
3496.4539878983778181
 20
174.5754562031316937
 30
0.0
 11
3496.5128527872248014
 21
174.5989305832895013
 31
0.0
  0
LINE
  5
1330F
  8
0
 10
3496.4083732915778455
 20
174.4600853281316972
 30
0.0
 11
3496.4592819472782139
 21
174.4803868892176126
 31
0.0
  0
LINE
  5
13310
  8
0
 10
3482.6606580390780437
 20
185.3654968200316944
 30
0.0
 11
3482.6551921814789239
 21
185.4175009811316954
 31
0.0
  0
LINE
  5
13311
  8
0
 10
3483.3990046212779816
 20
185.3654968200316944
 30
0.0
 11
3483.3935387636779524
 21
185.4175009811316954
 31
0.0
  0
LINE
  5
13312
  8
0
 10
3496.8357121754211221
 20
173.7186872536196063
 30
0.0
 11
3496.7950281750781869
 21
173.6914516892317124
 31
0.0
  0
LINE
  5
13313
  8
0
 10
3496.7333693632781433
 20
173.814240279331699
 30
0.0
 11
3496.768372620566879
 21
173.8374217203574119
 31
0.0
  0
LINE
  5
13314
  8
0
 10
3497.0320077640781165
 20
173.4209302941316935
 30
0.0
 11
3497.0773476474118979
 21
173.450957323500802
 31
0.0
  0
LINE
  5
13315
  8
0
 10
3496.5680130585778898
 20
174.1436116306317103
 30
0.0
 11
3496.6138491483170583
 21
174.1730943919972106
 31
0.0
  0
LINE
  5
13316
  8
0
 10
3496.757855902477786
 20
173.9711022672316858
 30
0.0
 11
3496.8094811508581188
 21
174.0043087402729043
 31
0.0
  0
LINE
  5
13317
  8
0
 10
3497.0778735241779032
 20
173.5339050233316982
 30
0.0
 11
3497.1303394551750898
 21
173.5675099199586953
 31
0.0
  0
LINE
  5
13318
  8
0
 10
3496.3515395640779388
 20
174.5749717636317087
 30
0.0
 11
3496.3984571695500563
 21
174.604000927723007
 31
0.0
  0
LINE
  5
13319
  8
0
 10
3496.6845273913781966
 20
174.3300718671316929
 30
0.0
 11
3496.748323511378203
 21
174.3689516947316918
 31
0.0
  0
LINE
  5
1331A
  8
0
 10
3496.5418033146761445
 20
174.4085974187879913
 30
0.0
 11
3496.5146643890780069
 21
174.3922908928317099
 31
0.0
  0
LINE
  5
1331B
  8
0
 10
3496.7964718182020079
 20
173.8749502869866888
 30
0.0
 11
3496.7719593718788929
 21
173.8602217246317139
 31
0.0
  0
LINE
  5
1331C
  8
0
 10
3496.950271918260114
 20
173.5587714527468961
 30
0.0
 11
3496.927255342277931
 21
173.5449417452317107
 31
0.0
  0
LINE
  5
1331D
  8
0
 10
3496.6377524292779526
 20
173.9609514520317077
 30
0.0
 11
3496.681992773877937
 21
173.987491227931713
 31
0.0
  0
LINE
  5
1331E
  8
0
 10
3496.558737677677982
 20
174.117878922831693
 30
0.0
 11
3496.5653371731182233
 21
174.1217904339765994
 31
0.0
  0
LINE
  5
1331F
  8
0
 10
3497.3117946688807933
 20
174.1605405696334117
 30
0.0
 11
3497.3170565184777843
 21
174.1632216158317021
 31
0.0
  0
LINE
  5
13320
  8
0
 10
3497.3832892357868332
 20
174.0202245815362971
 30
0.0
 11
3497.3885510853788219
 21
174.0229056278317046
 31
0.0
  0
LINE
  5
13321
  8
0
 10
3497.6360354156768153
 20
173.5241822737316966
 30
0.0
 11
3497.6412972651778546
 21
173.5268633200317083
 31
0.0
  0
LINE
  5
13322
  8
0
 10
3497.7075299825519323
 20
173.3838662856182111
 30
0.0
 11
3497.7127918320779827
 21
173.3865473319316948
 31
0.0
  0
LINE
  5
13323
  8
0
 10
3497.7569076962331565
 20
173.2869570660087106
 30
0.0
 11
3497.7621695457778515
 21
173.2896381122316996
 31
0.0
  0
LINE
  5
13324
  8
0
 10
3497.8284022631778498
 20
173.1466410779316902
 30
0.0
 11
3497.8336641126779796
 21
173.149322124231702
 31
0.0
  0
LINE
  5
13325
  8
0
 10
3497.8764907064719409
 20
173.1004456478763984
 30
0.0
 11
3497.8570000898721446
 21
173.0905146827288945
 31
0.0
  0
LINE
  5
13326
  8
0
 10
3497.8963221016488205
 20
173.0133408893171918
 30
0.0
 11
3497.9157876713761652
 21
173.0232590924908038
 31
0.0
  0
LINE
  5
13327
  8
0
 10
3497.4083833218778636
 20
172.9670968841317062
 30
0.0
 11
3497.4722190354191298
 21
172.9974063307035124
 31
0.0
  0
LINE
  5
13328
  8
0
 10
3497.1622794157779026
 20
173.4333120155316976
 30
0.0
 11
3497.2341725749579382
 21
173.4662812716615008
 31
0.0
  0
LINE
  5
13329
  8
0
 10
3497.2693244020779275
 20
173.1376648097316888
 30
0.0
 11
3497.2165592761789412
 21
173.1143926163317133
 31
0.0
  0
LINE
  5
1332A
  8
0
 10
3497.1104888710779051
 20
173.3173228311316905
 30
0.0
 11
3497.1679242897280346
 21
173.3423127684430938
 31
0.0
  0
LINE
  5
1332B
  8
0
 10
3498.7287308823779313
 20
144.6624222410316918
 30
0.0
 11
3498.7090458428779129
 21
144.6905353910316876
 31
0.0
  0
LINE
  5
1332C
  8
0
 10
3499.6932978115778496
 20
144.1618681464316865
 30
0.0
 11
3499.6736127721778757
 21
144.1899812961316911
 31
0.0
  0
LINE
  5
1332D
  8
0
 10
3488.4459066646782048
 20
185.4755254453316979
 30
0.0
 11
3488.4528606509788915
 21
185.8739190535316936
 31
0.0
  0
LINE
  5
1332E
  8
0
 10
3496.5123811299781664
 20
175.7771740067317126
 30
0.0
 11
3496.5026119243780158
 21
175.7657126191317047
 31
0.0
  0
LINE
  5
1332F
  8
0
 10
3500.9747938744781095
 20
178.1210836583317132
 30
0.0
 11
3500.9729398646782101
 21
178.1192296484317126
 31
0.0
  0
LINE
  5
13330
  8
0
 10
3497.1754461012228603
 20
173.2433988867383903
 30
0.0
 11
3497.1342862457781848
 21
173.2158447652317079
 31
0.0
  0
LINE
  5
13331
  8
0
 10
3497.3120177472778778
 20
173.0606777440316932
 30
0.0
 11
3497.357573662231971
 21
173.0907153723887859
 31
0.0
  0
LINE
  5
13332
  8
0
 10
3499.5196816298780504
 20
165.9306705008316953
 30
0.0
 11
3498.8826620246782113
 21
165.9306705008316953
 31
0.0
  0
LINE
  5
13333
  8
0
 10
3499.0246609466448717
 20
166.2062610519317047
 30
0.0
 11
3499.3776824883780137
 21
166.2062610519317047
 31
0.0
  0
LINE
  5
13334
  8
0
 10
3498.6708527300779679
 20
167.1191151544317108
 30
0.0
 11
3499.7314817194778698
 21
167.1191151544317108
 31
0.0
  0
LINE
  5
13335
  8
0
 10
3495.8125291565779662
 20
175.9804869984317008
 30
0.0
 11
3495.8048777997778416
 21
176.0936085696316979
 31
0.0
  0
LINE
  5
13336
  8
0
 10
3496.4283188752779097
 20
174.5554624040316867
 30
0.0
 11
3496.4283061356782127
 21
174.5555962154317058
 31
0.0
  0
LINE
  5
13337
  8
0
 10
3498.8807039797789002
 20
141.4125691865316981
 30
0.0
 11
3498.8878464760778115
 21
141.2922834029317016
 31
0.0
  0
LINE
  5
13338
  8
0
 10
3494.4823764232260146
 20
142.7582854423353922
 30
0.0
 11
3494.4825749937781438
 21
142.7594115921316984
 31
0.0
  0
LINE
  5
13339
  8
0
 10
3494.4923957373780468
 20
142.7529642969317081
 30
0.0
 11
3494.4930957763781407
 21
142.7569344152317115
 31
0.0
  0
LINE
  5
1333A
  8
0
 10
3494.5034582600778776
 20
142.7535594808317114
 30
0.0
 11
3494.5029342114780775
 21
142.7505874535316934
 31
0.0
  0
LINE
  5
1333B
  8
0
 10
3494.5022993108777882
 20
142.7469867535317007
 30
0.0
 11
3494.5021264251781759
 21
142.7460062702317032
 31
0.0
  0
LINE
  5
1333C
  8
0
 10
3494.5081564028778303
 20
142.7441734268317077
 30
0.0
 11
3494.5085019537418702
 21
142.746133143299204
 31
0.0
  0
LINE
  5
1333D
  8
0
 10
3494.5094563753777948
 20
142.7515459373317128
 30
0.0
 11
3494.5100891726719965
 21
142.7551347091975913
 31
0.0
  0
LINE
  5
1333E
  8
0
 10
3494.5184146502779186
 20
142.7402073389316968
 30
0.0
 11
3494.5194512193779701
 21
142.746086014431711
 31
0.0
  0
LINE
  5
1333F
  8
0
 10
3494.5177883309779645
 20
142.7366553055317127
 30
0.0
 11
3494.5181303724771169
 21
142.7385951193317055
 31
0.0
  0
LINE
  5
13340
  8
0
 10
3494.5200285715782229
 20
142.7493603417316876
 30
0.0
 11
3494.5207163370710077
 21
142.7532608533867915
 31
0.0
  0
LINE
  5
13341
  8
0
 10
3494.5284368518778138
 20
142.734902569231707
 30
0.0
 11
3494.5280959398778577
 21
142.73296916103169
 31
0.0
  0
LINE
  5
13342
  8
0
 10
3494.5300703088778391
 20
142.7441663642316882
 30
0.0
 11
3494.5293780752781458
 21
142.7402405121316917
 31
0.0
  0
LINE
  5
13343
  8
0
 10
3494.5336321270779081
 20
142.7283358925317032
 30
0.0
 11
3494.5338013415780551
 21
142.72929555573171
 31
0.0
  0
LINE
  5
13344
  8
0
 10
3494.5344226491779409
 20
142.7328191664317103
 30
0.0
 11
3494.534935344778205
 21
142.7357268074316892
 31
0.0
  0
LINE
  5
13345
  8
0
 10
3494.5361968199781586
 20
142.7428809888317005
 30
0.0
 11
3494.5370689356777802
 21
142.7478270028317127
 31
0.0
  0
LINE
  5
13346
  8
0
 10
3494.5449339002780107
 20
142.730287933531713
 30
0.0
 11
3494.5463055364780303
 21
142.7380668689316963
 31
0.0
  0
LINE
  5
13347
  8
0
 10
3494.5438360347779962
 20
142.7240616288316915
 30
0.0
 11
3494.5445117163781106
 21
142.7278936101317015
 31
0.0
  0
LINE
  5
13348
  8
0
 10
3494.5470235075781602
 20
142.7421386857317032
 30
0.0
 11
3494.5481322520681715
 21
142.7484266878745132
 31
0.0
  0
LINE
  5
13349
  8
0
 10
3494.5550689823780885
 20
142.725623340731687
 30
0.0
 11
3494.554562145878208
 21
142.7227489280317059
 31
0.0
  0
LINE
  5
1334A
  8
0
 10
3494.5571775185781007
 20
142.7375814439317026
 30
0.0
 11
3494.5563157774781757
 21
142.7326942670316896
 31
0.0
  0
LINE
  5
1334B
  8
0
 10
3494.5539478573778069
 20
142.7192651248317077
 30
0.0
 11
3494.5537805392777955
 21
142.7183162170317132
 31
0.0
  0
LINE
  5
1334C
  8
0
 10
3494.5599209324777803
 20
142.717109571031699
 30
0.0
 11
3494.560255780677835
 21
142.7190085898317022
 31
0.0
  0
LINE
  5
1334D
  8
0
 10
3494.5611800138299259
 20
142.7242501760827054
 30
0.0
 11
3494.5618595969781381
 21
142.7281042838316978
 31
0.0
  0
LINE
  5
1334E
  8
0
 10
3494.5634308951039202
 20
142.737015558510592
 30
0.0
 11
3494.5644764070780184
 21
142.7429449511317046
 31
0.0
  0
LINE
  5
1334F
  8
0
 10
3494.569765078078035
 20
142.7107949953316961
 30
0.0
 11
3494.5700972863778588
 21
142.7126790419316933
 31
0.0
  0
LINE
  5
13350
  8
0
 10
3494.5719396785789286
 20
142.7231277674316914
 30
0.0
 11
3494.573649950377785
 21
142.7328272007316912
 31
0.0
  0
LINE
  5
13351
  8
0
 10
3494.570373340578044
 20
142.7142446234317106
 30
0.0
 11
3494.5713795257779566
 21
142.7199509831316959
 31
0.0
  0
LINE
  5
13352
  8
0
 10
3494.5745115184781753
 20
142.7377133962316975
 30
0.0
 11
3494.5755481669862093
 21
142.7435925223761899
 31
0.0
  0
LINE
  5
13353
  8
0
 10
3494.5821838172778371
 20
142.7190816654317018
 30
0.0
 11
3494.5815106795780594
 21
142.7152641118316865
 31
0.0
  0
LINE
  5
13354
  8
0
 10
3494.5847750752777756
 20
142.7337774197316946
 30
0.0
 11
3494.5837399607771658
 21
142.7279069936317057
 31
0.0
  0
LINE
  5
13355
  8
0
 10
3494.5805950001781639
 20
142.7100710360317066
 30
0.0
 11
3494.5802632229779192
 21
142.7081894337316896
 31
0.0
  0
LINE
  5
13356
  8
0
 10
3494.5859207005778444
 20
142.7042440377317121
 30
0.0
 11
3494.586085616478158
 21
142.705179322331702
 31
0.0
  0
LINE
  5
13357
  8
0
 10
3494.5866910170780102
 20
142.7086127193317111
 30
0.0
 11
3494.5871904378777799
 21
142.7114450754316977
 31
0.0
  0
LINE
  5
13358
  8
0
 10
3494.58841866587818
 20
142.7184107026317008
 30
0.0
 11
3494.5892672201971436
 21
142.7232230935831865
 31
0.0
  0
LINE
  5
13359
  8
0
 10
3494.5911558364778102
 20
142.7339339686317032
 30
0.0
 11
3494.592336917683042
 21
142.7406322126576015
 31
0.0
  0
LINE
  5
1335A
  8
0
 10
3494.596315379978023
 20
142.70105169433171
 30
0.0
 11
3494.5969751419779641
 21
142.7047933904316892
 31
0.0
  0
LINE
  5
1335B
  8
0
 10
3494.5994258390778668
 20
142.7186919844317003
 30
0.0
 11
3494.6014833584781627
 21
142.7303607568316863
 31
0.0
  0
LINE
  5
1335C
  8
0
 10
3494.5973872702779772
 20
142.7071306858316859
 30
0.0
 11
3494.5987256464782149
 21
142.7147209949316959
 31
0.0
  0
LINE
  5
1335D
  8
0
 10
3494.6024937345778199
 20
142.736090884331702
 30
0.0
 11
3494.6029640819838278
 21
142.7387583568639116
 31
0.0
  0
LINE
  5
1335E
  8
0
 10
3494.6128658037778223
 20
142.7327703118317004
 30
0.0
 11
3494.6116507511778764
 21
142.7258794062317122
 31
0.0
  0
LINE
  5
1335F
  8
0
 10
3494.6097768930781058
 20
142.715252228631698
 30
0.0
 11
3494.6089346764779293
 21
142.7104757813316951
 31
0.0
  0
LINE
  5
13360
  8
0
 10
3494.6077155397779279
 20
142.7035617136317001
 30
0.0
 11
3494.6072197522771603
 21
142.7007499625316882
 31
0.0
  0
LINE
  5
13361
  8
0
 10
3494.6066729870731251
 20
142.6976491029955127
 30
0.0
 11
3494.6064549695788628
 21
142.6964126645316924
 31
0.0
  0
LINE
  5
13362
  8
0
 10
3494.6126998474778702
 20
142.6957985805316866
 30
0.0
 11
3494.6130278293180709
 21
142.6976586582084963
 31
0.0
  0
LINE
  5
13363
  8
0
 10
3494.6139330261780742
 20
142.7027922848317019
 30
0.0
 11
3494.6145983108781365
 21
142.7065653016317128
 31
0.0
  0
LINE
  5
13364
  8
0
 10
3494.6161358871781886
 20
142.7152853301317066
 30
0.0
 11
3494.617158321378156
 21
142.7210838426317139
 31
0.0
  0
LINE
  5
13365
  8
0
 10
3494.6193764032777835
 20
142.7336632101317093
 30
0.0
 11
3494.6197528325828898
 21
142.7357980471624046
 31
0.0
  0
LINE
  5
13366
  8
0
 10
3494.6227381231778963
 20
142.6905849716316936
 30
0.0
 11
3494.6230642283549059
 21
142.6924344057838141
 31
0.0
  0
LINE
  5
13367
  8
0
 10
3494.6233351807782128
 20
142.6939710536317136
 30
0.0
 11
3494.6243225341931975
 21
142.6995706128431891
 31
0.0
  0
LINE
  5
13368
  8
0
 10
3494.6248720393768963
 20
142.7026870119316868
 30
0.0
 11
3494.6265038077781355
 21
142.7119412299317105
 31
0.0
  0
LINE
  5
13369
  8
0
 10
3494.627393427178049
 20
142.7169865126317063
 30
0.0
 11
3494.6298122462781066
 21
142.7307043174317016
 31
0.0
  0
LINE
  5
1336A
  8
0
 10
3494.6305834580789451
 20
142.7302442592317107
 30
0.0
 11
3494.6282248116781375
 21
142.716867710831707
 31
0.0
  0
LINE
  5
1336B
  8
0
 10
3494.6273304391779675
 20
142.7117954725316906
 30
0.0
 11
3494.625695115777944
 21
142.7025210924317093
 31
0.0
  0
LINE
  5
1336C
  8
0
 10
3494.6238632483778019
 20
142.6921320558317063
 30
0.0
 11
3494.6235452453779544
 21
142.690328571531694
 31
0.0
  0
LINE
  5
1336D
  8
0
 10
3494.6251130667778853
 20
142.6992201282317012
 30
0.0
 11
3494.6241502491780011
 21
142.6937597182316892
 31
0.0
  0
LINE
  5
1336E
  8
0
 10
3494.6622241954778474
 20
142.7283092000317026
 30
0.0
 11
3494.6539276541129766
 21
142.6812571759215871
 31
0.0
  0
LINE
  5
1336F
  8
0
 10
3494.6730511656778617
 20
142.7174328234316931
 30
0.0
 11
3494.6744270967778903
 21
142.7252361163317005
 31
0.0
  0
LINE
  5
13370
  8
0
 10
3494.6848140636780045
 20
142.7220000328316871
 30
0.0
 11
3494.6852118268798222
 21
142.7242558603439875
 31
0.0
  0
LINE
  5
13371
  8
0
 10
3494.6954889355779414
 20
142.7203967403316938
 30
0.0
 11
3494.6941981535778723
 21
142.7130763518316883
 31
0.0
  0
LINE
  5
13372
  8
0
 10
3494.7119558358781433
 20
142.7156111266316998
 30
0.0
 11
3494.7126277418778955
 21
142.7194216948317091
 31
0.0
  0
LINE
  5
13373
  8
0
 10
3498.7659803159331204
 20
166.8253869838405024
 30
0.0
 11
3498.7523529296781817
 21
167.1191151544317108
 31
0.0
  0
LINE
  5
13374
  8
0
 10
3500.4058962366780179
 20
144.8395875953316931
 30
0.0
 11
3500.4482476920779845
 21
143.926733492931703
 31
0.0
  0
LINE
  5
13375
  8
0
 10
3499.553352178554178
 20
166.8072875177398089
 30
0.0
 11
3499.5552489082779175
 21
165.5587035620316954
 31
0.0
  0
LINE
  5
13376
  8
0
 10
3498.5515655280778446
 20
178.6624222410316918
 30
0.0
 11
3498.5515655280778446
 21
178.2687214536317128
 31
0.0
  0
LINE
  5
13377
  8
0
 10
3498.5515655280778446
 20
178.2293513748317082
 30
0.0
 11
3498.5515655280778446
 21
177.0285639733316998
 31
0.0
  0
LINE
  5
13378
  8
0
 10
3498.5909356067782028
 20
146.2057264299317012
 30
0.0
 11
3498.5909356067782028
 21
145.6781731701317142
 31
0.0
  0
LINE
  5
13379
  8
0
 10
3498.7090459419778199
 20
143.7421466439317044
 30
0.0
 11
3498.7090459419778199
 21
143.9882096426316878
 31
0.0
  0
LINE
  5
1337A
  8
0
 10
3498.7090458429788669
 20
144.8592726347316955
 30
0.0
 11
3498.7090458429788669
 21
145.638842431731689
 31
0.0
  0
LINE
  5
1337B
  8
0
 10
3498.7090458429788669
 20
146.2450571871316924
 30
0.0
 11
3498.7090458429788669
 21
146.504984164031697
 31
0.0
  0
LINE
  5
1337C
  8
0
 10
3498.7090458429788669
 20
146.5443149025317098
 30
0.0
 11
3498.7090458429788669
 21
147.0718681622317092
 31
0.0
  0
LINE
  5
1337D
  8
0
 10
3498.7090458429788669
 20
147.1111989194317005
 30
0.0
 11
3498.7090458429788669
 21
147.6939183040317118
 31
0.0
  0
LINE
  5
1337E
  8
0
 10
3498.7090458429788669
 20
147.7136033433316982
 30
0.0
 11
3498.7090458429788669
 21
165.603696418370987
 31
0.0
  0
LINE
  5
1337F
  8
0
 10
3498.7090458429788669
 20
166.7821711856923912
 30
0.0
 11
3498.7090458429788669
 21
167.1191151544317108
 31
0.0
  0
LINE
  5
13380
  8
0
 10
3498.7090458429788669
 20
144.8199025559316908
 30
0.0
 11
3498.7090458429788669
 21
144.6905353910316876
 31
0.0
  0
LINE
  5
13381
  8
0
 10
3498.7090458429788669
 20
144.1618681464316865
 30
0.0
 11
3498.7090458429788669
 21
144.0325009811317045
 31
0.0
  0
LINE
  5
13382
  8
0
 10
3498.7090458429788669
 20
172.7462308675806071
 30
0.0
 11
3498.7090458429788669
 21
177.0088789339316975
 31
0.0
  0
LINE
  5
13383
  8
0
 10
3498.7287308823779313
 20
144.1899812961316911
 30
0.0
 11
3498.7287308823779313
 21
144.6624222410316918
 31
0.0
  0
LINE
  5
13384
  8
0
 10
3498.7976285201780229
 20
144.8199025559316908
 30
0.0
 11
3498.7976285201780229
 21
144.8395875953316931
 31
0.0
  0
LINE
  5
13385
  8
0
 10
3498.8074710398777825
 20
188.8159655481316861
 30
0.0
 11
3498.8074710398777825
 21
178.6821072803317065
 31
0.0
  0
LINE
  5
13386
  8
0
 10
3498.8409356067782028
 20
144.0325009811317045
 30
0.0
 11
3498.8409356067782028
 21
143.9980521622316871
 31
0.0
  0
LINE
  5
13387
  8
0
 10
3498.9255812760779918
 20
165.9306705008316953
 30
0.0
 11
3498.9255812760779918
 21
163.9621665637316994
 31
0.0
  0
LINE
  5
13388
  8
0
 10
3498.9750667789458021
 20
178.6652819226397924
 30
0.0
 11
3498.9751198671788188
 21
178.2687214536317128
 31
0.0
  0
LINE
  5
13389
  8
0
 10
3499.2011718272779035
 20
147.7136033433316982
 30
0.0
 11
3499.2011718272779035
 21
144.8395875953316931
 31
0.0
  0
LINE
  5
1338A
  8
0
 10
3499.4272252524779105
 20
178.2657600344645914
 30
0.0
 11
3499.4272252524779105
 21
178.6686931083997933
 31
0.0
  0
LINE
  5
1338B
  8
0
 10
3499.4767623784778152
 20
165.9306705008316953
 30
0.0
 11
3499.4767623784778152
 21
163.9571061274766919
 31
0.0
  0
LINE
  5
1338C
  8
0
 10
3499.561408047778059
 20
144.0325009811317045
 30
0.0
 11
3499.561408047778059
 21
143.9980521622316871
 31
0.0
  0
LINE
  5
1338D
  8
0
 10
3499.5948726146780245
 20
188.8159655481316861
 30
0.0
 11
3499.5948726146780245
 21
178.6821072803317065
 31
0.0
  0
LINE
  5
1338E
  8
0
 10
3499.6047151343777841
 20
144.8199025559316908
 30
0.0
 11
3499.6047151343777841
 21
144.8395875953316931
 31
0.0
  0
LINE
  5
1338F
  8
0
 10
3499.6736127721778757
 20
144.6624222410316918
 30
0.0
 11
3499.6736127721778757
 21
144.1899812961316911
 31
0.0
  0
LINE
  5
13390
  8
0
 10
3499.6932978115778496
 20
147.7136033433316982
 30
0.0
 11
3499.6932978115778496
 21
159.3384775590714924
 31
0.0
  0
LINE
  5
13391
  8
0
 10
3499.6932978115778496
 20
161.8207707527913044
 30
0.0
 11
3499.6932978115778496
 21
165.6039635602317048
 31
0.0
  0
LINE
  5
13392
  8
0
 10
3499.6932978115778496
 20
166.7821711856923912
 30
0.0
 11
3499.6932978115778496
 21
167.1191151544317108
 31
0.0
  0
LINE
  5
13393
  8
0
 10
3499.6932978115778496
 20
144.8199025559316908
 30
0.0
 11
3499.6932978115778496
 21
144.6905353910316876
 31
0.0
  0
LINE
  5
13394
  8
0
 10
3499.6932978115778496
 20
144.1618681464316865
 30
0.0
 11
3499.6932978115778496
 21
144.0325009811317045
 31
0.0
  0
LINE
  5
13395
  8
0
 10
3499.6932979104781225
 20
143.9882096426316878
 30
0.0
 11
3499.6932979104781225
 21
143.5447869385317006
 31
0.0
  0
LINE
  5
13396
  8
0
 10
3499.6932978115778496
 20
168.7676333624903009
 30
0.0
 11
3499.6932978115778496
 21
177.0088789339316975
 31
0.0
  0
LINE
  5
13397
  8
0
 10
3499.8507781264779624
 20
178.6624222410316918
 30
0.0
 11
3499.8507781264779624
 21
178.2687214536317128
 31
0.0
  0
LINE
  5
13398
  8
0
 10
3499.8507781264779624
 20
178.2293513748317082
 30
0.0
 11
3499.8507781264779624
 21
177.9832883827317005
 31
0.0
  0
LINE
  5
13399
  8
0
 10
3499.8507781264779624
 20
177.2746269654317075
 30
0.0
 11
3499.8507781264779624
 21
177.0285639733316998
 31
0.0
  0
LINE
  5
1339A
  8
0
 10
3498.8470947462778895
 20
165.5587035620316954
 30
0.0
 11
3498.8489914760020838
 21
166.8072875177398089
 31
0.0
  0
LINE
  5
1339B
  8
0
 10
3499.6363633385608409
 20
166.8253869838829928
 30
0.0
 11
3499.6499907248780801
 21
167.1191151544317108
 31
0.0
  0
LINE
  5
1339C
  8
0
 10
3496.2984987552781604
 20
174.72743291693169
 30
0.0
 11
3496.3169777239781979
 21
174.6895033265317068
 31
0.0
  0
LINE
  5
1339D
  8
0
 10
3496.2403253145730559
 20
174.8676582978899887
 30
0.0
 11
3496.2694586698771673
 21
174.8005959393317141
 31
0.0
  0
LINE
  5
1339E
  8
0
 10
3496.1337640690780972
 20
175.092108419131705
 30
0.0
 11
3496.1284454621240911
 21
175.1048827004053123
 31
0.0
  0
LINE
  5
1339F
  8
0
 10
3495.9890814572258932
 20
175.3608832640341859
 30
0.0
 11
3495.9257274503511326
 21
175.5604899071705916
 31
0.0
  0
LINE
  5
133A0
  8
0
 10
3497.3738869061799051
 20
172.8102978723836998
 30
0.0
 11
3497.317271053379045
 21
173.0316771353365084
 31
0.0
  0
LINE
  5
133A1
  8
0
 10
3501.3645880886779196
 20
148.0955549492317118
 30
0.0
 11
3501.3665264817777825
 21
147.7253525249317079
 31
0.0
  0
LINE
  5
133A2
  8
0
 10
3500.4098332445778397
 20
178.1210836583317132
 30
0.0
 11
3500.4098332445778397
 21
177.1368316898316948
 31
0.0
  0
LINE
  5
133A3
  8
0
 10
3500.4885734020781456
 20
143.926733492931703
 30
0.0
 11
3500.4885734020781456
 21
143.6671837238316982
 31
0.0
  0
LINE
  5
133A4
  8
0
 10
3500.5791245831778724
 20
151.5251586897317111
 30
0.0
 11
3500.5791245831778724
 21
137.7456311307317094
 31
0.0
  0
LINE
  5
133A5
  8
0
 10
3501.1303056855781506
 20
151.5251586897317111
 30
0.0
 11
3501.1303056855781506
 21
137.7456311307317094
 31
0.0
  0
LINE
  5
133A6
  8
0
 10
3501.1696757642771445
 20
144.8395875953316931
 30
0.0
 11
3501.1696757642771445
 21
147.7136033433316982
 31
0.0
  0
LINE
  5
133A7
  8
0
 10
3501.2208568666778774
 20
143.926733492931703
 30
0.0
 11
3501.2208568666778774
 21
143.6671837238316982
 31
0.0
  0
LINE
  5
133A8
  8
0
 10
3501.6618017485780001
 20
144.8592726347316955
 30
0.0
 11
3501.6618017485780001
 21
147.4163592489317125
 31
0.0
  0
LINE
  5
133A9
  8
0
 10
3501.6618017485780001
 20
147.5384064929316992
 30
0.0
 11
3501.6618017485780001
 21
147.6939183040317118
 31
0.0
  0
LINE
  5
133AA
  8
0
 10
3501.7681009611778791
 20
176.4182859280317075
 30
0.0
 11
3501.7681009611778791
 21
178.8396294201317005
 31
0.0
  0
LINE
  5
133AB
  8
0
 10
3501.8610123290782212
 20
141.5048114644316968
 30
0.0
 11
3501.8610123290782212
 21
143.9519222814317061
 31
0.0
  0
LINE
  5
133AC
  8
0
 10
3502.1578648396780409
 20
141.4488338992316869
 30
0.0
 11
3502.1578648396780409
 21
144.0078998466316875
 31
0.0
  0
LINE
  5
133AD
  8
0
 10
3502.1618017485780001
 20
176.3888001937316972
 30
0.0
 11
3502.1618017485780001
 21
178.8691151544317108
 31
0.0
  0
LINE
  5
133AE
  8
0
 10
3500.462952416277858
 20
148.0955549492317118
 30
0.0
 11
3500.4610143469781178
 21
147.7254143670317035
 31
0.0
  0
LINE
  5
133AF
  8
0
 10
3501.3035340319779607
 20
144.8395875953316931
 30
0.0
 11
3501.261182576577994
 21
143.926733492931703
 31
0.0
  0
LINE
  5
133B0
  8
0
 10
3496.4615359125778014
 20
175.8463288313317037
 30
0.0
 11
3496.4765505651171225
 21
175.8474954501502907
 31
0.0
  0
LINE
  5
133B1
  8
0
 10
3484.2523529296781817
 20
185.8899419260316961
 30
0.0
 11
3484.2405419059778069
 21
185.9017529496317138
 31
0.0
  0
LINE
  5
133B2
  8
0
 10
3496.681992773877937
 20
173.987491227931713
 30
0.0
 11
3496.7679458404268189
 21
173.8371390787002895
 31
0.0
  0
LINE
  5
133B3
  8
0
 10
3496.5576314216159517
 20
174.0802588140927014
 30
0.0
 11
3496.5053270239382073
 21
174.1779872651102039
 31
0.0
  0
LINE
  5
133B4
  8
0
 10
3496.5581611064098979
 20
174.2151903103373058
 30
0.0
 11
3496.5891229877470323
 21
174.15718999230441
 31
0.0
  0
LINE
  5
133B5
  8
0
 10
3496.4568377763807803
 20
174.4067829466073078
 30
0.0
 11
3496.4595475730939143
 21
174.401491291201495
 31
0.0
  0
LINE
  5
133B6
  8
0
 10
3498.0064094357780959
 20
172.7972823308317061
 30
0.0
 11
3496.0585345282779599
 21
176.6202020877317125
 31
0.0
  0
LINE
  5
133B7
  8
0
 10
3497.7127918320779827
 20
173.3865473319316948
 30
0.0
 11
3497.6412972651778546
 21
173.5268633200317083
 31
0.0
  0
LINE
  5
133B8
  8
0
 10
3497.3885510853788219
 20
174.0229056278317046
 30
0.0
 11
3497.3170565184777843
 21
174.1632216158317021
 31
0.0
  0
LINE
  5
133B9
  8
0
 10
3496.9638860185777958
 20
174.8563577492317052
 30
0.0
 11
3496.8923914516781224
 21
174.9966737372317027
 31
0.0
  0
LINE
  5
133BA
  8
0
 10
3496.5736247899781119
 20
175.6222885364317108
 30
0.0
 11
3496.5262479564958085
 21
175.7152708073953136
 31
0.0
  0
LINE
  5
133BB
  8
0
 10
3496.3416725820779902
 20
176.0775203763317052
 30
0.0
 11
3496.2701780151792263
 21
176.2178363644316903
 31
0.0
  0
LINE
  5
133BC
  8
0
 10
3496.0823064739520305
 20
176.6212473385616875
 30
0.0
 11
3496.7571542484779457
 21
175.2967797135316914
 31
0.0
  0
LINE
  5
133BD
  8
0
 10
3496.3486385955779951
 20
175.2086939099316965
 30
0.0
 11
3496.3486372913780542
 21
175.2086964726316864
 31
0.0
  0
LINE
  5
133BE
  8
0
 10
3498.5712442102781097
 20
177.0088789339316975
 30
0.0
 11
3499.8310994442781521
 21
177.0088789339316975
 31
0.0
  0
LINE
  5
133BF
  8
0
 10
3500.4098332445778397
 20
177.1368316898316948
 30
0.0
 11
3501.7681009611778791
 21
177.1368316898316948
 31
0.0
  0
LINE
  5
133C0
  8
0
 10
3499.8901482052779102
 20
177.3139970441316962
 30
0.0
 11
3500.4098332445778397
 21
177.3139970441316962
 31
0.0
  0
LINE
  5
133C1
  8
0
 10
3499.8901482052779102
 20
177.9439183040317118
 30
0.0
 11
3500.4098332445778397
 21
177.9439183040317118
 31
0.0
  0
LINE
  5
133C2
  8
0
 10
3501.1047151343777841
 20
178.1210836583317132
 30
0.0
 11
3500.9747938745781539
 21
178.1210836583317132
 31
0.0
  0
LINE
  5
133C3
  8
0
 10
3500.4098332445778397
 20
178.1210836583317132
 30
0.0
 11
3500.9610130969322199
 21
178.1210836583317132
 31
0.0
  0
LINE
  5
133C4
  8
0
 10
3501.118494662278863
 20
178.1210836583317132
 30
0.0
 11
3501.7681009611778791
 21
178.1210836583317132
 31
0.0
  0
LINE
  5
133C5
  8
0
 10
3499.8310930870779885
 20
178.2490364142317105
 30
0.0
 11
3499.4177963522779464
 21
178.2490364142317105
 31
0.0
  0
LINE
  5
133C6
  8
0
 10
3498.9844941303781525
 20
178.2490364142317105
 30
0.0
 11
3498.5712505674778185
 21
178.2490364142317105
 31
0.0
  0
LINE
  5
133C7
  8
0
 10
3499.8311024788781651
 20
178.2490364142317105
 30
0.0
 11
3498.5712411756780966
 21
178.2490364142317105
 31
0.0
  0
LINE
  5
133C8
  8
0
 10
3501.7872707062779227
 20
176.3986076342316949
 30
0.0
 11
3502.1618017485780001
 21
176.3888001937316972
 31
0.0
  0
LINE
  5
133C9
  8
0
 10
3483.8173135595779968
 20
187.9104537465316866
 30
0.0
 11
3483.8653844363780081
 21
187.8623828709316967
 31
0.0
  0
LINE
  5
133CA
  8
0
 10
3501.7872707062779227
 20
178.8593077139317131
 30
0.0
 11
3502.1618017485780001
 21
178.8691151544317108
 31
0.0
  0
LINE
  5
133CB
  8
0
 10
3498.5712505674778185
 20
178.6821072803317065
 30
0.0
 11
3499.8310930870779885
 21
178.6821072803317065
 31
0.0
  0
LINE
  5
133CC
  8
0
 10
3501.1047151343777841
 20
178.1210836583317132
 30
0.0
 11
3501.1065894567000214
 21
178.1192093360099022
 31
0.0
  0
LINE
  5
133CD
  8
0
 10
3498.7287308823779313
 20
144.1899812961316911
 30
0.0
 11
3498.7090458429788669
 21
144.1618681464316865
 31
0.0
  0
LINE
  5
133CE
  8
0
 10
3499.6932978117779385
 20
144.6905353911317036
 30
0.0
 11
3499.6736127721778757
 21
144.6624222410316918
 31
0.0
  0
LINE
  5
133CF
  8
0
 10
3483.0858572631777861
 20
187.0229233461317051
 30
0.0
 11
3482.9936517456781075
 21
187.0564834098317135
 31
0.0
  0
LINE
  5
133D0
  8
0
 10
3495.0424625928731075
 20
142.6615023819051089
 30
0.0
 11
3495.051635221378092
 21
142.667925125431708
 31
0.0
  0
LINE
  5
133D1
  8
0
 10
3483.499445160077812
 20
185.3584458630317044
 30
0.0
 11
3483.4068355023778167
 21
185.3584458630317044
 31
0.0
  0
LINE
  5
133D2
  8
0
 10
3482.7907837427778759
 20
185.358445863131692
 30
0.0
 11
3482.668499939477897
 21
185.3584458630317044
 31
0.0
  0
LINE
  5
133D3
  8
0
 10
3479.8170332773779592
 20
185.3584458630317044
 30
0.0
 11
3479.7246219040780488
 21
185.3584458630317044
 31
0.0
  0
LINE
  5
133D4
  8
0
 10
3479.5038576611777899
 20
185.3584458630317044
 30
0.0
 11
3479.4113361473778241
 21
185.3584458630317044
 31
0.0
  0
LINE
  5
133D5
  8
0
 10
3479.1548669984781554
 20
185.3584458630317044
 30
0.0
 11
3479.3120625924780143
 21
185.3584458630317044
 31
0.0
  0
LINE
  5
133D6
  8
0
 10
3479.8831840409779943
 20
185.3584458630317044
 30
0.0
 11
3479.9753036621777937
 21
185.3584458630317044
 31
0.0
  0
LINE
  5
133D7
  8
0
 10
3480.0372842383781062
 20
185.3584458630317044
 30
0.0
 11
3480.1293148475779162
 21
185.3584458630317044
 31
0.0
  0
LINE
  5
133D8
  8
0
 10
3480.1496386579779028
 20
185.3584458630317044
 30
0.0
 11
3480.2422483149780419
 21
185.3584458630317044
 31
0.0
  0
LINE
  5
133D9
  8
0
 10
3480.3384865723778603
 20
185.3584458630317044
 30
0.0
 11
3480.4306061891779791
 21
185.3584458630317044
 31
0.0
  0
LINE
  5
133DA
  8
0
 10
3480.5721898330780277
 20
185.3584458630317044
 30
0.0
 11
3480.664799490778023
 21
185.3584458630317044
 31
0.0
  0
LINE
  5
133DB
  8
0
 10
3480.6688415011781217
 20
185.3584458630317044
 30
0.0
 11
3480.7663324884779286
 21
185.3584458630317044
 31
0.0
  0
LINE
  5
133DC
  8
0
 10
3480.7738901943780547
 20
185.3584458630317044
 30
0.0
 11
3480.8660098150771773
 21
185.3584458630317044
 31
0.0
  0
LINE
  5
133DD
  8
0
 10
3480.9519603420772
 20
185.3584458630317044
 30
0.0
 11
3481.0445699996780604
 21
185.3584458630317044
 31
0.0
  0
LINE
  5
133DE
  8
0
 10
3481.280950392577779
 20
185.3584458630317044
 30
0.0
 11
3481.4950479845779228
 21
185.3584458630317044
 31
0.0
  0
LINE
  5
133DF
  8
0
 10
3481.5659241525781908
 20
185.3584458630317044
 30
0.0
 11
3481.6580437693778549
 21
185.3584458630317044
 31
0.0
  0
LINE
  5
133E0
  8
0
 10
3481.9526206971781903
 20
185.3584458630317044
 30
0.0
 11
3482.0580073119781446
 21
185.3584458630317044
 31
0.0
  0
LINE
  5
133E1
  8
0
 10
3482.058007312078189
 20
185.358445863131692
 30
0.0
 11
3482.1326438063779278
 21
185.3584458630317044
 31
0.0
  0
LINE
  5
133E2
  8
0
 10
3482.1793979221779409
 20
185.3584458630317044
 30
0.0
 11
3482.2720075798779362
 21
185.3584458630317044
 31
0.0
  0
LINE
  5
133E3
  8
0
 10
3482.7932607444781752
 20
185.3584458630317044
 30
0.0
 11
3482.8855823377780325
 21
185.3584458630317044
 31
0.0
  0
LINE
  5
133E4
  8
0
 10
3488.437115017978158
 20
185.8899419260316961
 30
0.0
 11
3478.4691656444779255
 21
185.8899419260316961
 31
0.0
  0
LINE
  5
133E5
  8
0
 10
3484.2405419059778069
 20
185.9017529496317138
 30
0.0
 11
3482.6657387563777775
 21
185.9017529496317138
 31
0.0
  0
LINE
  5
133E6
  8
0
 10
3484.107285181977204
 20
186.7009655481317054
 30
0.0
 11
3482.79899548047797
 21
186.7009655481317054
 31
0.0
  0
LINE
  5
133E7
  8
0
 10
3483.8128806689778685
 20
186.8633248193316945
 30
0.0
 11
3483.0933999933781706
 21
186.8633248193316945
 31
0.0
  0
LINE
  5
133E8
  8
0
 10
3483.0858572631777861
 20
187.0229233461317051
 30
0.0
 11
3483.8204233992778427
 21
187.0229233461317051
 31
0.0
  0
LINE
  5
133E9
  8
0
 10
3483.9126289166779316
 20
187.0564834098317135
 30
0.0
 11
3483.6066961357778382
 21
187.0564834098317135
 31
0.0
  0
LINE
  5
133EA
  8
0
 10
3483.2995845266777906
 20
187.0564834098317135
 30
0.0
 11
3482.9936517456781075
 21
187.0564834098317135
 31
0.0
  0
LINE
  5
133EB
  8
0
 10
3483.2643280664788108
 20
187.5474222410317111
 30
0.0
 11
3483.6419525958781378
 21
187.5474222410317111
 31
0.0
  0
LINE
  5
133EC
  8
0
 10
3483.9255812760779918
 20
187.8623828709316967
 30
0.0
 11
3482.9806993863780917
 21
187.8623828709316967
 31
0.0
  0
LINE
  5
133ED
  8
0
 10
3483.0889671028780867
 20
187.9104537465316866
 30
0.0
 11
3483.8173135595779968
 21
187.9104537465316866
 31
0.0
  0
LINE
  5
133EE
  8
0
 10
3483.0594395437778985
 20
188.0285639733316998
 30
0.0
 11
3483.8468411185781406
 21
188.0285639733316998
 31
0.0
  0
LINE
  5
133EF
  8
0
 10
3485.42164426817817
 20
190.3907686977316871
 30
0.0
 11
3497.2326678902782078
 21
190.3907686977316871
 31
0.0
  0
LINE
  5
133F0
  8
0
 10
3485.42164426817817
 20
191.1781702725317018
 30
0.0
 11
3497.2326678902782078
 21
191.1781702725317018
 31
0.0
  0
ARC
  5
133F1
  8
0
 10
3494.4087021314780941
 20
142.8095598848317138
 30
0.0
 40
0.0393700787
 50
176.5582666233999021
 51
215.0000000000061959
  0
ARC
  5
133F2
  8
0
 10
3494.0750388076758099
 20
143.564957598203307
 30
0.0
 40
0.0393986175407617
 50
90.9050358974003956
 51
178.885415139893297
  0
ARC
  5
133F3
  8
0
 10
3494.7709034379140576
 20
143.1199767764964861
 30
0.0
 40
0.4541085278893985
 50
243.7557557002994884
 51
245.9840824939236938
  0
ARC
  5
133F4
  8
0
 10
3494.7719481435560738
 20
143.1176533748783868
 30
0.0
 40
0.4521104155804704
 50
244.9140016144731078
 51
247.1404714893361074
  0
ARC
  5
133F5
  8
0
 10
3494.6583633261320756
 20
142.8499273345111931
 30
0.0
 40
0.1620531746291864
 50
247.4353168993756924
 51
251.3179144951251089
  0
ARC
  5
133F6
  8
0
 10
3494.7653247190301045
 20
143.1146369176258872
 30
0.0
 40
0.447382524517337
 50
249.1998492871582016
 51
250.6847335461914952
  0
ARC
  5
133F7
  8
0
 10
3494.7455577122918839
 20
143.1211288745676029
 30
0.0
 40
0.4464044608788918
 50
246.8090472866504115
 51
249.0467416369205012
  0
ARC
  5
133F8
  8
0
 10
3494.7649307867141033
 20
143.1135254459132113
 30
0.0
 40
0.4462033150355972
 50
250.6852628537073997
 51
251.4173461515374868
  0
ARC
  5
133F9
  8
0
 10
3494.6881732817519151
 20
142.9592392651244097
 30
0.0
 40
0.2748142749924445
 50
247.2421302651596875
 51
250.4426805716400963
  0
ARC
  5
133FA
  8
0
 10
3494.7392118547500104
 20
143.1185678052073911
 30
0.0
 40
0.4412925393849149
 50
251.1062942150001049
 51
253.3403969693320903
  0
ARC
  5
133FB
  8
0
 10
3494.7170498604359636
 20
143.1219560280177063
 30
0.0
 40
0.4324439801688897
 50
255.3550267957990911
 51
257.6181331665908942
  0
ARC
  5
133FC
  8
0
 10
3494.7112958579250517
 20
143.1323467955583055
 30
0.0
 40
0.4374920903417385
 50
245.2934457155758139
 51
247.590244629777402
  0
ARC
  5
133FD
  8
0
 10
3494.7211176269270254
 20
143.1245506253189035
 30
0.0
 40
0.437121098864539
 50
249.8269310679380055
 51
252.0897313425178083
  0
ARC
  5
133FE
  8
0
 10
3494.7226068987029066
 20
143.1227728189307129
 30
0.0
 40
0.4364517624326377
 50
251.0115089669534996
 51
253.2708387054607044
  0
ARC
  5
133FF
  8
0
 10
3494.7152991139878395
 20
143.1231016173034902
 30
0.0
 40
0.4323598255164464
 50
254.1739958896891096
 51
256.4408873969358069
  0
ARC
  5
13400
  8
0
 10
3494.7033470849760306
 20
143.1316626578266948
 30
0.0
 40
0.4315048161946606
 50
248.4620137522641983
 51
250.7635055950559035
  0
ARC
  5
13401
  8
0
 10
3494.7046346177098712
 20
143.1294046631713002
 30
0.0
 40
0.4305917273042961
 50
249.6747422439476054
 51
251.9727250321788858
  0
ARC
  5
13402
  8
0
 10
3494.69891834478085
 20
143.1283487433508128
 30
0.0
 40
0.4255895804723096
 50
254.0803541185306926
 51
256.3835630761856805
  0
ARC
  5
13403
  8
0
 10
3494.6971990966571866
 20
143.1295763937735899
 30
0.0
 40
0.4253121297266422
 50
252.8717381265902873
 51
255.1810142463853026
  0
ARC
  5
13404
  8
0
 10
3494.6919015998928444
 20
143.1296109693873859
 30
0.0
 40
0.421196128386579
 50
257.3170963883703735
 51
259.6370979680723963
  0
ARC
  5
13405
  8
0
 10
3494.7185579852562114
 20
143.1399144523159919
 30
0.0
 40
0.4481961458093963
 50
239.6948307905373952
 51
242.001992585680398
  0
ARC
  5
13406
  8
0
 10
3494.7194147129271187
 20
143.1374525686620984
 30
0.0
 40
0.4467691244888595
 50
240.9241014419069131
 51
243.2220988835271953
  0
ARC
  5
13407
  8
0
 10
3494.71025676784393
 20
143.1348364376943039
 30
0.0
 40
0.4387887004932244
 50
244.0740970049180021
 51
246.3764168108768047
  0
ARC
  5
13408
  8
0
 10
3494.7013398962772044
 20
143.1436225562316906
 30
0.0
 40
0.4391962339
 50
241.2127124984797888
 51
241.6960937133023037
  0
ARC
  5
13409
  8
0
 10
3494.6938202938417817
 20
143.1400787192661994
 30
0.0
 40
0.430853601112985
 50
243.779597614893504
 51
246.1272897211497082
  0
ARC
  5
1340A
  8
0
 10
3494.6927219573640286
 20
143.1423688452746035
 30
0.0
 40
0.4316582200233062
 50
243.1221961984209088
 51
244.8770713679863036
  0
ARC
  5
1340B
  8
0
 10
3494.686819935217045
 20
143.1367353416289916
 30
0.0
 40
0.4227065736088687
 50
248.233572477333297
 51
250.5845216320940949
  0
ARC
  5
1340C
  8
0
 10
3494.6793751751779382
 20
143.1415649807316868
 30
0.0
 40
0.4214763812
 50
272.1910492886065072
 51
273.4271459239777755
  0
ARC
  5
1340D
  8
0
 10
3494.6775454411781539
 20
143.1411662282316968
 30
0.0
 40
0.4192292120000001
 50
270.9934476055939854
 51
272.5293263933368735
  0
ARC
  5
1340E
  8
0
 10
3494.6793607321801574
 20
143.137128629238191
 30
0.0
 40
0.4165695578067583
 50
251.4771168485085013
 51
253.8414410584439906
  0
ARC
  5
1340F
  8
0
 10
3494.6808634520980377
 20
143.1352128106152009
 30
0.0
 40
0.4164239593507002
 50
252.7213397747941031
 51
255.0804584129928116
  0
ARC
  5
13410
  8
0
 10
3494.675639738054997
 20
143.1355648923095885
 30
0.0
 40
0.411933926816216
 50
257.2568590121023817
 51
259.6290704354618128
  0
ARC
  5
13411
  8
0
 10
3494.6738365331921159
 20
143.1365934905076926
 30
0.0
 40
0.4110605650830813
 50
256.0171710349418959
 51
258.3963725641157794
  0
ARC
  5
13412
  8
0
 10
3494.6708341425701292
 20
143.1377239770145877
 30
0.0
 40
0.4090816535391799
 50
261.8535623530704015
 51
264.2448199494331789
  0
ARC
  5
13413
  8
0
 10
3494.6689398785752019
 20
143.1382573788536092
 30
0.0
 40
0.4076186691594108
 50
260.6183171925640067
 51
263.0159663233982883
  0
ARC
  5
13414
  8
0
 10
3494.7619968208609862
 20
143.1316880827012881
 30
0.0
 40
0.4625936905385175
 50
238.1854222797047953
 51
240.4425703452963035
  0
ARC
  5
13415
  8
0
 10
3494.7793660185320732
 20
143.1256587874412105
 30
0.0
 40
0.4619238893455094
 50
239.4409299472654027
 51
241.6834362535113883
  0
ARC
  5
13416
  8
0
 10
3494.7628947488660742
 20
143.1295108883487899
 30
0.0
 40
0.4608425134775983
 50
239.3695345269275947
 51
241.6182511664831907
  0
ARC
  5
13417
  8
0
 10
3494.7803696184200817
 20
143.1236197279602038
 30
0.0
 40
0.4600939174942135
 50
240.6077696729759907
 51
242.8436335183951087
  0
ARC
  5
13418
  8
0
 10
3494.7446121310181297
 20
143.1343205723505037
 30
0.0
 40
0.4578064009153664
 50
239.5472389553858932
 51
240.3000503924274085
  0
ARC
  5
13419
  8
0
 10
3494.6300472549860388
 20
142.8862615234365023
 30
0.0
 40
0.1844511801677479
 50
242.0858091955286113
 51
245.5764227375206872
  0
ARC
  5
1341A
  8
0
 10
3494.7545236220580591
 20
143.124186409331088
 30
0.0
 40
0.4528006164679378
 50
243.6830364914829943
 51
245.1828793873775965
  0
ARC
  5
1341B
  8
0
 10
3494.7359913054051503
 20
143.1329467847988042
 30
0.0
 40
0.4523930532276643
 50
241.1622774247967129
 51
242.6740212064077866
  0
ARC
  5
1341C
  8
0
 10
3494.7537324140898818
 20
143.1224911982112928
 30
0.0
 40
0.4509298661486485
 50
245.1837207802030036
 51
245.9224172211503969
  0
ARC
  5
1341D
  8
0
 10
3494.7349766877778166
 20
143.1309995712317118
 30
0.0
 40
0.4501973682
 50
242.6749785830089934
 51
243.4335007273060967
  0
ARC
  5
1341E
  8
0
 10
3494.6104348500689412
 20
142.8684283190202962
 30
0.0
 40
0.159764033003817
 50
241.2671716648509062
 51
245.3086666636527866
  0
ARC
  5
1341F
  8
0
 10
3494.7278525676488243
 20
143.1277348504825113
 30
0.0
 40
0.4436374130023731
 50
245.493883342006086
 51
247.757124438900604
  0
ARC
  5
13420
  8
0
 10
3494.7294281987778959
 20
143.1264324701317037
 30
0.0
 40
0.4433718500000001
 50
246.6850002729011919
 51
247.4369037645082017
  0
ARC
  5
13421
  8
0
 10
3494.7288752842719077
 20
143.1250922793034022
 30
0.0
 40
0.4419220869958889
 50
247.4364319659271985
 51
248.9434273202718089
  0
ARC
  5
13422
  8
0
 10
3494.7727054702691021
 20
143.1393623058187075
 30
0.0
 40
0.47374325578401
 50
233.8278354111708097
 51
236.1035651025007098
  0
ARC
  5
13423
  8
0
 10
3494.7729017614160512
 20
143.1364715093808968
 30
0.0
 40
0.470944776504623
 50
235.023058615719691
 51
237.2907822725233871
  0
ARC
  5
13424
  8
0
 10
3494.7548174872108575
 20
143.1413700585194135
 30
0.0
 40
0.4687474911093958
 50
234.4374963757819046
 51
235.955538853638501
  0
ARC
  5
13425
  8
0
 10
3494.6023693859838204
 20
142.9182540343412882
 30
0.0
 40
0.1992936111166856
 50
236.4584558347847008
 51
239.8018963158031056
  0
ARC
  5
13426
  8
0
 10
3494.7456275292997816
 20
143.1360446729842977
 30
0.0
 40
0.4598072893397701
 50
238.0234532222245889
 51
239.5470521304769989
  0
ARC
  5
13427
  8
0
 10
3494.7279751141468296
 20
143.1422889810689014
 30
0.0
 40
0.4558261014269755
 50
236.8453973149860872
 51
238.859719342950001
  0
ARC
  5
13428
  8
0
 10
3494.7970283926520096
 20
143.120442831810891
 30
0.0
 40
0.4596859057952374
 50
240.6018125916872918
 51
242.8397248697787916
  0
ARC
  5
13429
  8
0
 10
3494.8246450893948349
 20
143.1200202198479872
 30
0.0
 40
0.4602043710869775
 50
238.4344141779781978
 51
240.6995278996056982
  0
ARC
  5
1342A
  8
0
 10
3494.7981345928651535
 20
143.1185553976442861
 30
0.0
 40
0.4577879214392329
 50
241.7579723492733024
 51
243.9907663979743973
  0
ARC
  5
1342B
  8
0
 10
3494.8149701985439606
 20
143.1160539841856973
 30
0.0
 40
0.4558836194760744
 50
241.6835115944521135
 51
243.9264721975602015
  0
ARC
  5
1342C
  8
0
 10
3494.7890358956778982
 20
143.1152915746316978
 30
0.0
 40
0.4532064566
 50
244.926405592508587
 51
247.1473970683522907
  0
ARC
  5
1342D
  8
0
 10
3494.8158891114130711
 20
143.1137456118547959
 30
0.0
 40
0.4532733108723356
 50
242.8335149656716965
 51
245.075919967116107
  0
ARC
  5
1342E
  8
0
 10
3494.7901098456609361
 20
143.1129874416218115
 30
0.0
 40
0.4509861698810705
 50
246.0754236959984951
 51
248.2967194534710984
  0
ARC
  5
1342F
  8
0
 10
3494.8419244102828998
 20
143.1187465573156032
 30
0.0
 40
0.456788166846796
 50
238.2392671218968019
 51
240.5240884267520869
  0
ARC
  5
13430
  8
0
 10
3494.8429830512950502
 20
143.1170155144606895
 30
0.0
 40
0.4544250084789611
 50
239.3983666261443091
 51
241.678219138086007
  0
ARC
  5
13431
  8
0
 10
3494.8774961049780359
 20
143.1118780206317069
 30
0.0
 40
0.4367252961000001
 50
241.9037413295540091
 51
242.2910011814066138
  0
ARC
  5
13432
  8
0
 10
3494.87887227427791
 20
143.1106658968317049
 30
0.0
 40
0.4344188566
 50
242.4368445748087879
 51
243.467356766598499
  0
ARC
  5
13433
  8
0
 10
3494.8000621152777967
 20
143.1368430412317139
 30
0.0
 40
0.478081194
 50
233.076426448281893
 51
234.1443802313968092
  0
ARC
  5
13434
  8
0
 10
3494.8164453759782191
 20
143.1335590037317047
 30
0.0
 40
0.4762776206
 50
233.402075070654206
 51
234.0850868088085122
  0
ARC
  5
13435
  8
0
 10
3494.8171808897777737
 20
143.1316029003316999
 30
0.0
 40
0.4739909129
 50
233.4685796250261944
 51
235.2523396992968969
  0
ARC
  5
13436
  8
0
 10
3494.7893498289549825
 20
143.1327573377290889
 30
0.0
 40
0.4715506035912643
 50
235.0847573171870977
 51
237.3485254057015084
  0
ARC
  5
13437
  8
0
 10
3494.8337643517779725
 20
143.1289577744317114
 30
0.0
 40
0.4706611275000001
 50
234.3695735122369115
 51
235.0998333358930097
  0
ARC
  5
13438
  8
0
 10
3494.806705615942974
 20
143.1274926651622081
 30
0.0
 40
0.4684662764217647
 50
236.2302633026359047
 51
238.4895192125003973
  0
ARC
  5
13439
  8
0
 10
3494.7896490857569916
 20
143.1299095307198002
 30
0.0
 40
0.4685967807650158
 50
236.259912663579712
 51
238.5180612547380008
  0
ARC
  5
1343A
  8
0
 10
3494.8345252821782196
 20
143.1270173944317037
 30
0.0
 40
0.4681503609000001
 50
234.5071262879216079
 51
236.2612804268069908
  0
ARC
  5
1343B
  8
0
 10
3494.8069953573490238
 20
143.1245597347177068
 30
0.0
 40
0.4651868404513504
 50
237.3926164563376915
 51
239.649192202244393
  0
ARC
  5
1343C
  8
0
 10
3494.8246575236858007
 20
143.1234917324449896
 30
0.0
 40
0.4643528596155652
 50
237.278672614060099
 51
239.5410316159697004
  0
ARC
  5
1343D
  8
0
 10
3494.8520408549779859
 20
143.1230305164316974
 30
0.0
 40
0.4604302816
 50
236.3269935456420967
 51
237.1810105384066958
  0
ARC
  5
1343E
  8
0
 10
3494.880148798477876
 20
143.6691887668316951
 30
0.0
 40
0.9740271070999998
 50
257.7240653642111852
 51
258.2837511509052888
  0
ARC
  5
1343F
  8
0
 10
3494.8799741020779948
 20
143.6683657995316992
 30
0.0
 40
0.9731858156999998
 50
258.4215078608957015
 51
258.9950014855114091
  0
ARC
  5
13440
  8
0
 10
3494.7888474566498189
 20
143.1891995460860016
 30
0.0
 40
0.525555710200784
 50
251.5749308079751074
 51
255.1245697736463001
  0
ARC
  5
13441
  8
0
 10
3472.0413738708471101
 20
185.7033241216161059
 30
0.0
 40
12.1614168726633096
 50
0.9348942650021022
 51
4.447982118206725
  0
ARC
  5
13442
  8
0
 10
3478.519420121478106
 20
185.4765560992316864
 30
0.0
 40
0.0590551181
 50
181.0000000002004015
 51
270.0
  0
ARC
  5
13443
  8
0
 10
3480.664799490778023
 20
185.366319878831689
 30
0.0
 40
0.0078740157
 50
270.0
 51
284.6315655072505137
  0
ARC
  5
13444
  8
0
 10
3480.5721898330780277
 20
185.366319878831689
 30
0.0
 40
0.0078740157
 50
185.9999999998998987
 51
270.0
  0
ARC
  5
13445
  8
0
 10
3479.1548669984781554
 20
185.366319878831689
 30
0.0
 40
0.0078740157
 50
186.0000000001990088
 51
270.0
  0
ARC
  5
13446
  8
0
 10
3480.7663324889781506
 20
185.366319878831689
 30
0.0
 40
0.0078740157
 50
270.0
 51
353.9999999998009912
  0
ARC
  5
13447
  8
0
 10
3480.1496386575781798
 20
185.366319878831689
 30
0.0
 40
0.0078740157
 50
186.0000000001990088
 51
270.0
  0
ARC
  5
13448
  8
0
 10
3480.2422483152781751
 20
185.366319878831689
 30
0.0
 40
0.0078740157
 50
270.0
 51
353.9999999998009912
  0
ARC
  5
13449
  8
0
 10
3479.7245237807787817
 20
185.3663203276402101
 30
0.0
 40
0.0078750759394931
 50
186.0024725769212921
 51
270.713922818769106
  0
ARC
  5
1344A
  8
0
 10
3479.8171313633370119
 20
185.3663203696360995
 30
0.0
 40
0.0078751174669197
 50
269.2863526397081273
 51
353.997251964567397
  0
ARC
  5
1344B
  8
0
 10
3479.4112922897011231
 20
185.3663199803536088
 30
0.0
 40
0.0078742394612935
 50
186.0005716513938125
 51
270.3191257761728252
  0
ARC
  5
1344C
  8
0
 10
3479.5039015061088321
 20
185.3663199944784026
 30
0.0
 40
0.007874253514961
 50
269.6809675415507854
 51
353.9993357538693886
  0
ARC
  5
1344D
  8
0
 10
3479.2194639541780816
 20
185.366319878831689
 30
0.0
 40
0.0078740157
 50
186.0000000001990088
 51
270.0
  0
ARC
  5
1344E
  8
0
 10
3479.3120735978632183
 20
185.3663198855851135
 30
0.0
 40
0.0078740302443528
 50
269.9199187307249872
 51
353.9999617115736896
  0
ARC
  5
1344F
  8
0
 10
3480.8660098153782201
 20
185.366319878831689
 30
0.0
 40
0.0078740157
 50
270.0
 51
353.9999999998997851
  0
ARC
  5
13450
  8
0
 10
3480.7738901940779215
 20
185.366319878831689
 30
0.0
 40
0.0078740157
 50
241.3201965542116909
 51
270.0
  0
ARC
  5
13451
  8
0
 10
3480.4306061914780912
 20
185.366319878831689
 30
0.0
 40
0.0078740157
 50
270.0
 51
353.9999999998997851
  0
ARC
  5
13452
  8
0
 10
3480.3384865700782029
 20
185.366319878831689
 30
0.0
 40
0.0078740157
 50
186.0000000001001865
 51
270.0
  0
ARC
  5
13453
  8
0
 10
3480.1293148479780939
 20
185.366319878831689
 30
0.0
 40
0.0078740157
 50
270.0
 51
353.9999999998997851
  0
ARC
  5
13454
  8
0
 10
3480.0371960923739607
 20
185.366320289367593
 30
0.0
 40
0.0078749196718071
 50
186.0023121295768931
 51
270.6413398114253255
  0
ARC
  5
13455
  8
0
 10
3479.9753036622778382
 20
185.366319878831689
 30
0.0
 40
0.0078740157
 50
270.0
 51
353.9999999998997851
  0
ARC
  5
13456
  8
0
 10
3479.8831840408779499
 20
185.366319878831689
 30
0.0
 40
0.0078740157
 50
186.0000000001001865
 51
270.0
  0
ARC
  5
13457
  8
0
 10
3480.668778510338143
 20
185.3663201174225037
 30
0.0
 40
0.0078745063372765
 50
186.0013703618512864
 51
270.4583332057212033
  0
ARC
  5
13458
  8
0
 10
3478.4691656444779255
 20
185.8741938945316861
 30
0.0
 40
0.0157480315
 50
90.0
 51
181.0000000000001137
  0
ARC
  5
13459
  8
0
 10
3482.772070703278132
 20
185.366319878831689
 30
0.0
 40
0.0078740157
 50
270.0000000468469921
 51
353.9999999815223077
  0
ARC
  5
1345A
  8
0
 10
3482.1326438063779278
 20
185.366319878831689
 30
0.0
 40
0.0078740157
 50
270.0
 51
353.9999999998997851
  0
ARC
  5
1345B
  8
0
 10
3481.5659241502780787
 20
185.366319878831689
 30
0.0
 40
0.0078740157
 50
186.0000000001001865
 51
270.0
  0
ARC
  5
1345C
  8
0
 10
3481.658043771677967
 20
185.366319878831689
 30
0.0
 40
0.0078740157
 50
270.0
 51
353.9999999998997851
  0
ARC
  5
1345D
  8
0
 10
3482.7907837427778759
 20
185.366319878831689
 30
0.0
 40
0.0078740157
 50
270.0
 51
353.9999999998009912
  0
ARC
  5
1345E
  8
0
 10
3482.1793979221779409
 20
185.366319878831689
 30
0.0
 40
0.0078740157
 50
186.0000000001990088
 51
270.0
  0
ARC
  5
1345F
  8
0
 10
3482.2720075798779362
 20
185.366319878831689
 30
0.0
 40
0.0078740157
 50
270.0
 51
353.9999999998009912
  0
ARC
  5
13460
  8
0
 10
3482.8856802525938292
 20
185.3663204551477008
 30
0.0
 40
0.0078752008421437
 50
269.2876054356289046
 51
353.9966901824296883
  0
ARC
  5
13461
  8
0
 10
3482.7931714808742072
 20
185.3664046492336013
 30
0.0
 40
0.007959286764448
 50
261.3377565829352989
 51
270.6425871005383215
  0
ARC
  5
13462
  8
0
 10
3482.6684872116470615
 20
185.366317969924097
 30
0.0
 40
0.0078721171817408
 50
185.9874823080550925
 51
270.0926372498029764
  0
ARC
  5
13463
  8
0
 10
3481.9525768236740078
 20
185.3663199625657114
 30
0.0
 40
0.0078742217618936
 50
186.0004550447063991
 51
270.3192416596872931
  0
ARC
  5
13464
  8
0
 10
3482.0451862828781486
 20
185.366319878831689
 30
0.0
 40
0.0078740157
 50
270.0
 51
353.9999999998009912
  0
ARC
  5
13465
  8
0
 10
3481.2808523836370114
 20
185.3663204562558917
 30
0.0
 40
0.0078752031211265
 50
186.003316181283509
 51
270.7130792144437805
  0
ARC
  5
13466
  8
0
 10
3481.3734609080779592
 20
185.366319878831689
 30
0.0
 40
0.0078740157
 50
270.0
 51
353.9999999998009912
  0
ARC
  5
13467
  8
0
 10
3483.4068355023778167
 20
185.366319878831689
 30
0.0
 40
0.0078740157
 50
186.0000000001990088
 51
270.0
  0
ARC
  5
13468
  8
0
 10
3482.058007312078189
 20
185.366319878831689
 30
0.0
 40
0.0078740157
 50
270.0
 51
353.9999999998997851
  0
ARC
  5
13469
  8
0
 10
3481.4164964920778402
 20
185.366319878831689
 30
0.0
 40
0.0078740157
 50
270.0
 51
353.9999999998997851
  0
ARC
  5
1346A
  8
0
 10
3482.7657848746780473
 20
185.366319878831689
 30
0.0
 40
0.0078740157
 50
270.0000000468469921
 51
353.9999999999985221
  0
ARC
  5
1346B
  8
0
 10
3482.0821223253778953
 20
185.366319878831689
 30
0.0
 40
0.0078740157
 50
269.9999999232417167
 51
353.9999999999985221
  0
ARC
  5
1346C
  8
0
 10
3481.4950479850781448
 20
185.366319878831689
 30
0.0
 40
0.0078740157
 50
270.0
 51
353.9999999999985221
  0
ARC
  5
1346D
  8
0
 10
3480.9519603420772
 20
185.366319878831689
 30
0.0
 40
0.0078740157
 50
186.0000000000013927
 51
270.0
  0
ARC
  5
1346E
  8
0
 10
3481.0445699996780604
 20
185.366319878831689
 30
0.0
 40
0.0078740157
 50
270.0
 51
353.9999999999985221
  0
ARC
  5
1346F
  8
0
 10
3483.4531403311780196
 20
186.521761675031712
 30
0.0
 40
0.4960629921
 50
136.4847257596973122
 51
158.8228789561190126
  0
ARC
  5
13470
  8
0
 10
3483.4531403311780196
 20
186.521761675031712
 30
0.0
 40
0.4960629921
 50
21.1771210438809803
 51
43.515274240302702
  0
ARC
  5
13471
  8
0
 10
3482.7440922871778639
 20
186.9372252276316999
 30
0.0
 40
0.3555056159
 50
356.1837651646998211
 51
359.9936811061003255
  0
ARC
  5
13472
  8
0
 10
3482.7446243922781832
 20
186.9371645700317117
 30
0.0
 40
0.3549735093
 50
0.0034622996008925
 51
3.8190914295993852
  0
ARC
  5
13473
  8
0
 10
3482.7989954800968917
 20
186.6419104292185125
 30
0.0
 40
0.0590551188132054
 50
89.999999669933942
 51
175.5518348977097958
  0
CIRCLE
  5
13474
  8
0
 10
3483.4531403311780196
 20
186.9371860205316977
 30
0.0
 40
0.0236220472
  0
ARC
  5
13475
  8
0
 10
3483.0791245831778724
 20
187.0044254598317082
 30
0.0
 40
0.0196850394
 50
0.0
 51
69.9999999998994724
  0
ARC
  5
13476
  8
0
 10
3483.0003844256780212
 20
187.0749812961317105
 30
0.0
 40
0.0196850394
 50
180.0
 51
250.0000000000090949
  0
ARC
  5
13477
  8
0
 10
3483.0791245831778724
 20
186.8768789123317049
 30
0.0
 40
0.0196850394
 50
316.4847257599979002
 51
0.0
  0
ARC
  5
13478
  8
0
 10
3483.9079841739780932
 20
167.8499414379317045
 30
0.0
 40
15.5567681809000007
 50
353.191750118501318
 51
353.9349841933993162
  0
ARC
  5
13479
  8
0
 10
3495.111612823141968
 20
172.0611601052214041
 30
0.0
 40
2.3713934756377468
 50
35.2872767529944227
 51
39.4669774832035714
  0
ARC
  5
1347A
  8
0
 10
3483.499445160077812
 20
185.366319878831689
 30
0.0
 40
0.0078740157
 50
270.0
 51
353.9999999998009912
  0
ARC
  5
1347B
  8
0
 10
3484.1629956725791999
 20
186.9371198735317137
 30
0.0
 40
0.3563129173
 50
176.1880828305997113
 51
179.9893634400991118
  0
ARC
  5
1347C
  8
0
 10
3484.1614843293777994
 20
186.9372017333317046
 30
0.0
 40
0.3548015683
 50
180.0025374080993004
 51
183.8200163211988922
  0
ARC
  5
1347D
  8
0
 10
3484.1072851824778809
 20
186.6419104299316984
 30
0.0
 40
0.0590551181
 50
4.447982092300176
 51
90.0000005428059637
  0
ARC
  5
1347E
  8
0
 10
3483.8271560792782111
 20
187.0044254598317082
 30
0.0
 40
0.0196850394
 50
110.0000000001004992
 51
180.0
  0
ARC
  5
1347F
  8
0
 10
3483.9058962366780179
 20
187.0749812961317105
 30
0.0
 40
0.0196850394
 50
289.9999999999909051
 51
0.0
  0
ARC
  5
13480
  8
0
 10
3483.8271560792782111
 20
186.8768789123317049
 30
0.0
 40
0.0196850394
 50
180.0
 51
223.5152742400020998
  0
ARC
  5
13481
  8
0
 10
3488.3868605408779331
 20
185.4765560992316864
 30
0.0
 40
0.0590551181
 50
270.0
 51
358.9999999997996269
  0
ARC
  5
13482
  8
0
 10
3488.437115017978158
 20
185.8741938945316861
 30
0.0
 40
0.0157480315
 50
358.9999999999997726
 51
90.0
  0
ARC
  5
13483
  8
0
 10
3485.42164426817817
 20
188.8159655481316861
 30
0.0
 40
2.3622047244000002
 50
90.0
 51
180.0
  0
ARC
  5
13484
  8
0
 10
3485.42164426817817
 20
188.8159655481316861
 30
0.0
 40
1.5748031495999999
 50
90.0
 51
180.0
  0
ARC
  5
13485
  8
0
 10
3494.8649072414777947
 20
185.703324107631687
 30
0.0
 40
12.1614173228000002
 50
175.552017095099302
 51
179.0651057037131864
  0
ARC
  5
13486
  8
0
 10
3498.570187119602906
 20
143.7425053748528114
 30
0.0
 40
0.1388592857509079
 50
275.7768868199854069
 51
359.8519811584292256
  0
ARC
  5
13487
  8
0
 10
3495.0290534718778872
 20
142.7001752059317141
 30
0.0
 40
0.0393700787
 50
305.0000000000089813
 51
343.4417334715652146
  0
ARC
  5
13488
  8
0
 10
3499.9358839444639671
 20
143.5740247746022931
 30
0.0
 40
0.2443416357138094
 50
186.872460773093394
 51
227.6778257975745987
  0
ARC
  5
13489
  8
0
 10
3498.7287308823779313
 20
147.6939183040317118
 30
0.0
 40
0.0196850394
 50
90.0
 51
180.0
  0
ARC
  5
1348A
  8
0
 10
3498.7287308824779757
 20
144.8592726347316955
 30
0.0
 40
0.0196850394
 50
180.0
 51
270.0
  0
ARC
  5
1348B
  8
0
 10
3498.7188884925571983
 20
143.9882096310680879
 30
0.0
 40
0.0098425505791189
 50
89.8861958640498955
 51
179.9999326854257049
  0
ARC
  5
1348C
  8
0
 10
3499.683455390931158
 20
143.9882096426852911
 30
0.0
 40
0.0098425195464529
 50
359.9999996883548761
 51
89.999961891466242
  0
ARC
  5
1348D
  8
0
 10
3499.1931620478080731
 20
144.8476788308072116
 30
0.0
 40
0.0081227437388183
 50
275.0482286544475983
 51
350.4333162249591851
  0
ARC
  5
1348E
  8
0
 10
3499.1931108167191269
 20
147.7054449530085094
 30
0.0
 40
0.0082081636790809
 50
10.8655153360781096
 51
83.6870436313729016
  0
ARC
  5
1348F
  8
0
 10
3500.8547151343777841
 20
137.7456311307317094
 30
0.0
 40
0.2755905512
 50
180.0
 51
0.0
  0
ARC
  5
13490
  8
0
 10
3502.0161325561780359
 20
141.6260046682317011
 30
0.0
 40
0.1968503937
 50
218.0000000000036096
 51
270.0
  0
ARC
  5
13491
  8
0
 10
3502.1381797999169976
 20
141.4488393149381977
 30
0.0
 40
0.0196850405064524
 50
270.0000010521051195
 51
359.984236906868091
  0
ARC
  5
13492
  8
0
 10
3502.0161325561780359
 20
143.8307290776317018
 30
0.0
 40
0.1968503937
 50
90.0
 51
141.9999999999963904
  0
ARC
  5
13493
  8
0
 10
3501.1732249369779311
 20
143.7298830992316994
 30
0.0
 40
0.0787401575
 50
270.0
 51
307.2234816165923803
  0
ARC
  5
13494
  8
0
 10
3500.5362053317780919
 20
143.7298830992316994
 30
0.0
 40
0.0787401575
 50
232.7765183834075913
 51
270.0
  0
ARC
  5
13495
  8
0
 10
3502.1381797998737966
 20
144.0078944307826987
 30
0.0
 40
0.0196850405490492
 50
0.0157635081603813
 51
89.999998824002887
  0
ARC
  5
13496
  8
0
 10
3501.6421167091780262
 20
147.6939183040317118
 30
0.0
 40
0.0196850394
 50
0.0
 51
90.0
  0
ARC
  5
13497
  8
0
 10
3501.6421167091780262
 20
144.8592726347316955
 30
0.0
 40
0.0196850394
 50
270.0
 51
0.0
  0
ARC
  5
13498
  8
0
 10
3501.3527772269781053
 20
148.0954931071316878
 30
0.0
 40
0.0118110236
 50
0.3000000001004623
 51
90.0
  0
ARC
  5
13499
  8
0
 10
3501.3783373434780515
 20
147.7254143670317035
 30
0.0
 40
0.0118110236
 50
180.2999999999994998
 51
270.0
  0
ARC
  5
1349A
  8
0
 10
3500.474763277978127
 20
148.0954931071316878
 30
0.0
 40
0.0118110235999995
 50
89.9999733192348401
 51
179.6999999999108866
  0
ARC
  5
1349B
  8
0
 10
3496.109036669678062
 20
176.6348670535539043
 30
0.0
 40
0.03
 50
51.582119583189737
 51
206.9999999999974136
  0
ARC
  5
1349C
  8
0
 10
3496.0451694304779267
 20
176.6133922302317103
 30
0.0
 40
0.015
 50
26.9999999999973603
 51
135.6007915337044949
  0
ARC
  5
1349D
  8
0
 10
3496.1777157261781213
 20
174.8654450586317068
 30
0.0
 40
0.0118229346
 50
204.4790447266977935
 51
239.6533502886859992
  0
ARC
  5
1349E
  8
0
 10
3496.0002441959009047
 20
175.364757908021204
 30
0.0
 40
0.0118160738296544
 50
199.1421507583098958
 51
292.9751091970373977
  0
ARC
  5
1349F
  8
0
 10
3496.1354558880780132
 20
174.9600058553317012
 30
0.0
 40
0.0118163187
 50
130.8376849181063051
 51
203.6684585563052963
  0
ARC
  5
134A0
  8
0
 10
3496.8578434460769131
 20
173.5931269743651058
 30
0.0
 40
0.0118146775882443
 50
212.9930766153138109
 51
293.785616536957491
  0
ARC
  5
134A1
  8
0
 10
3496.597071826886804
 20
174.7482578107459119
 30
0.0
 40
0.3310917428626773
 50
200.9358711980603971
 51
208.2377889634433075
  0
ARC
  5
134A2
  8
0
 10
3496.219594086025154
 20
174.7841086101466885
 30
0.0
 40
0.0118881438432063
 50
243.5729741611013992
 51
293.1905302241830782
  0
ARC
  5
134A3
  8
0
 10
3496.2988500868791562
 20
174.6091040632317117
 30
0.0
 40
0.0098553736
 50
134.1224913139041917
 51
164.1427238946972977
  0
ARC
  5
134A4
  8
0
 10
3496.341975042024842
 20
174.5197709516534132
 30
0.0
 40
0.0098623681426192
 50
206.5752449179061898
 51
293.8810498596586172
  0
ARC
  5
134A5
  8
0
 10
3497.1963520188360235
 20
175.3781107372714132
 30
0.0
 40
1.1337981471570331
 50
205.7344179540264975
 51
206.3355113747354039
  0
ARC
  5
134A6
  8
0
 10
3496.896360205790188
 20
174.8988055282015068
 30
0.0
 40
0.6671901109386563
 50
205.0625563767565041
 51
210.6701787313917862
  0
ARC
  5
134A7
  8
0
 10
3497.3092101608422126
 20
175.0946162224879004
 30
0.0
 40
1.124118157276794
 50
204.5427081141486951
 51
205.1893661580064077
  0
ARC
  5
134A8
  8
0
 10
3498.8186527041998488
 20
165.559076496641211
 30
0.0
 40
0.0284444868741335
 50
254.8984975996447986
 51
359.2487756413465263
  0
ARC
  5
134A9
  8
0
 10
3498.8826620246782113
 20
166.0094106582317011
 30
0.0
 40
0.0787401575
 50
243.6169620192947036
 51
270.0
  0
ARC
  5
134AA
  8
0
 10
3499.2011718272779035
 20
166.1929338020316891
 30
0.0
 40
0.7677165354000001
 50
291.0372212585062925
 51
57.4804455979004416
  0
ARC
  5
134AB
  8
0
 10
3499.2011718272779035
 20
166.1929338020316891
 30
0.0
 40
0.7677165354000001
 50
122.519554402099601
 51
248.9627787414935938
  0
ARC
  5
134AC
  8
0
 10
3498.8096219369781466
 20
166.8070813774317003
 30
0.0
 40
0.0393700787
 50
0.2999999999995002
 51
122.5195544019099003
  0
ARC
  5
134AD
  8
0
 10
3498.6708598949508087
 20
167.1388073616597865
 30
0.0
 40
0.01969220853148
 50
180.0449441514489877
 51
269.9791533290297139
  0
ARC
  5
134AE
  8
0
 10
3499.5196816298780504
 20
166.0094106582317011
 30
0.0
 40
0.0787401575
 50
270.0
 51
296.3830379807067175
  0
ARC
  5
134AF
  8
0
 10
3499.5832856621082101
 20
165.5589570266614885
 30
0.0
 40
0.0280378994479401
 50
180.5179650289198889
 51
289.5055852869601267
  0
ARC
  5
134B0
  8
0
 10
3499.5927217175781152
 20
166.8070813774317003
 30
0.0
 40
0.0393700787
 50
57.4804455978056481
 51
179.7000000000005002
  0
ARC
  5
134B1
  8
0
 10
3499.7314743451111099
 20
167.1388078370187884
 30
0.0
 40
0.0196926839677997
 50
270.0214556910104875
 51
0.000338702949265
  0
ARC
  5
134B2
  8
0
 10
3497.6229697049780043
 20
172.8739093661816923
 30
0.0
 40
0.2570771534
 50
194.3261504156988053
 51
297.000000000001819
  0
ARC
  5
134B3
  8
0
 10
3497.9930443379780627
 20
172.7904724734316915
 30
0.0
 40
0.015
 50
297.000000000001819
 51
26.9999999999973603
  0
ARC
  5
134B4
  8
0
 10
3498.5712505690839862
 20
177.0285639739111048
 30
0.0
 40
0.0196850410063974
 50
180.000001686317205
 51
269.9814918965549282
  0
ARC
  5
134B5
  8
0
 10
3496.2922483776787885
 20
172.0932300897787002
 30
0.0
 40
1.4302172708015639
 50
43.316749867678098
 51
46.9084447582818527
  0
ARC
  5
134B6
  8
0
 10
3499.2542245561007803
 20
174.9945445838839078
 30
0.0
 40
2.7180564963032472
 50
218.0603281099103867
 51
223.0914278333584093
  0
ARC
  5
134B7
  8
0
 10
3499.8310930855300285
 20
177.0285639738530961
 30
0.0
 40
0.0196850409483643
 50
270.0185079346601924
 51
359.9999984825457773
  0
ARC
  5
134B8
  8
0
 10
3497.2326678902782078
 20
188.8159655481316861
 30
0.0
 40
2.3622047244000002
 50
0.0
 51
90.0
  0
ARC
  5
134B9
  8
0
 10
3497.2326678902782078
 20
188.8159655481316861
 30
0.0
 40
1.5748031495999999
 50
0.0
 51
90.0
  0
ARC
  5
134BA
  8
0
 10
3499.8901649833092051
 20
177.9833051608626135
 30
0.0
 40
0.039386860404451
 50
180.0244070257901114
 51
269.9755931197437917
  0
ARC
  5
134BB
  8
0
 10
3499.8901648673909222
 20
177.2746103032191058
 30
0.0
 40
0.0393867444369665
 50
90.0242383261257544
 51
179.9757615283841119
  0
ARC
  5
134BC
  8
0
 10
3498.5712505674778185
 20
178.2687214536317128
 30
0.0
 40
0.0196850394
 50
180.0
 51
270.0
  0
ARC
  5
134BD
  8
0
 10
3499.8310930870779885
 20
178.2687214536317128
 30
0.0
 40
0.0196850394
 50
270.0
 51
0.0
  0
ARC
  5
134BE
  8
0
 10
3499.8310930870779885
 20
178.6624222410316918
 30
0.0
 40
0.0196850394
 50
0.0
 51
90.0
  0
ARC
  5
134BF
  8
0
 10
3498.5712505674778185
 20
178.6624222410316918
 30
0.0
 40
0.0196850394
 50
90.0
 51
180.0
  0
ARC
  5
134C0
  8
0
 10
3499.8310930870779885
 20
178.2293513748317082
 30
0.0
 40
0.0196850394
 50
0.0
 51
90.0
  0
ARC
  5
134C1
  8
0
 10
3498.5712505674778185
 20
178.2293513748317082
 30
0.0
 40
0.0196850394
 50
90.0
 51
180.0
  0
ARC
  5
134C2
  8
0
 10
3501.5319999192420255
 20
166.468137408505612
 30
0.0
 40
7.1721477863858167
 50
114.1934930942412052
 51
118.8116728151962036
  0
ARC
  5
134C3
  8
0
 10
3501.7877860004778086
 20
176.4182859280317075
 30
0.0
 40
0.0196850394
 50
180.0
 51
268.5000000000102887
  0
ARC
  5
134C4
  8
0
 10
3505.1482959575778295
 20
178.9582552542316876
 30
0.0
 40
9.8097507611000001
 50
205.1344433605929112
 51
205.5513513543079966
  0
ARC
  5
134C5
  8
0
 10
3504.4686815822778954
 20
178.3573964076317111
 30
0.0
 40
8.9309586898000006
 50
209.0229187633939887
 51
209.3015743377623892
  0
ARC
  5
134C6
  8
0
 10
3503.4508025743170947
 20
178.1719222456484033
 30
0.0
 40
8.0012283121257202
 50
203.7045675674033021
 51
204.4474526799151022
  0
ARC
  5
134C7
  8
0
 10
3502.3736261798781015
 20
177.6992958692316904
 30
0.0
 40
6.7626404282000001
 50
202.6765249948967949
 51
203.6459513313085949
  0
ARC
  5
134C8
  8
0
 10
3501.0399544059919208
 20
178.5787690292000889
 30
0.0
 40
0.4644000336182194
 50
261.7030526094055745
 51
269.9753355066803238
  0
ARC
  5
134C9
  8
0
 10
3501.7877860004778086
 20
178.8396294201317005
 30
0.0
 40
0.0196850394
 50
91.4999999999897256
 51
180.0
  0
ARC
  5
134CA
  8
0
 10
3515.136525460878147
 20
167.9225681127317102
 30
0.0
 40
16.2030209545000012
 50
186.0804697215953922
 51
186.7939645455986124
  0
LINE
  5
134CB
  8
0
 10
3494.6305834580789451
 20
142.7302442592317107
 30
0.0
 11
3494.6298122462781066
 21
142.7307043174317016
 31
0.0
  0
LINE
  5
134CC
  8
0
 10
3494.684645790977811
 20
142.714983671031689
 30
0.0
 11
3494.683659343078034
 21
142.7154512872317014
 31
0.0
  0
LINE
  5
134CD
  8
0
 10
3494.683659343078034
 20
142.7154512872317014
 30
0.0
 11
3494.6827982092781895
 21
142.715489933031705
 31
0.0
  0
LINE
  5
134CE
  8
0
 10
3494.6827982092781895
 20
142.715489933031705
 30
0.0
 11
3494.6823579929778134
 21
142.7154552597316979
 31
0.0
  0
LINE
  5
134CF
  8
0
 10
3494.6273304391779675
 20
142.7117954725316906
 30
0.0
 11
3494.6265490535779463
 21
142.7121978318317019
 31
0.0
  0
LINE
  5
134D0
  8
0
 10
3494.6265490535779463
 20
142.7121978318317019
 30
0.0
 11
3494.6097768930781058
 21
142.715252228631698
 31
0.0
  0
LINE
  5
134D1
  8
0
 10
3494.6251130667778853
 20
142.6992201282317012
 30
0.0
 11
3494.6243225341781908
 21
142.6995706128317067
 31
0.0
  0
LINE
  5
134D2
  8
0
 10
3494.6238632483778019
 20
142.6921320558317063
 30
0.0
 11
3494.6233259271780298
 21
142.6923075306316946
 31
0.0
  0
LINE
  5
134D3
  8
0
 10
3494.6233259271780298
 20
142.6923075306316946
 30
0.0
 11
3494.6230642282780536
 21
142.6924344057316887
 31
0.0
  0
LINE
  5
134D4
  8
0
 10
3494.627393427178049
 20
142.7169865126317063
 30
0.0
 11
3494.6282248116781375
 21
142.716867710831707
 31
0.0
  0
LINE
  5
134D5
  8
0
 10
3494.6248720393768963
 20
142.7026870119316868
 30
0.0
 11
3494.625695115777944
 21
142.7025210924317093
 31
0.0
  0
LINE
  5
134D6
  8
0
 10
3494.6233351807782128
 20
142.6939710536317136
 30
0.0
 11
3494.6241502491780011
 21
142.6937597182316892
 31
0.0
  0
LINE
  5
134D7
  8
0
 10
3494.6227381231778963
 20
142.6905849716316936
 30
0.0
 11
3494.6232794366778762
 21
142.6904324821317118
 31
0.0
  0
LINE
  5
134D8
  8
0
 10
3494.6232794366778762
 20
142.6904324821317118
 30
0.0
 11
3494.6235452453779544
 21
142.690328571531694
 31
0.0
  0
LINE
  5
134D9
  8
0
 10
3500.9610130969322199
 20
178.1210836583317132
 30
0.0
 11
3500.9729398646782101
 21
178.1192296484317126
 31
0.0
  0
LINE
  5
134DA
  8
0
 10
3496.2480217174588688
 20
174.6877933964061924
 30
0.0
 11
3496.3023906967778203
 21
174.5757032164316911
 31
0.0
  0
LINE
  5
134DB
  8
0
 10
3496.3053827847779758
 20
174.591607739231705
 30
0.0
 11
3496.3100370110778385
 21
174.5840060161316956
 31
0.0
  0
LINE
  5
134DC
  8
0
 10
3496.2896585935877738
 20
174.6054240183603952
 30
0.0
 11
3496.3228780399781499
 21
174.5389505231316889
 31
0.0
  0
LINE
  5
134DD
  8
0
 10
3496.5581611064098979
 20
174.2151903103373058
 30
0.0
 11
3496.5361066827990726
 21
174.2555493598873966
 31
0.0
  0
LINE
  5
134DE
  8
0
 10
3497.3552746527848285
 20
173.0891995035615878
 30
0.0
 11
3497.3521933257798082
 21
173.0939859993202106
 31
0.0
  0
LINE
  5
134DF
  8
0
 10
3494.0351985787037847
 20
143.4468630447682926
 30
0.0
 11
3498.7001166031091088
 21
143.4469015429964998
 31
0.0
  0
ARC
  5
134E0
  8
0
 10
4326.0887572094898132
 20
151.944772376386112
 30
0.0
 40
827.2694979506475192
 50
180.7378001110633932
 51
180.8442772037147961
  0
ARC
  5
134E1
  8
0
 10
2524.3464272265127875
 20
154.0184952627940902
 30
0.0
 40
975.2511023469174916
 50
359.1619327129149042
 51
359.2523167259282104
  0
ARC
  5
134E2
  8
0
 10
3499.3484993106758338
 20
139.7827157762930881
 30
0.0
 40
0.4402980052469959
 50
183.6021832994605916
 51
213.1359248697953888
  0
ARC
  5
134E3
  8
0
 10
3499.0423950590179629
 20
139.7847015029896056
 30
0.0
 40
0.4518548700067412
 50
331.9674531998414864
 51
356.1006233593847128
  0
ARC
  5
134E4
  8
0
 10
3499.1692557874271188
 20
139.7179113207149896
 30
0.0
 40
0.3084884800325102
 50
308.6637053234164227
 51
331.8436239648743253
  0
ARC
  5
134E5
  8
0
 10
3499.1991482744638233
 20
139.6749353243033909
 30
0.0
 40
0.2562804294526876
 50
270.7027671502565909
 51
309.4480766143597066
  0
ARC
  5
134E6
  8
0
 10
3499.2026205364081761
 20
139.6715704305067902
 30
0.0
 40
0.2528964717305675
 50
239.0523939473623898
 51
269.9254833063899923
  0
ARC
  5
134E7
  8
0
 10
3499.2226941255457859
 20
139.7070189265544968
 30
0.0
 40
0.2936231197850174
 50
214.1861522702344018
 51
239.2501937345325871
  0
ARC
  5
134E8
  8
0
 10
3497.7260261742658258
 20
141.24888730929041
 30
0.0
 40
1.166221501894237
 50
8.0682331902171853
 51
26.1061498517322583
  0
ARC
  5
134E9
  8
0
 10
3495.9417515691798144
 20
140.2717164796125928
 30
0.0
 40
3.1997874878581221
 50
27.7597577265945894
 51
35.3790109443669607
  0
ARC
  5
134EA
  8
0
 10
3499.3832981089740315
 20
142.7923099534775133
 30
0.0
 40
1.067456398383126
 50
192.7616768574420121
 51
218.738053491034691
  0
ARC
  5
134EB
  8
0
 10
3499.2011690958252075
 20
142.728367621157787
 30
0.0
 40
0.8759814515182428
 50
156.1139488711565093
 51
191.3139772413171897
  0
ARC
  5
134EC
  8
0
 10
3499.2011718272779035
 20
142.7283668729317014
 30
0.0
 40
0.8759842520000255
 50
118.0749471957956018
 51
156.1139764648463881
  0
ARC
  5
134ED
  8
0
 10
3499.2011698738419909
 20
142.7283724011967081
 30
0.0
 40
0.8759784548933984
 50
89.9982227127561742
 51
118.0750046346285984
  0
ARC
  5
134EE
  8
0
 10
3499.2011710731671883
 20
142.7283611757329993
 30
0.0
 40
0.8759896803208032
 50
63.2930673561502672
 51
89.9983011796037573
  0
ARC
  5
134EF
  8
0
 10
3499.2011711316590663
 20
142.7283659736469019
 30
0.0
 40
0.8759853679766854
 50
41.2614354807245434
 51
63.2929297354412697
  0
ARC
  5
134F0
  8
0
 10
3499.2011718272779035
 20
142.7283668729317014
 30
0.0
 40
0.8759842519999882
 50
7.2053670115459258
 51
41.2614212532653966
  0
ARC
  5
134F1
  8
0
 10
3499.2039272250158319
 20
142.7283015276370008
 30
0.0
 40
0.8732589062163535
 50
329.4986319547654148
 51
7.2322958025103583
  0
ARC
  5
134F2
  8
0
 10
3492.8197229022161991
 20
146.8096130881586987
 30
0.0
 40
8.4500184301117685
 50
325.2668287701836789
 51
327.6257297035895135
  0
ARC
  5
134F3
  8
0
 10
3501.0061933876017974
 20
141.1195093878178
 30
0.0
 40
1.5197543627741741
 50
144.8173230028432954
 51
162.0891019090472014
  0
ARC
  5
134F4
  8
0
 10
3499.4381498710749838
 20
142.9267096187288928
 30
0.0
 40
0.9276860449183622
 50
294.596970824706375
 51
298.4920323536126716
  0
ARC
  5
134F5
  8
0
 10
3499.9297186296080326
 20
141.936694254691588
 30
0.0
 40
0.1814373390539469
 50
89.8418343906282786
 51
105.6775600153060992
  0
ARC
  5
134F6
  8
0
 10
3499.9305758257278285
 20
143.519862461197107
 30
0.0
 40
0.1812594689843163
 50
253.6285078892940987
 51
269.8872245693237915
  0
ARC
  5
134F7
  8
0
 10
3499.5983290846661475
 20
142.8523130917293997
 30
0.0
 40
0.5680919432345128
 50
60.3359730939354009
 51
66.3235118278126663
  0
ARC
  5
134F8
  8
0
 10
3500.1523471792738746
 20
144.220244125182802
 30
0.0
 40
0.9081438638716317
 50
244.8259859627669073
 51
248.9703548026890019
  0
ARC
  5
134F9
  8
0
 10
3496.4192808534830874
 20
143.4972871099394922
 30
0.0
 40
2.384615457314414
 50
178.3554236504851929
 51
181.2116425131588926
  0
ARC
  5
134FA
  8
0
 10
3495.8292226912772094
 20
143.5226976583689975
 30
0.0
 40
1.795626187466264
 50
182.4204904171496082
 51
191.5926570761502035
  0
ARC
  5
134FB
  8
0
 10
3495.010934674020973
 20
143.3222497202993964
 30
0.0
 40
0.9542839958168954
 50
189.6756788018946054
 51
210.0448604816392901
  0
LINE
  5
134FC
  8
0
 10
3494.7119558358058384
 20
142.7156111267051131
 30
0.0
 11
3494.6943311060008455
 21
142.7138303624942921
 31
0.0
  0
LINE
  5
134FD
  8
0
 10
3494.6730511657110583
 20
142.7174328233946881
 30
0.0
 11
3494.6613365357598013
 21
142.7232750316200907
 31
0.0
  0
ARC
  5
134FE
  8
0
 10
3479.2877329820839805
 20
-346.0171846332518726
 30
0.0
 40
488.9341053634682908
 50
88.0282031704126666
 51
88.128834475687043
  0
ARC
  5
134FF
  8
0
 10
3505.5993865695140812
 20
413.0795873357388928
 30
0.0
 40
270.6185716736457039
 50
267.990641489980419
 51
268.1642267891161282
  0
ARC
  5
13500
  8
0
 10
3496.8752713572039283
 20
138.8204106494262078
 30
0.0
 40
3.7798976735010319
 50
82.7418026713513655
 51
89.1677649030424249
  0
ARC
  5
13501
  8
0
 10
3496.9358621825449518
 20
139.4233876387708904
 30
0.0
 40
3.174138016411137
 50
74.4818871957967303
 51
82.4516282896693156
  0
ARC
  5
13502
  8
0
 10
3497.1608554666031523
 20
140.1464159847220117
 30
0.0
 40
2.4173844000527192
 50
54.905737528360298
 51
75.0353318013566621
  0
LINE
  5
13503
  8
0
 10
3501.1303056855781506
 20
142.1575007312316927
 30
0.0
 11
3501.3468412175780031
 21
142.1575007312316927
 31
0.0
  0
LINE
  5
13504
  8
0
 10
3501.3468412175780031
 20
142.1575007312316927
 30
0.0
 11
3501.3468412175780031
 21
143.2992330146317101
 31
0.0
  0
LINE
  5
13505
  8
0
 10
3501.3468412175780031
 20
143.2992330146317101
 30
0.0
 11
3501.1303056855781506
 21
143.2992330146317101
 31
0.0
  0
LINE
  5
13506
  8
0
 10
3501.1303056855781506
 20
143.2005486245317059
 30
0.0
 11
3501.3074711388780997
 21
143.2005486245317059
 31
0.0
  0
LINE
  5
13507
  8
0
 10
3501.1303056855781506
 20
142.8270512630317057
 30
0.0
 11
3501.3074711388780997
 21
142.8270512630317057
 31
0.0
  0
LINE
  5
13508
  8
0
 10
3501.1303056855781506
 20
142.6296824827317096
 30
0.0
 11
3501.3074711388780997
 21
142.6296824827317096
 31
0.0
  0
LINE
  5
13509
  8
0
 10
3501.1303056855781506
 20
142.256185121331697
 30
0.0
 11
3501.3074711388780997
 21
142.256185121331697
 31
0.0
  0
LINE
  5
1350A
  8
0
 10
3501.3074711388780997
 20
142.6296824827317096
 30
0.0
 11
3501.3074711388780997
 21
142.8270512630317057
 31
0.0
  0
LINE
  5
1350B
  8
0
 10
3501.3074711388780997
 20
143.2005486245317059
 30
0.0
 11
3501.3074711388780997
 21
143.2992330146317101
 31
0.0
  0
LINE
  5
1350C
  8
0
 10
3501.3074711388780997
 20
142.1575007312316927
 30
0.0
 11
3501.3074711388780997
 21
142.256185121331697
 31
0.0
  0
ARC
  5
1350D
  8
0
 10
3500.8842427920380942
 20
142.4429338020316891
 30
0.0
 40
0.4625984255402636
 50
336.190623795593126
 51
23.8093762044069308
  0
ARC
  5
1350E
  8
0
 10
3500.8842427922031675
 20
143.0137999437816916
 30
0.0
 40
0.4625984254098562
 50
336.1906237816897942
 51
23.8093762183101703
  0
LINE
  5
1350F
  8
0
 10
3501.8610123290882257
 20
143.9519222814444959
 30
0.0
 11
3501.3871553314779703
 21
143.3454129825317125
 31
0.0
  0
ARC
  5
13510
  8
0
 10
3501.4492034209029043
 20
143.2969357015691116
 30
0.0
 40
0.0787401560245016
 50
141.9999996903299859
 51
180.0000003909975135
  0
LINE
  5
13511
  8
0
 10
3501.3704632647782091
 20
143.296935701031714
 30
0.0
 11
3501.3704632647782091
 21
142.1597980448316889
 31
0.0
  0
ARC
  5
13512
  8
0
 10
3501.4492034214599698
 20
142.1597980443877134
 30
0.0
 40
0.0787401565822918
 50
179.9999996769296899
 51
218.0000423810076882
  0
LINE
  5
13513
  8
0
 10
3501.3871553671901893
 20
142.1113207175226876
 30
0.0
 11
3501.8610123290782212
 21
141.5048114644316968
 31
0.0
  0
ARC
  5
13514
  8
0
 10
3498.6027562609051529
 20
146.2057196970395125
 30
0.0
 40
0.0118206560442211
 50
90.0320728387599445
 51
179.9673650660519968
  0
ARC
  5
13515
  8
0
 10
3498.602755697970224
 20
145.6781793401835046
 30
0.0
 40
0.0118200928022177
 50
180.0299082207093022
 51
269.9706538744821955
  0
ARC
  5
13516
  8
0
 10
3498.0285905687301238
 20
145.8742894040240969
 30
0.0
 40
0.6527499091989196
 50
16.4352610620721009
 51
30.5144063548534987
  0
ARC
  5
13517
  8
0
 10
3498.2514480656659543
 20
145.9402169452781948
 30
0.0
 40
0.4203454037153721
 50
0.2361992796114658
 51
16.4106884833409801
  0
ARC
  5
13518
  8
0
 10
3498.219385368373878
 20
145.9472138986648986
 30
0.0
 40
0.4524351542783857
 50
336.7836268279942828
 51
359.3333460037276268
  0
ARC
  5
13519
  8
0
 10
3497.901335457874211
 20
146.0707749445230945
 30
0.0
 40
0.7935266338473806
 50
330.3463620107744987
 51
337.6372042146160197
  0
ARC
  5
1351A
  8
0
 10
3498.7223001000879776
 20
146.2466708922680141
 30
0.0
 40
0.0133521300101678
 50
186.9415942721838917
 51
205.6973225090893891
  0
ARC
  5
1351B
  8
0
 10
3497.9560173616628163
 20
145.7596955505919141
 30
0.0
 40
0.8946700172831127
 50
21.8147509015052705
 51
32.5364386368389589
  0
ARC
  5
1351C
  8
0
 10
3498.4291665469982036
 20
145.9426576403095908
 30
0.0
 40
0.3874589115122967
 50
348.050610755159596
 51
22.6969054709760201
  0
ARC
  5
1351D
  8
0
 10
3498.2512145342529948
 20
145.991252017851707
 30
0.0
 40
0.5717162861384218
 50
333.3485913435750945
 51
346.9785408574945222
  0
ARC
  5
1351E
  8
0
 10
3497.8388742542579166
 20
146.1974410823443975
 30
0.0
 40
1.0327349217656749
 50
329.0527987433447947
 51
333.3862027357387205
  0
ARC
  5
1351F
  8
0
 10
3497.7948338709588825
 20
146.2207999175143982
 30
0.0
 40
1.0825211742965939
 50
327.7416890441838859
 51
329.1911619019127784
  0
ARC
  5
13520
  8
0
 10
3498.7221636844142267
 20
145.63726875025651
 30
0.0
 40
0.0132118975670981
 50
154.2041757622058071
 51
173.1592050851236877
  0
ARC
  5
13521
  8
0
 10
3498.7166676039500999
 20
147.1111481083223964
 30
0.0
 40
0.0076219303383814
 50
179.6180385347269919
 51
214.9402919890113992
  0
ARC
  5
13522
  8
0
 10
3498.0233530268110371
 20
146.6603006752154101
 30
0.0
 40
0.8193941183504023
 50
21.3814917243334293
 51
33.0173571744504812
  0
ARC
  5
13523
  8
0
 10
3498.4070490547060217
 20
146.8049802990254875
 30
0.0
 40
0.4093923511313643
 50
2.4275427638061711
 51
22.1043013342591514
  0
ARC
  5
13524
  8
0
 10
3498.425423640659119
 20
146.8099472473273011
 30
0.0
 40
0.3908462728420495
 50
344.6821748612848069
 51
1.814149134195062
  0
ARC
  5
13525
  8
0
 10
3498.2501991463968807
 20
146.8549785053656933
 30
0.0
 40
0.5717491571790261
 50
330.5722103877956783
 51
344.96858681533962
  0
ARC
  5
13526
  8
0
 10
3497.8599287743068089
 20
147.0494835844336023
 30
0.0
 40
1.0074783201900801
 50
327.6822390890002907
 51
331.8428522901771203
  0
ARC
  5
13527
  8
0
 10
3498.7218098585331063
 20
146.5033920548160893
 30
0.0
 40
0.0128629275379853
 50
144.4472989341828111
 51
172.8899793000531133
  0
ARC
  5
13528
  8
0
 10
3498.7208664968288758
 20
147.0718614296145859
 30
0.0
 40
0.0118206557690063
 50
90.0320719909527867
 51
179.9673663988261865
  0
ARC
  5
13529
  8
0
 10
3498.7208664409440644
 20
146.5443215791634941
 30
0.0
 40
0.0118205998524775
 50
180.0323623883062965
 51
269.9681992219034896
  0
ARC
  5
1352A
  8
0
 10
3498.2492584592309868
 20
146.7866512867846041
 30
0.0
 40
0.5410666357234596
 50
2.2709901926151672
 51
31.8122955575929502
  0
ARC
  5
1352B
  8
0
 10
3498.2422889528788801
 20
146.8316681109367039
 30
0.0
 40
0.5481184733574239
 50
328.3819750388183252
 51
357.5347380545683222
  0
ARC
  5
1352C
  8
0
 10
3502.1267372532688569
 20
147.4773828709317058
 30
0.0
 40
0.4689231343885283
 50
172.522568292308307
 51
187.4774317076916077
  0
ARC
  5
1352D
  8
0
 10
3499.7529564902488346
 20
147.9320802681199041
 30
0.0
 40
0.1305928663590321
 50
150.2215152403558136
 51
187.1033809802179064
  0
ARC
  5
1352E
  8
0
 10
3499.7388410340258815
 20
147.9224866715510984
 30
0.0
 40
0.1156609920661388
 50
183.2491949953393089
 51
208.9721653365537009
  0
ARC
  5
1352F
  8
0
 10
3499.6678863691690822
 20
147.8817153935198974
 30
0.0
 40
0.0338619062652132
 50
206.7726300846179015
 51
237.8223122127473914
  0
ARC
  5
13530
  8
0
 10
3499.6557947002938818
 20
147.8630393034295025
 30
0.0
 40
0.0116186561718511
 50
239.2451837516022124
 51
280.6628814071422084
  0
ARC
  5
13531
  8
0
 10
3499.6546486816428114
 20
147.8641588456466991
 30
0.0
 40
0.0129635362326103
 50
284.7284152196148739
 51
321.9682701227380903
  0
ARC
  5
13532
  8
0
 10
3499.6372210248891861
 20
147.8781168319515871
 30
0.0
 40
0.0352911942511536
 50
321.5507922225871198
 51
339.5159826986802045
  0
ARC
  5
13533
  8
0
 10
3499.5831172122771022
 20
147.8987058949996936
 30
0.0
 40
0.0931797479399574
 50
339.2984346477517761
 51
346.4487190222189952
  0
ARC
  5
13534
  8
0
 10
3499.6643851484031984
 20
147.9820976528318113
 30
0.0
 40
0.0288819006021979
 50
115.5113718733331041
 51
149.0785823147928966
  0
ARC
  5
13535
  8
0
 10
3499.6557662402110509
 20
147.9984555185972965
 30
0.0
 40
0.0104326598141835
 50
47.3615144594567496
 51
111.4802958847853063
  0
ARC
  5
13536
  8
0
 10
3499.6400800368642194
 20
147.9832327001035139
 30
0.0
 40
0.0322799404581063
 50
17.8491346765568402
 51
45.1814200824361976
  0
ARC
  5
13537
  8
0
 10
3498.8927420558279664
 20
147.7466916340567877
 30
0.0
 40
0.816158201715408
 50
16.8242231936373905
 51
17.5744881630435685
  0
ARC
  5
13538
  8
0
 10
3499.7362189035379743
 20
147.9288665620285883
 30
0.0
 40
0.101584308004998
 50
139.3106517524996093
 51
218.5451955922214893
  0
ARC
  5
13539
  8
0
 10
3499.5563915166098923
 20
147.932231752074614
 30
0.0
 40
0.1204979721887046
 50
326.4096811393418989
 51
31.446166205501239
  0
ARC
  5
1353A
  8
0
 10
3499.5493580561160343
 20
147.9302043452410089
 30
0.0
 40
0.1352994131754649
 50
336.7853451174376005
 51
22.9298938826379697
  0
ARC
  5
1353B
  8
0
 10
3464.2136097041579887
 20
151.7760148134236999
 30
0.0
 40
36.3663800949588634
 50
359.6047692648579073
 51
7.4383481593954217
  0
ARC
  5
1353C
  8
0
 10
3474.3191624544310798
 20
152.6905852767715999
 30
0.0
 40
26.2305397756106089
 50
8.3151309172878154
 51
14.6812222999626893
  0
ARC
  5
1353D
  8
0
 10
3517.6748868638728709
 20
164.6997178090917942
 30
0.0
 40
18.7638066997094306
 50
182.2527125607807932
 51
196.6020359052380115
  0
ARC
  5
1353E
  8
0
 10
3511.6161583694238288
 20
164.1083937758681941
 30
0.0
 40
12.1403386681575594
 50
180.714013698041299
 51
190.8612662988153943
  0
ARC
  5
1353F
  8
0
 10
3561.1832567674591701
 20
174.4377272024026979
 30
0.0
 40
62.7710334664111471
 50
191.5954225696484912
 51
194.3368308014449894
  0
ARC
  5
13540
  8
0
 10
3470.7892510899068839
 20
152.1069142260685112
 30
0.0
 40
30.346631336632921
 50
358.9015525804290974
 51
12.9241038383581603
  0
ARC
  5
13541
  8
0
 10
3499.0913399603618927
 20
166.013561614124086
 30
0.0
 40
0.0447426899573059
 50
190.0405561319134904
 51
240.8822180241236879
  0
ARC
  5
13542
  8
0
 10
3499.1753393845551727
 20
166.1706471048015885
 30
0.0
 40
0.2228715217733081
 50
241.6676588470467948
 51
267.9964920001906989
  0
ARC
  5
13543
  8
0
 10
3499.2038002822491762
 20
166.3120755435581088
 30
0.0
 40
0.3659637499782474
 50
264.3149138722192788
 51
283.3610783604037238
  0
ARC
  5
13544
  8
0
 10
3499.2666594737429477
 20
166.0693936358117071
 30
0.0
 40
0.1154362554776449
 50
280.8402685417827911
 51
310.8953611387756268
  0
ARC
  5
13545
  8
0
 10
3499.3154613004589919
 20
166.0119594743329117
 30
0.0
 40
0.040078153236459
 50
311.9123726271105852
 51
351.0640803908169119
  0
ARC
  5
13546
  8
0
 10
3461.5624283349989128
 20
167.2323648744178115
 30
0.0
 40
37.0888573971460076
 50
359.8554460359188738
 51
4.5033836812389927
  0
ARC
  5
13547
  8
0
 10
3486.0870672263708911
 20
169.3972942078482049
 30
0.0
 40
12.4721171273102005
 50
3.4346832984133191
 51
13.5428113846696494
  0
ARC
  5
13548
  8
0
 10
3495.9344944905938064
 20
171.7374606584342018
 30
0.0
 40
2.3506973003794611
 50
14.2957847538078493
 51
24.7492117312512185
  0
ARC
  5
13549
  8
0
 10
3501.0391837836627928
 20
178.5860990947670075
 30
0.0
 40
0.4717304013838828
 50
270.0693176098287154
 51
279.6789689105452226
  0
ARC
  5
1354A
  8
0
 10
3501.0439443558070707
 20
177.9329021636139032
 30
0.0
 40
0.0966666486026568
 50
52.6643791209088405
 51
92.4841705242712351
  0
ARC
  5
1354B
  8
0
 10
3501.0763666169182216
 20
177.9767643070051975
 30
0.0
 40
0.0421364979112904
 50
343.0014146066613989
 51
51.5454818378868822
  0
ARC
  5
1354C
  8
0
 10
3501.0498357267401843
 20
177.9882106347650961
 30
0.0
 40
0.0709263915716551
 50
289.9730970382776718
 51
340.4235940873068103
  0
ARC
  5
1354D
  8
0
 10
3501.0397641855379334
 20
178.0066814926516088
 30
0.0
 40
0.0917808058512496
 50
246.0194935853496929
 51
291.9439952531346876
  0
ARC
  5
1354E
  8
0
 10
3501.0284436842111973
 20
177.987179872980505
 30
0.0
 40
0.0694036611643515
 50
203.8191198969427091
 51
248.0155650624705004
  0
ARC
  5
1354F
  8
0
 10
3501.0023357047280115
 20
177.9767461140330909
 30
0.0
 40
0.0413178209495065
 50
149.9610610106277022
 51
205.2041054611416939
  0
ARC
  5
13550
  8
0
 10
3501.0190266846161649
 20
177.9631714374330045
 30
0.0
 40
0.0626543924069766
 50
107.4820618650665978
 51
146.8539062571605029
  0
ARC
  5
13551
  8
0
 10
3501.0388194117172134
 20
177.9123803289180046
 30
0.0
 40
0.1171013728265382
 50
89.5424731216176326
 51
109.2537990153326035
  0
ARC
  5
13552
  8
0
 10
3500.5678109725281502
 20
177.6510324688240132
 30
0.0
 40
0.8098254165545729
 50
181.5620024181394001
 51
207.6971712701420927
  0
ARC
  5
13553
  8
0
 10
3500.5832936425931621
 20
177.6028414071948021
 30
0.0
 40
0.8254204277479334
 50
152.5539649234868023
 51
178.1868613961327981
  0
ARC
  5
13554
  8
0
 10
3483.4531403312280418
 20
188.2778756502254112
 30
0.0
 40
1.2310070633474011
 50
262.8342594120024955
 51
277.1657405879975045
  0
ARC
  5
13555
  8
0
 10
3483.5951956366948252
 20
187.1575312782750018
 30
0.0
 40
0.1017002123698582
 50
276.4930303024033265
 51
284.9291887824845162
  0
ARC
  5
13556
  8
0
 10
3483.6098720026429874
 20
187.1058360972153878
 30
0.0
 40
0.0479767666085199
 50
283.8985159740121844
 51
301.418675413895528
  0
ARC
  5
13557
  8
0
 10
3483.6261772881562138
 20
187.0795921517905924
 30
0.0
 40
0.0170825397248975
 50
300.6339002592620773
 51
329.1672826702783254
  0
ARC
  5
13558
  8
0
 10
3483.6333169838858339
 20
187.075067931982602
 30
0.0
 40
0.0086360465632829
 50
330.663320363283276
 51
359.4252055228117797
  0
ARC
  5
13559
  8
0
 10
3483.3078001567550928
 20
187.1396055133781999
 30
0.0
 40
0.0835271253877737
 50
248.3064375773232086
 51
264.3553277365045915
  0
ARC
  5
1355A
  8
0
 10
3483.2871806009379725
 20
187.0881816278404131
 30
0.0
 40
0.0281239248822391
 50
224.4063004559639012
 51
248.6134766266781924
  0
ARC
  5
1355B
  8
0
 10
3483.2748680192939901
 20
187.0757890406871979
 30
0.0
 40
0.0106589046539818
 50
194.6282427535994088
 51
223.1290977529504005
  0
ARC
  5
1355C
  8
0
 10
3483.2723846036678879
 20
187.0749943816209964
 30
0.0
 40
0.0080565478162437
 50
180.0930601613385136
 51
193.6203023086202109
  0
ARC
  5
1355D
  8
0
 10
3480.656482601620155
 20
167.2758490889005998
 30
0.0
 40
19.095176188164011
 50
359.5887994952818758
 51
4.4807194309579632
  0
ARC
  5
1355E
  8
0
 10
3486.27868173595607
 20
167.560080386423806
 30
0.0
 40
13.4688569910870601
 50
5.143770926767437
 51
22.6466926961506587
  0
ARC
  5
1355F
  8
0
 10
3487.6005757663238001
 20
168.010822804869008
 30
0.0
 40
12.0756861902055395
 50
23.0879721992634686
 51
29.0154493058631502
  0
ARC
  5
13560
  8
0
 10
3486.2130952588649961
 20
167.5813342355747864
 30
0.0
 40
13.5006202646111806
 50
27.753166095543591
 51
36.4884010175829374
  0
ARC
  5
13561
  8
0
 10
3490.0540976776710522
 20
170.3638259776139989
 30
0.0
 40
8.7580312862562284
 50
36.7960804519486473
 51
44.0710239990582409
  0
ARC
  5
13562
  8
0
 10
3494.4629904240127871
 20
174.6431425294273936
 30
0.0
 40
2.6138737864960961
 50
43.8958369854665733
 51
50.4414608852043216
  0
ARC
  5
13563
  8
0
 10
3498.067141199706839
 20
172.7730550287965059
 30
0.0
 40
0.0222545579343134
 50
222.5852308305709926
 51
292.091947382528474
  0
ARC
  5
13564
  8
0
 10
2799.7823135331591402
 20
-182.3595596672261081
 30
0.0
 40
783.3819602096394874
 50
26.9534805519170888
 51
27.0464451113453102
  0
ARC
  5
13565
  8
0
 10
7547.513756552563791
 20
2238.3275025961552274
 30
0.0
 40
4545.8469853997221435
 50
206.9895238146229985
 51
207.0099315600787975
  0
LINE
  5
13566
  8
0
 10
3497.7396802903222124
 20
172.644851945282511
 30
0.0
 11
3497.9998541954619213
 21
172.7771073755627924
 31
0.0
  0
ARC
  5
13567
  8
0
 10
3498.0102797495428604
 20
173.659313851394586
 30
0.0
 40
0.8858412391873214
 50
229.8842204909497866
 51
254.1286543809659975
  0
ARC
  5
13568
  8
0
 10
3497.904527998553931
 20
173.3310363550120883
 30
0.0
 40
0.5412892564573962
 50
255.3929900610498862
 51
278.5476209352058845
  0
ARC
  5
13569
  8
0
 10
3497.9820404160368525
 20
172.8118609759752928
 30
0.0
 40
0.0163678336935702
 50
280.3481869474900918
 51
4.2496111810288406
  0
ARC
  5
1356A
  8
0
 10
3497.3977939270071147
 20
173.1254061849228947
 30
0.0
 40
0.0631585137539654
 50
209.9749634871402861
 51
219.5998556314401071
  0
ARC
  5
1356B
  8
0
 10
3497.3494371509950724
 20
173.0974521002802078
 30
0.0
 40
0.0073035004903125
 50
188.1198123764166041
 51
209.5437488211726986
  0
ARC
  5
1356C
  8
0
 10
3497.3433428628409274
 20
173.0966197589739011
 30
0.0
 40
0.0011533321507284
 50
134.1159997471405063
 51
189.9473960048403001
  0
ARC
  5
1356D
  8
0
 10
3497.3433181020891425
 20
173.0964396184795078
 30
0.0
 40
0.0012734983738357
 50
92.3199506192285497
 51
127.6607987688789052
  0
ARC
  5
1356E
  8
0
 10
3497.3434331992889383
 20
173.0928478767893921
 30
0.0
 40
0.0048670501100145
 50
73.2742918646160746
 51
91.9621940038825159
  0
ARC
  5
1356F
  8
0
 10
3497.3382302026470825
 20
173.0759837685918114
 30
0.0
 40
0.0225154407277315
 50
62.7982419732329404
 51
72.9446203713357733
  0
ARC
  5
13570
  8
0
 10
3497.2907890249521188
 20
172.9869122437706892
 30
0.0
 40
0.1234312654377675
 50
55.2514592574565597
 51
62.112403264090041
  0
ARC
  5
13571
  8
0
 10
3496.7728093292148515
 20
172.256289847580689
 30
0.0
 40
1.019032668116483
 50
46.658390490637089
 51
54.7360407595266025
  0
ARC
  5
13572
  8
0
 10
3497.4149079418011752
 20
172.9409028963262926
 30
0.0
 40
0.0804810509255617
 50
31.4590651967220509
 51
44.5934201758483226
  0
ARC
  5
13573
  8
0
 10
3497.4802628989377808
 20
173.0163286502746018
 30
0.0
 40
0.0335857222930642
 50
229.3663393946183078
 51
275.6326604502331179
  0
ARC
  5
13574
  8
0
 10
3497.3195383454599323
 20
173.0501124133529061
 30
0.0
 40
0.0129686394575208
 50
125.4439658854210933
 51
184.0131723434458024
  0
ARC
  5
13575
  8
0
 10
3497.3261038557579923
 20
173.0514165239584088
 30
0.0
 40
0.0196273643146354
 50
186.4701814597999885
 51
217.8809185231347954
  0
ARC
  5
13576
  8
0
 10
3497.5730101999638464
 20
173.2599169656450044
 30
0.0
 40
0.3427767950649621
 50
220.0478914129242014
 51
237.6849163649787045
  0
ARC
  5
13577
  8
0
 10
3497.4020459665630369
 20
172.986307102805597
 30
0.0
 40
0.0202285583739514
 50
232.6381970890406876
 51
288.2574651324798083
  0
ARC
  5
13578
  8
0
 10
3497.2579747657218832
 20
172.903709606652086
 30
0.0
 40
0.141097237434429
 50
37.7368085115080234
 51
60.3255546836497274
  0
ARC
  5
13579
  8
0
 10
3497.4314554034158391
 20
173.103495736612814
 30
0.0
 40
0.12921872765896
 50
216.6829097793965104
 51
241.3794510757703904
  0
ARC
  5
1357A
  8
0
 10
3497.1738241448902045
 20
173.0392528439437001
 30
0.0
 40
0.1371321046777989
 50
8.047642238882819
 51
45.8602659227024319
  0
ARC
  5
1357B
  8
0
 10
3497.1408608131710025
 20
173.2060273728409925
 30
0.0
 40
0.0118155037878955
 50
123.8096550227878936
 51
220.0876956887989024
  0
ARC
  5
1357C
  8
0
 10
3497.2117941162928219
 20
173.1251913359290882
 30
0.0
 40
0.0118033509511429
 50
222.4650100294473987
 51
293.8104685872640971
  0
LINE
  5
1357D
  8
0
 10
3497.1318212472779123
 20
173.1984186687317049
 30
0.0
 11
3497.2030869049781359
 21
173.1172224235317003
 31
0.0
  0
ARC
  5
1357E
  8
0
 10
3496.421267570524833
 20
176.2484051874868101
 30
0.0
 40
0.5390851048620053
 50
135.8517879951050986
 51
159.4378821251827105
  0
ARC
  5
1357F
  8
0
 10
3496.687103694499001
 20
176.1555177716215894
 30
0.0
 40
0.8206344373864372
 50
159.8845833404423047
 51
181.4189926649773099
  0
ARC
  5
13580
  8
0
 10
3497.5899536844690374
 20
176.1535976157476
 30
0.0
 40
1.7233310173609371
 50
180.6118142186932118
 51
192.9197248116595063
  0
ARC
  5
13581
  8
0
 10
3495.8242739384309061
 20
175.9817030157645092
 30
0.0
 40
0.0118075653260749
 50
185.9111604036808956
 51
290.5082057477945909
  0
ARC
  5
13582
  8
0
 10
3495.8166847985530694
 20
176.0939502836988027
 30
0.0
 40
0.0118119426249747
 50
118.5027403529466028
 51
181.6577718390117866
  0
ARC
  5
13583
  8
0
 10
3495.7072996862111722
 20
175.7944851623439035
 30
0.0
 40
0.307011515310568
 50
349.5703451738261833
 51
20.3645791452610396
  0
ARC
  5
13584
  8
0
 10
3496.0085548221049976
 20
175.8870239988877984
 30
0.0
 40
0.0196187309064541
 50
133.2109115725795903
 51
173.655618659727196
  0
ARC
  5
13585
  8
0
 10
3496.0108537943779083
 20
175.7485076341772867
 30
0.0
 40
0.0097351167424722
 50
204.698766024127508
 51
260.4504202402222859
  0
ARC
  5
13586
  8
0
 10
3495.9450650813860193
 20
175.8385938896070115
 30
0.0
 40
0.0231304693027996
 50
123.986358468045907
 51
169.3425118234671061
  0
ARC
  5
13587
  8
0
 10
3496.1062991061971843
 20
175.8138806065034885
 30
0.0
 40
0.1862358231247094
 50
171.0444549054145114
 51
191.6556968373054133
  0
ARC
  5
13588
  8
0
 10
3496.0288307919649924
 20
175.7884973913523083
 30
0.0
 40
0.10563893360533
 50
186.6547017273520055
 51
213.0626870175906049
  0
ARC
  5
13589
  8
0
 10
3495.9511267910370407
 20
175.7405997507700022
 30
0.0
 40
0.0145612627081414
 50
221.952142309088714
 51
290.2459521610488196
  0
ARC
  5
1358A
  8
0
 10
3495.9965231226560718
 20
175.7949069800856989
 30
0.0
 40
0.0696805559691005
 50
164.498949737665896
 51
210.5643251982941138
  0
ARC
  5
1358B
  8
0
 10
3495.8697701497098933
 20
175.7781484261392961
 30
0.0
 40
0.0693167941239289
 50
344.3710563125907242
 51
30.6922186233549397
  0
ARC
  5
1358C
  8
0
 10
3495.9711424278439154
 20
175.7851465306924013
 30
0.0
 40
0.0519278195669904
 50
165.967416602355712
 51
192.1699584266436034
  0
ARC
  5
1358D
  8
0
 10
3495.1413945930298723
 20
175.5296302040302123
 30
0.0
 40
0.8238576990666024
 50
6.622711444611264
 51
14.1380862209447908
  0
ARC
  5
1358E
  8
0
 10
3495.9893724846751866
 20
175.6492326501675905
 30
0.0
 40
0.0384927062594868
 50
197.459632970597994
 51
219.6966938519441044
  0
ARC
  5
1358F
  8
0
 10
3495.9051426722421638
 20
175.634212358814608
 30
0.0
 40
0.0132248985997245
 50
200.4296134404966097
 51
287.1836872683945217
  0
ARC
  5
13590
  8
0
 10
3496.3529767861077744
 20
175.794954720471992
 30
0.0
 40
0.4890322394261241
 50
187.5008372867634137
 51
199.7632491931090044
  0
ARC
  5
13591
  8
0
 10
3495.8830408866429025
 20
175.7346980986986011
 30
0.0
 40
0.0153358545773987
 50
124.6834748553470007
 51
193.507282836824686
  0
ARC
  5
13592
  8
0
 10
3495.6872890745139557
 20
175.6328901195468006
 30
0.0
 40
0.2012850973923414
 50
5.8756367274877901
 51
20.8747702772237211
  0
ARC
  5
13593
  8
0
 10
3496.0638776232299278
 20
175.7224339543608096
 30
0.0
 40
0.189355937382974
 50
185.4001925238289914
 51
201.3502144808832099
  0
ARC
  5
13594
  8
0
 10
3495.9369877207841455
 20
175.5640513672867087
 30
0.0
 40
0.0118100672471531
 50
121.0060375858505068
 51
197.551407074064997
  0
ARC
  5
13595
  8
0
 10
3501.4368972080278581
 20
177.2258126973366075
 30
0.0
 40
5.7196746990029679
 50
196.1572786913881998
 51
198.5115230606361081
  0
ARC
  5
13596
  8
0
 10
3496.0235298121810956
 20
175.3984517255786102
 30
0.0
 40
0.015405655278679
 50
123.7645818287186046
 51
186.0881341444099917
  0
ARC
  5
13597
  8
0
 10
3496.2135432779568873
 20
175.415711826355988
 30
0.0
 40
0.2061996814117453
 50
185.2573641845594921
 51
196.1416990147170054
  0
ARC
  5
13598
  8
0
 10
3496.9713429301491487
 20
175.6239215402736988
 30
0.0
 40
0.9920672920401319
 50
195.5250312060954059
 51
203.7834357157692011
  0
ARC
  5
13599
  8
0
 10
3496.2706765175830697
 20
175.3186146340910909
 30
0.0
 40
0.2278019478693509
 50
204.584834617970813
 51
211.7820652677478961
  0
ARC
  5
1359A
  8
0
 10
3496.0890156915947955
 20
175.2076787328622913
 30
0.0
 40
0.0150142581188262
 50
217.0441663561871053
 51
288.4820733168925813
  0
ARC
  5
1359B
  8
0
 10
3495.4405344009578585
 20
175.1297643253072067
 30
0.0
 40
0.6708718074777521
 50
19.6429409084639204
 51
26.3345414162027502
  0
ARC
  5
1359C
  8
0
 10
3495.9989995291989544
 20
175.406397637377296
 30
0.0
 40
0.0476472733457659
 50
26.1151054914486593
 51
47.1501013162833118
  0
ARC
  5
1359D
  8
0
 10
3496.1919588425021175
 20
175.4669377896620119
 30
0.0
 40
0.1625847406886826
 50
189.062186464049887
 51
195.506536565901996
  0
ARC
  5
1359E
  8
0
 10
3495.9671553894131648
 20
175.184978238697596
 30
0.0
 40
0.1522691964309873
 50
0.9590970280387093
 51
17.7953963181098693
  0
ARC
  5
1359F
  8
0
 10
3496.144104830364995
 20
175.2169089651808065
 30
0.0
 40
0.0383857648879762
 50
205.8954534598316002
 51
229.9460375256662985
  0
ARC
  5
135A0
  8
0
 10
3496.1073457439320009
 20
175.2467389904801962
 30
0.0
 40
0.0159611831450711
 50
217.7846366927961128
 51
287.4764481975556123
  0
ARC
  5
135A1
  8
0
 10
3496.201659039120841
 20
175.3166627989573954
 30
0.0
 40
0.1333646526162123
 50
194.4739723960711899
 51
216.7005776319315089
  0
ARC
  5
135A2
  8
0
 10
3496.2412269186597769
 20
175.3452716011377106
 30
0.0
 40
0.1797119961472913
 50
183.4322711323829083
 51
200.1618746963760884
  0
ARC
  5
135A3
  8
0
 10
3496.0814543971409876
 20
175.3376572760355998
 30
0.0
 40
0.0198675871290837
 50
125.7811741590779064
 51
189.1074861875218005
  0
ARC
  5
135A4
  8
0
 10
3495.8599345056559287
 20
175.2334422200696054
 30
0.0
 40
0.3078274103052462
 50
2.0781056783108891
 51
31.3941394708289998
  0
ARC
  5
135A5
  8
0
 10
3496.1721805460829273
 20
175.2580709592926951
 30
0.0
 40
0.0142371711009539
 50
214.9770090121629096
 51
251.0599536892819117
  0
ARC
  5
135A6
  8
0
 10
3496.1635801541851833
 20
175.3748439979752902
 30
0.0
 40
0.0450622435380649
 50
155.1286303002218006
 51
169.1878801605226954
  0
ARC
  5
135A7
  8
0
 10
3494.6371811093099495
 20
174.5867062297826067
 30
0.0
 40
1.582620470113989
 50
18.5929786617177015
 51
22.6149278767335993
  0
ARC
  5
135A8
  8
0
 10
3494.9277843607001159
 20
174.4932251054983112
 30
0.0
 40
1.349221259701531
 50
26.3136321923881802
 51
26.9871418261186093
  0
ARC
  5
135A9
  8
0
 10
3496.0408440295750552
 20
175.1964113380385868
 30
0.0
 40
0.0122544156401999
 50
120.8069964748849969
 51
200.4136540999965916
  0
ARC
  5
135AA
  8
0
 10
3496.079593845071031
 20
175.1000597902202003
 30
0.0
 40
0.012408260555652
 50
207.8677218750121085
 51
288.5056632058816035
  0
ARC
  5
135AB
  8
0
 10
3497.0601120519199867
 20
175.5488289539603954
 30
0.0
 40
1.090724778862185
 50
199.0881724285495977
 51
204.6301271649317073
  0
ARC
  5
135AC
  8
0
 10
3495.5899476589770529
 20
174.9591149683396054
 30
0.0
 40
0.4952568019069358
 50
18.8329378099532505
 51
24.7673514639136805
  0
ARC
  5
135AD
  8
0
 10
3496.472879806975925
 20
175.3122652176894007
 30
0.0
 40
0.4570653483182291
 50
198.5847535004515976
 51
205.0155357734221866
  0
ARC
  5
135AE
  8
0
 10
3499.0082291569829067
 20
178.6644580178412127
 30
0.0
 40
0.033172611234815
 50
147.8563896323805125
 51
178.5768041574364986
  0
ARC
  5
135AF
  8
0
 10
3499.4045283824762009
 20
178.6655576747158136
 30
0.0
 40
0.0229124169885005
 50
7.8652804216873449
 51
46.2445806759329585
  0
ARC
  5
135B0
  8
0
 10
3499.3889058957420275
 20
178.2672407440481095
 30
0.0
 40
0.0383479543334069
 50
331.6592374743750042
 51
357.7871178080521872
  0
ARC
  5
135B1
  8
0
 10
3499.0452619456259526
 20
178.2735875836615946
 30
0.0
 40
0.0703106705301537
 50
183.9685551164288029
 51
200.4372462863069018
  0
ARC
  5
135B2
  8
0
 10
3500.4626967520698599
 20
141.296352135148112
 30
0.0
 40
0.948212661789457
 50
162.1571749148014874
 51
180.2458680557155901
  0
LINE
  5
135B3
  8
0
 10
3494.6230642283408088
 20
142.6924344057011922
 30
0.0
 11
3494.6066187078617986
 21
142.6973412703447082
 31
0.0
  0
LINE
  5
135B4
  8
0
 10
3501.3468412175780031
 20
142.1811311368834936
 30
0.0
 11
3501.3704632647782091
 21
142.1811311368834936
 31
0.0
  0
LINE
  5
135B5
  8
0
 10
3501.3468412175780031
 20
143.2756026089799093
 30
0.0
 11
3501.3704632647782091
 21
143.2756026089799093
 31
0.0
  0
LINE
  5
135B6
  8
0
 10
3494.9038513810028235
 20
142.6816820231562986
 30
0.0
 11
3494.8864421280791248
 21
142.6811232898124047
 31
0.0
  0
LINE
  5
135B7
  8
0
 10
3494.9424839617608995
 20
142.6783172306541019
 30
0.0
 11
3494.9437593602888228
 21
142.678666952627708
 31
0.0
  0
LINE
  5
135B8
  8
0
 10
3494.9422853911210041
 20
142.6771910808732002
 30
0.0
 11
3494.9424839617608995
 21
142.6783172306541019
 31
0.0
  0
LINE
  5
135B9
  8
0
 10
3494.9310503766209877
 20
142.6756176471488118
 30
0.0
 11
3494.931750415598799
 21
142.6795877654529079
 31
0.0
  0
LINE
  5
135BA
  8
0
 10
3494.9208585705878249
 20
142.6799605427422932
 30
0.0
 11
3494.9203345219648327
 21
142.6769885154463111
 31
0.0
  0
LINE
  5
135BB
  8
0
 10
3494.9196996214182036
 20
142.6733878154371098
 30
0.0
 11
3494.9195267357881676
 21
142.6724073321246919
 31
0.0
  0
LINE
  5
135BC
  8
0
 10
3494.9132335408799008
 20
142.6727473965904096
 30
0.0
 11
3494.9135790918039675
 21
142.6747071130473046
 31
0.0
  0
LINE
  5
135BD
  8
0
 10
3494.9145335134671768
 20
142.6801199070750954
 30
0.0
 11
3494.9151663108132198
 21
142.6837086789315947
 31
0.0
  0
LINE
  5
135BE
  8
0
 10
3494.9022374595419933
 20
142.672529020384701
 30
0.0
 11
3494.9032740286888838
 21
142.6784076958765013
 31
0.0
  0
LINE
  5
135BF
  8
0
 10
3494.9016111401679154
 20
142.6689769869977908
 30
0.0
 11
3494.9019531817029929
 21
142.6709168007915878
 31
0.0
  0
LINE
  5
135C0
  8
0
 10
3494.9038513810028235
 20
142.6816820231562986
 30
0.0
 11
3494.9045391464301247
 21
142.6855825348229132
 31
0.0
  0
LINE
  5
135C1
  8
0
 10
3494.8910053325498666
 20
142.6709719623532919
 30
0.0
 11
3494.890664420477151
 21
142.6690385541662067
 31
0.0
  0
LINE
  5
135C2
  8
0
 10
3494.8926387896231063
 20
142.6802357573405118
 30
0.0
 11
3494.8919465559019955
 21
142.6763099052618031
 31
0.0
  0
LINE
  5
135C3
  8
0
 10
3494.8838774350429048
 20
142.6665781935363952
 30
0.0
 11
3494.8840466495780674
 21
142.6675378567302062
 31
0.0
  0
LINE
  5
135C4
  8
0
 10
3494.8846679572739049
 20
142.6710614674132955
 30
0.0
 11
3494.8851806528150519
 21
142.6739691084237052
 31
0.0
  0
LINE
  5
135C5
  8
0
 10
3494.8864421280791248
 20
142.6811232898124047
 30
0.0
 11
3494.8873142438451396
 21
142.6860693038007923
 31
0.0
  0
LINE
  5
135C6
  8
0
 10
3494.8739248795500316
 20
142.6722779462228061
 30
0.0
 11
3494.8752965157918879
 21
142.6800568816153998
 31
0.0
  0
LINE
  5
135C7
  8
0
 10
3494.8728270139868073
 20
142.6660516415338975
 30
0.0
 11
3494.8735026957961054
 21
142.6698836227971867
 31
0.0
  0
LINE
  5
135C8
  8
0
 10
3494.8760144870439035
 20
142.6841286983886903
 30
0.0
 11
3494.8771232314679764
 21
142.6904167005428974
 31
0.0
  0
LINE
  5
135C9
  8
0
 10
3494.8628056329848732
 20
142.6713610651044064
 30
0.0
 11
3494.8622987964390632
 21
142.6684866524124971
 31
0.0
  0
LINE
  5
135CA
  8
0
 10
3494.864914169334952
 20
142.6833191682777056
 30
0.0
 11
3494.8640524281081525
 21
142.6784319914002026
 31
0.0
  0
LINE
  5
135CB
  8
0
 10
3494.8616845079141058
 20
142.6650028492169042
 30
0.0
 11
3494.8615171899091365
 21
142.6640539414001125
 31
0.0
  0
LINE
  5
135CC
  8
0
 10
3494.8553344104998359
 20
142.6650202032660104
 30
0.0
 11
3494.8556692588131227
 21
142.6669192220460047
 31
0.0
  0
LINE
  5
135CD
  8
0
 10
3494.856593491860167
 20
142.6721608083153967
 30
0.0
 11
3494.8572730751029667
 21
142.6760149160477056
 31
0.0
  0
LINE
  5
135CE
  8
0
 10
3494.858844373357897
 20
142.6849261907040898
 30
0.0
 11
3494.8598898852301318
 21
142.690855583343108
 31
0.0
  0
LINE
  5
135CF
  8
0
 10
3494.8439242274162098
 20
142.6624533392507033
 30
0.0
 11
3494.8442564356300863
 21
142.6643373858659061
 31
0.0
  0
LINE
  5
135D0
  8
0
 10
3494.8460988279462072
 20
142.6747861113454974
 30
0.0
 11
3494.8478090997950858
 21
142.6844855446369138
 31
0.0
  0
LINE
  5
135D1
  8
0
 10
3494.8445324899557818
 20
142.6659029673436976
 30
0.0
 11
3494.8455386751538754
 21
142.6716093270441945
 31
0.0
  0
LINE
  5
135D2
  8
0
 10
3494.8486706679309464
 20
142.6893717401306105
 30
0.0
 11
3494.8497073165867732
 21
142.6952508662488981
 31
0.0
  0
LINE
  5
135D3
  8
0
 10
3494.835088638014895
 20
142.674487721020995
 30
0.0
 11
3494.8344155002869229
 21
142.6706701674258966
 31
0.0
  0
LINE
  5
135D4
  8
0
 10
3494.8376798960939595
 20
142.6891834753068906
 30
0.0
 11
3494.8366447815319589
 21
142.6833130492179009
 31
0.0
  0
LINE
  5
135D5
  8
0
 10
3494.8334998208938487
 20
142.6654770916246093
 30
0.0
 11
3494.8331680435780981
 21
142.6635954893449991
 31
0.0
  0
LINE
  5
135D6
  8
0
 10
3494.8265023487069811
 20
142.6618230011866046
 30
0.0
 11
3494.8266672646332154
 21
142.6627582857821039
 31
0.0
  0
LINE
  5
135D7
  8
0
 10
3494.8272726651161975
 20
142.6661916828026904
 30
0.0
 11
3494.8277720859350666
 21
142.6690240388992947
 31
0.0
  0
LINE
  5
135D8
  8
0
 10
3494.8290003140118642
 20
142.6759896660857976
 30
0.0
 11
3494.8298488684590666
 21
142.6808020570146027
 31
0.0
  0
LINE
  5
135D9
  8
0
 10
3494.8317374847738392
 20
142.6915129320572078
 30
0.0
 11
3494.8329185659131326
 21
142.6982111760945884
 31
0.0
  0
LINE
  5
135DA
  8
0
 10
3494.8156426994360118
 20
142.6623783694691099
 30
0.0
 11
3494.8163024614182177
 21
142.666120065572386
 31
0.0
  0
LINE
  5
135DB
  8
0
 10
3494.8187531586509067
 20
142.6800186595488071
 30
0.0
 11
3494.8208106781489732
 21
142.691687431931598
 31
0.0
  0
LINE
  5
135DC
  8
0
 10
3494.8167145896200054
 20
142.6684573609896063
 30
0.0
 11
3494.8180529660430693
 21
142.6760476700501954
 31
0.0
  0
LINE
  5
135DD
  8
0
 10
3494.8218210542549969
 20
142.6974175594305905
 30
0.0
 11
3494.8222914016259892
 21
142.700085031968797
 31
0.0
  0
LINE
  5
135DE
  8
0
 10
3494.8109387946860807
 20
142.6978446986302913
 30
0.0
 11
3494.8097237420761303
 21
142.6909537930320084
 31
0.0
  0
LINE
  5
135DF
  8
0
 10
3494.8078498838208361
 20
142.6803266154595065
 30
0.0
 11
3494.8070076673197946
 21
142.6755501681421094
 31
0.0
  0
LINE
  5
135E0
  8
0
 10
3494.8057885306029675
 20
142.6686361004448997
 30
0.0
 11
3494.8052927429239389
 21
142.6658243493766065
 31
0.0
  0
LINE
  5
135E1
  8
0
 10
3494.8047459777058066
 20
142.6627234898425911
 30
0.0
 11
3494.8045306634539884
 21
142.6615023819051089
 31
0.0
  0
LINE
  5
135E2
  8
0
 10
3494.7984496655008115
 20
142.6630458752447908
 30
0.0
 11
3494.7987776474337807
 21
142.664905952905201
 31
0.0
  0
LINE
  5
135E3
  8
0
 10
3494.7996828443760933
 20
142.6700395795141105
 30
0.0
 11
3494.8003481290270429
 21
142.6738125963227048
 31
0.0
  0
LINE
  5
135E4
  8
0
 10
3494.8018857053848478
 20
142.6825326248122963
 30
0.0
 11
3494.8029081396311994
 21
142.6883311373042034
 31
0.0
  0
LINE
  5
135E5
  8
0
 10
3494.8051262216058603
 20
142.7009105047910111
 30
0.0
 11
3494.8055026510478456
 21
142.7030453417974911
 31
0.0
  0
LINE
  5
135E6
  8
0
 10
3494.7872336126260961
 20
142.6615799780103941
 30
0.0
 11
3494.7875597177448981
 21
142.6634294121728033
 31
0.0
  0
LINE
  5
135E7
  8
0
 10
3494.7878306702809823
 20
142.6649660600006939
 30
0.0
 11
3494.788818023649128
 21
142.6705656192206106
 31
0.0
  0
LINE
  5
135E8
  8
0
 10
3494.7893675289669773
 20
142.6736820182856036
 30
0.0
 11
3494.7909992972781765
 21
142.6829362363012876
 31
0.0
  0
LINE
  5
135E9
  8
0
 10
3494.7918889168417991
 20
142.6879815189722933
 30
0.0
 11
3494.7943077360478128
 21
142.7016993237537008
 31
0.0
  0
LINE
  5
135EA
  8
0
 10
3494.7934256848379846
 20
142.7015307804348936
 30
0.0
 11
3494.7910670383548677
 21
142.6881542320494987
 31
0.0
  0
LINE
  5
135EB
  8
0
 10
3494.7901726658860753
 20
142.6830819937441106
 30
0.0
 11
3494.7885373423368947
 21
142.673807613670192
 31
0.0
  0
LINE
  5
135EC
  8
0
 10
3494.7867054747521252
 20
142.6634185771029024
 30
0.0
 11
3494.7863855126038288
 21
142.6616039813378052
 31
0.0
  0
LINE
  5
135ED
  8
0
 10
3494.7879552932140541
 20
142.6705066494918981
 30
0.0
 11
3494.7869924755568718
 21
142.6650462395020043
 31
0.0
  0
LINE
  5
135EE
  8
0
 10
3494.7630312882279213
 20
142.7105341893490049
 30
0.0
 11
3494.7547347465488201
 21
142.6634821652943117
 31
0.0
  0
LINE
  5
135EF
  8
0
 10
3494.7491373242942245
 20
142.7040167805193107
 30
0.0
 11
3494.7505132554060765
 21
142.7118200734171864
 31
0.0
  0
LINE
  5
135F0
  8
0
 10
3494.7396458935199917
 20
142.7123317016200872
 30
0.0
 11
3494.7400436568400437
 21
142.7145875291116965
 31
0.0
  0
LINE
  5
135F1
  8
0
 10
3494.7290664368520083
 20
142.7144761207844113
 30
0.0
 11
3494.7277756547950958
 21
142.7071557322944955
 31
0.0
  0
ARC
  5
135F2
  8
0
 10
3494.7948644097118631
 20
143.1157518105931956
 30
0.0
 40
0.4541085278893985
 50
274.015917082622309
 51
276.2442438762470829
  0
ARC
  5
135F3
  8
0
 10
3494.7930880573608192
 20
143.1139258376240946
 30
0.0
 40
0.4521104155804704
 50
272.8595280871874138
 51
275.0859979620577747
  0
ARC
  5
135F4
  8
0
 10
3494.8190756417388911
 20
143.1081656797601056
 30
0.0
 40
0.4464044608788918
 50
270.9532579396234837
 51
273.1909522899069884
  0
ARC
  5
135F5
  8
0
 10
3494.7982703809011582
 20
143.1076467758051081
 30
0.0
 40
0.4462033150355972
 50
268.5826534250040822
 51
269.0688673239005766
  0
ARC
  5
135F6
  8
0
 10
3494.8088261840689484
 20
143.1939642576352867
 30
0.0
 40
0.5325034077068248
 50
270.7156003725685878
 51
272.3706567623333967
  0
ARC
  5
135F7
  8
0
 10
3494.8241628598998432
 20
143.1035886506373913
 30
0.0
 40
0.4412925393849149
 50
266.6596026072128893
 51
268.8937053615526906
  0
ARC
  5
135F8
  8
0
 10
3494.8461471628370418
 20
143.0991926899758937
 30
0.0
 40
0.4324439801688897
 50
262.3818664099530906
 51
264.644972780727187
  0
ARC
  5
135F9
  8
0
 10
3494.8551080083980196
 20
143.1069888327284048
 30
0.0
 40
0.4374920903417385
 50
272.4097549467891781
 51
274.7065538609626856
  0
ARC
  5
135FA
  8
0
 10
3494.8432121172518237
 20
143.1030220720136015
 30
0.0
 40
0.437121098864539
 50
267.9102682340117099
 51
270.1730685086193944
  0
ARC
  5
135FB
  8
0
 10
3494.8412046139501399
 20
143.1018608414304083
 30
0.0
 40
0.4364517624326377
 50
266.7291608710776245
 51
268.9884906095895758
  0
ARC
  5
135FC
  8
0
 10
3494.8481841409711706
 20
143.0996704012077032
 30
0.0
 40
0.4323598255164464
 50
263.5591121795897038
 51
265.8260036868325074
  0
ARC
  5
135FD
  8
0
 10
3494.8623434227720281
 20
143.1036273130335132
 30
0.0
 40
0.4315048161946606
 50
269.2364939814800096
 51
271.5379858242774844
  0
ARC
  5
135FE
  8
0
 10
3494.8603612580950539
 20
143.1019458542629081
 30
0.0
 40
0.4305917273042961
 50
268.0272745443759277
 51
270.3252573325884214
  0
ARC
  5
135FF
  8
0
 10
3494.8653716517151224
 20
143.0989985336759958
 30
0.0
 40
0.4255895804723096
 50
263.6164365003511989
 51
265.91964545800829
  0
ARC
  5
13600
  8
0
 10
3494.8674070976680923
 20
143.0995641302143042
 30
0.0
 40
0.4253121297266422
 50
264.8189853301630023
 51
267.1282614499651231
  0
ARC
  5
13601
  8
0
 10
3494.8723969418288107
 20
143.0977847700241057
 30
0.0
 40
0.421196128386579
 50
260.3629016084702243
 51
262.6829031881832179
  0
ARC
  5
13602
  8
0
 10
3494.8508721320540644
 20
143.1165838978018883
 30
0.0
 40
0.4481961458093963
 50
277.9980069908514793
 51
280.305168786027707
  0
ARC
  5
13603
  8
0
 10
3494.8492250575682192
 20
143.1145635020324107
 30
0.0
 40
0.4467691244888595
 50
276.777900693000106
 51
279.0758981346340875
  0
ARC
  5
13604
  8
0
 10
3494.8569359414541395
 20
143.1089729413199905
 30
0.0
 40
0.4387887004932244
 50
273.6235827656606716
 51
275.9259025716352198
  0
ARC
  5
13605
  8
0
 10
3494.8683200894251968
 20
143.1141794422997009
 30
0.0
 40
0.4391962339
 50
278.3039058632425053
 51
278.7872870780549874
  0
ARC
  5
13606
  8
0
 10
3494.8741741406761321
 20
143.108277469307609
 30
0.0
 40
0.430853601112985
 50
273.8727098553916903
 51
276.2204019616532946
  0
ARC
  5
13607
  8
0
 10
3494.875989508596831
 20
143.1100538306054943
 30
0.0
 40
0.4316582200233062
 50
275.122928208558676
 51
276.8778033781194949
  0
ARC
  5
13608
  8
0
 10
3494.8796088234780655
 20
143.1027414583132042
 30
0.0
 40
0.4227065736088687
 50
269.4154779444469909
 51
271.7664270992140132
  0
ARC
  5
13609
  8
0
 10
3494.8882564434238702
 20
143.1047335765796049
 30
0.0
 40
0.4214763812
 50
246.5728536525552101
 51
247.808950287952598
  0
ARC
  5
1360A
  8
0
 10
3494.8898394495658977
 20
143.1037330659011957
 30
0.0
 40
0.4192292120000001
 50
247.4706731831900015
 51
249.0065519709538933
  0
ARC
  5
1360B
  8
0
 10
3494.8867526937979164
 20
143.1005598300326938
 30
0.0
 40
0.4165695578067583
 50
266.1585585181032911
 51
268.5228827280332098
  0
ARC
  5
1360C
  8
0
 10
3494.8846853504101091
 20
143.0992735099069932
 30
0.0
 40
0.4164239593507002
 50
264.9195411635423056
 51
267.2786598017381721
  0
ARC
  5
1360D
  8
0
 10
3494.8897144549700897
 20
143.0978177430145024
 30
0.0
 40
0.411933926816216
 50
260.3709291410792162
 51
262.7431405644499023
  0
ARC
  5
1360E
  8
0
 10
3494.8917607145799593
 20
143.0981675767498018
 30
0.0
 40
0.4110605650830813
 50
261.6036270124271255
 51
263.9828285416160725
  0
ARC
  5
1360F
  8
0
 10
3494.8949686880491754
 20
143.0982030084838073
 30
0.0
 40
0.4090816535391799
 50
255.7551796271098112
 51
258.146437223476596
  0
ARC
  5
13610
  8
0
 10
3494.8969311481191653
 20
143.0980563657984135
 30
0.0
 40
0.4076186691594108
 50
256.9840332531481977
 51
259.3816823839865151
  0
ARC
  5
13611
  8
0
 10
3494.8072393947190903
 20
143.1237105960811107
 30
0.0
 40
0.4625936905385175
 50
279.5574292312466014
 51
281.8145772968342158
  0
ARC
  5
13612
  8
0
 10
3494.7888555474110035
 20
143.123985527429312
 30
0.0
 40
0.4619238893455094
 50
278.3165633230216827
 51
280.5590696292944131
  0
ARC
  5
13613
  8
0
 10
3494.8056509740599722
 20
143.1219718120908055
 30
0.0
 40
0.4608425134775983
 50
278.3817484100625279
 51
280.6304650496265936
  0
ARC
  5
13614
  8
0
 10
3494.787215072573872
 20
143.1224126896715063
 30
0.0
 40
0.4600939174942135
 50
277.1563660581489899
 51
279.3922299035763217
  0
ARC
  5
13615
  8
0
 10
3494.8244760239390416
 20
143.1202384129398126
 30
0.0
 40
0.4578064009153664
 50
279.6999491841136773
 51
280.4527606211460125
  0
ARC
  5
13616
  8
0
 10
3494.8472905990738582
 20
142.8479556596668942
 30
0.0
 40
0.1844511801677479
 50
274.4235768390238945
 51
277.914190381028618
  0
ARC
  5
13617
  8
0
 10
3494.8116961810151224
 20
143.1141053444129909
 30
0.0
 40
0.4528006164679378
 50
274.8171201891594251
 51
276.3169630850658223
  0
ARC
  5
13618
  8
0
 10
3494.8321070871070333
 20
143.1159989788467044
 30
0.0
 40
0.4523930532276643
 50
277.3259783701373067
 51
278.8377221517458793
  0
ARC
  5
13619
  8
0
 10
3494.8118598769401615
 20
143.1122417579692865
 30
0.0
 40
0.4509298661486485
 50
274.0775823554030239
 51
274.8162787963403275
  0
ARC
  5
1361A
  8
0
 10
3494.8323945295242083
 20
143.1138221769583083
 30
0.0
 40
0.4501973682
 50
276.5664988492462157
 51
277.3250209935404769
  0
ARC
  5
1361B
  8
0
 10
3494.8596209159459249
 20
142.8244900914401114
 30
0.0
 40
0.159764033003817
 50
274.6913329128894929
 51
278.7328279117089096
  0
ARC
  5
1361C
  8
0
 10
3494.8379724123387859
 20
143.1083177503327022
 30
0.0
 40
0.4436374130023731
 50
272.2428751376380092
 51
274.5061162345193111
  0
ARC
  5
1361D
  8
0
 10
3494.8360463630760933
 20
143.1076328107261872
 30
0.0
 40
0.4433718500000001
 50
272.5630958120507898
 51
273.3149993036386149
  0
ARC
  5
1361E
  8
0
 10
3494.8361075604871075
 20
143.1061843353955112
 30
0.0
 40
0.4419220869958889
 50
271.0565722562524797
 51
272.5635676106206233
  0
ARC
  5
1361F
  8
0
 10
3494.7998012948619362
 20
143.1345845807751118
 30
0.0
 40
0.47374325578401
 50
283.8964344740401202
 51
286.1721641653771258
  0
ARC
  5
13620
  8
0
 10
3494.7986281308881189
 20
143.1319352562292124
 30
0.0
 40
0.470944776504623
 50
282.7092173040066996
 51
284.9769409608286992
  0
ARC
  5
13621
  8
0
 10
3494.8172971923768273
 20
143.1303532005138095
 30
0.0
 40
0.4687474911093958
 50
284.0444607228965879
 51
285.5625032007524737
  0
ARC
  5
13622
  8
0
 10
3494.8842413716502051
 20
142.8685523970883935
 30
0.0
 40
0.1992936111166856
 50
280.198103260743892
 51
283.5415437417531734
  0
ARC
  5
13623
  8
0
 10
3494.8241115388291291
 20
143.1222058242510968
 30
0.0
 40
0.4598072893397701
 50
280.4529474460588858
 51
281.9765463543038777
  0
ARC
  5
13624
  8
0
 10
3494.8428350622311882
 20
143.1220360727812988
 30
0.0
 40
0.4558261014269755
 50
281.140280233577073
 51
283.1546022615564198
  0
ARC
  5
13625
  8
0
 10
3494.7704743829008294
 20
143.1251250202770962
 30
0.0
 40
0.4596859057952374
 50
277.1602747067726114
 51
279.3981869848518045
  0
ARC
  5
13626
  8
0
 10
3494.7443786350240771
 20
143.1341733617051943
 30
0.0
 40
0.4602043710869775
 50
279.3004716769369224
 51
281.5655853985848012
  0
ARC
  5
13627
  8
0
 10
3494.7687893542101847
 20
143.1237297550862877
 30
0.0
 40
0.4577879214392329
 50
276.0092331785576789
 51
278.2420272272727857
  0
ARC
  5
13628
  8
0
 10
3494.7521135260221854
 20
143.1271373117083954
 30
0.0
 40
0.4558836194760744
 50
276.0735273789911162
 51
278.3164879820898818
  0
ARC
  5
13629
  8
0
 10
3494.7762230395542247
 20
143.1175508269151067
 30
0.0
 40
0.4532064566
 50
272.8526025081794728
 51
275.0735939840475908
  0
ARC
  5
1362A
  8
0
 10
3494.7504605205299413
 20
143.1252824379863
 30
0.0
 40
0.4532733108723356
 50
274.9240796094372854
 51
277.1664846108691904
  0
ARC
  5
1362B
  8
0
 10
3494.774425796765172
 20
143.1157529626686085
 30
0.0
 40
0.4509861698810705
 50
271.7032801230736254
 51
273.9245758805458877
  0
ARC
  5
1362C
  8
0
 10
3494.7277057664859967
 20
143.1388863863519987
 30
0.0
 40
0.456788166846796
 50
279.4759111498079278
 51
281.7607324546460745
  0
ARC
  5
1362D
  8
0
 10
3494.7261189178038876
 20
143.1376218147173915
 30
0.0
 40
0.4544250084789611
 50
278.321780438475173
 51
280.6016329504057012
  0
ARC
  5
1362E
  8
0
 10
3494.6919301296138656
 20
143.1445983094970131
 30
0.0
 40
0.4367252961000001
 50
277.7089983951357794
 51
278.0962582469821882
  0
ARC
  5
1362F
  8
0
 10
3494.6902223827169109
 20
143.1439299633404971
 30
0.0
 40
0.4344188566
 50
276.5326428099426721
 51
277.5631550017325253
  0
ARC
  5
13630
  8
0
 10
3494.7732328182341917
 20
143.1415737702762954
 30
0.0
 40
0.478081194
 50
285.8556193451535137
 51
286.923573128265275
  0
ARC
  5
13631
  8
0
 10
3494.7567143820920137
 20
143.1440911897659873
 30
0.0
 40
0.4762776206
 50
285.9149127677335969
 51
286.5979245058892957
  0
ARC
  5
13632
  8
0
 10
3494.7553541984239018
 20
143.1425046143808117
 30
0.0
 40
0.4739909129
 50
284.7476598772503849
 51
286.5314199515174778
  0
ARC
  5
13633
  8
0
 10
3494.7819016816902149
 20
143.1340706470764985
 30
0.0
 40
0.4715506035912643
 50
282.6514741708458018
 51
284.9152422593588199
  0
ARC
  5
13634
  8
0
 10
3494.7388661552399753
 20
143.1456908872634983
 30
0.0
 40
0.4706611275000001
 50
284.900166240643216
 51
285.6304260643211137
  0
ARC
  5
13635
  8
0
 10
3494.7637919526709993
 20
143.1350595020012975
 30
0.0
 40
0.4684662764217647
 50
281.5104803640552973
 51
283.7697362739132814
  0
ARC
  5
13636
  8
0
 10
3494.7806464649011104
 20
143.1314969357082134
 30
0.0
 40
0.4685967807650158
 50
281.4819383218177222
 51
283.7400869129531884
  0
ARC
  5
13637
  8
0
 10
3494.7374874655010899
 20
143.1441277800306011
 30
0.0
 40
0.4681503609000001
 50
283.7387191497548997
 51
285.4928732886421017
  0
ARC
  5
13638
  8
0
 10
3494.7625165634990481
 20
143.1324025463123064
 30
0.0
 40
0.4651868404513504
 50
280.3508073743230966
 51
282.6073831201957205
  0
ARC
  5
13639
  8
0
 10
3494.7455542778720883
 20
143.1374397692449918
 30
0.0
 40
0.4643528596155652
 50
280.458967960567179
 51
282.7213269624858754
  0
ARC
  5
1363A
  8
0
 10
3494.7196646184229394
 20
143.1463720190452875
 30
0.0
 40
0.4604302816
 50
282.8189890381344185
 51
283.6730060308917132
  0
ARC
  5
1363B
  8
0
 10
3494.8800489182749516
 20
143.6692063784066136
 30
0.0
 40
0.9740271070999998
 50
261.7162484256347739
 51
262.2759342123467832
  0
ARC
  5
1363C
  8
0
 10
3494.8799316077938784
 20
143.6683732924207106
 30
0.0
 40
0.9731858156999998
 50
261.0049980910334284
 51
261.57849171563862
  0
ARC
  5
1363D
  8
0
 10
3494.8016781298210844
 20
143.1869371521763128
 30
0.0
 40
0.525555710200784
 50
264.8754298029094798
 51
268.4250687685645858
  0
LINE
  5
1363E
  8
0
 10
3494.7934256848379846
 20
142.7015307804348936
 30
0.0
 11
3494.7943077360478128
 21
142.7016993237537008
 31
0.0
  0
LINE
  5
1363F
  8
0
 10
3494.7374042810160972
 20
142.705680925575507
 30
0.0
 11
3494.7384911729891428
 21
142.7057829560079085
 31
0.0
  0
LINE
  5
13640
  8
0
 10
3494.7384911729891428
 20
142.7057829560079085
 30
0.0
 11
3494.7393135917068321
 21
142.7055247460691874
 31
0.0
  0
LINE
  5
13641
  8
0
 10
3494.7393135917068321
 20
142.7055247460691874
 30
0.0
 11
3494.7397154007471727
 21
142.705341600980006
 31
0.0
  0
LINE
  5
13642
  8
0
 10
3494.7901726658860753
 20
142.6830819937441106
 30
0.0
 11
3494.7910445431539301
 21
142.6831928381878072
 31
0.0
  0
LINE
  5
13643
  8
0
 10
3494.7910445431539301
 20
142.6831928381878072
 30
0.0
 11
3494.8078498838208361
 21
142.6803266154595065
 31
0.0
  0
LINE
  5
13644
  8
0
 10
3494.7879552932140541
 20
142.6705066494918981
 30
0.0
 11
3494.7888180236591325
 21
142.6705656192046092
 31
0.0
  0
LINE
  5
13645
  8
0
 10
3494.7867054747521252
 20
142.6634185771029024
 30
0.0
 11
3494.7872704074338799
 21
142.6633996947996081
 31
0.0
  0
LINE
  5
13646
  8
0
 10
3494.7872704074338799
 20
142.6633996947996081
 30
0.0
 11
3494.7875597177999225
 21
142.6634294120974005
 31
0.0
  0
LINE
  5
13647
  8
0
 10
3494.7918889168417991
 20
142.6879815189722933
 30
0.0
 11
3494.7910670383548677
 21
142.6881542320494987
 31
0.0
  0
LINE
  5
13648
  8
0
 10
3494.7893675289669773
 20
142.6736820182856036
 30
0.0
 11
3494.7885373423368947
 21
142.673807613670192
 31
0.0
  0
LINE
  5
13649
  8
0
 10
3494.7878306702809823
 20
142.6649660600006939
 30
0.0
 11
3494.7869924755568718
 21
142.6650462395020043
 31
0.0
  0
LINE
  5
1364A
  8
0
 10
3494.7119558359700022
 20
142.7156111266762935
 30
0.0
 11
3494.7279086072239807
 21
142.7079097429561045
 31
0.0
  0
LINE
  5
1364B
  8
0
 10
3494.7491373242510235
 20
142.7040167804956923
 30
0.0
 11
3494.762143628476224
 21
142.7055000209433047
 31
0.0
  0
LINE
  5
1364C
  8
0
 10
3494.7875597177298914
 20
142.663429412090295
 30
0.0
 11
3494.8046916985099415
 21
142.6624156571893991
 31
0.0
  0
ARC
  5
1364D
  8
0
 10
3496.3335510852480184
 20
175.2141960083332037
 30
0.0
 40
0.0310056963827162
 50
134.585503516372512
 51
163.2727164513343894
  0
ARC
  5
1364E
  8
0
 10
3496.3185900231301275
 20
175.2304689591136082
 30
0.0
 40
0.008946791776667
 50
76.3594216865604523
 51
139.5088954647499122
  0
ARC
  5
1364F
  8
0
 10
3496.3182976822840828
 20
175.2263807498588903
 30
0.0
 40
0.0130064222929047
 50
49.6779222305798029
 51
79.3564459447749613
  0
ARC
  5
13650
  8
0
 10
3496.2484518474220749
 20
175.1516257264509875
 30
0.0
 40
0.1153004478093829
 50
10.2874513581487808
 51
47.2526745407823725
  0
ARC
  5
13651
  8
0
 10
3496.2021989229510837
 20
175.1298315660719993
 30
0.0
 40
0.1652287688972557
 50
352.1913229840018857
 51
14.8639601296366308
  0
ARC
  5
13652
  8
0
 10
3496.3301465207778165
 20
175.1110939462683973
 30
0.0
 40
0.0359411777249103
 50
335.4689246813430259
 51
354.0730697973485803
  0
ARC
  5
13653
  8
0
 10
3496.3473645125718576
 20
175.101546412397596
 30
0.0
 40
0.0163855890464372
 50
307.2488823176456094
 51
340.8514891418774937
  0
ARC
  5
13654
  8
0
 10
3496.3524843472318935
 20
175.1004602703264084
 30
0.0
 40
0.0128837516582689
 50
257.2789131442895041
 51
291.8641886021649157
  0
ARC
  5
13655
  8
0
 10
3496.3547410343790034
 20
175.1092220252708955
 30
0.0
 40
0.0219290568955635
 50
236.1291642903046863
 51
256.5684558990756159
  0
ARC
  5
13656
  8
0
 10
3496.2923258846890349
 20
175.0935215385061952
 30
0.0
 40
0.021129563873762
 50
243.4065180795533934
 51
288.6232629923918012
  0
ARC
  5
13657
  8
0
 10
3496.3042155184471085
 20
175.1136275089064895
 30
0.0
 40
0.0444608413258653
 50
216.1867901475939959
 51
241.3039697667466044
  0
ARC
  5
13658
  8
0
 10
3496.3839725357747739
 20
175.1662781127753021
 30
0.0
 40
0.1399938595374592
 50
190.7322670206968098
 51
214.3054348430547122
  0
ARC
  5
13659
  8
0
 10
3496.3280253138968874
 20
175.160755505640509
 30
0.0
 40
0.0841450795395398
 50
164.708084434474614
 51
194.1337293146555112
  0
ARC
  5
1365A
  8
0
 10
3496.2705470523728764
 20
175.1751384784286074
 30
0.0
 40
0.0249416796278792
 50
121.6292467848141001
 51
161.7539611523843917
  0
ARC
  5
1365B
  8
0
 10
3496.2985206232651763
 20
175.138960790956105
 30
0.0
 40
0.041807508862078
 50
158.1893719466893913
 51
236.1901417670522108
  0
ARC
  5
1365C
  8
0
 10
3496.2396638549362251
 20
175.1207531075399118
 30
0.0
 40
0.0392444307650876
 50
335.0897075382761727
 51
59.2898061754644274
  0
ARC
  5
1365D
  8
0
 10
3495.7641009819021747
 20
174.6325211492739129
 30
0.0
 40
0.4660817124274783
 50
21.4066491696949193
 51
27.6845386402091798
  0
ARC
  5
1365E
  8
0
 10
3496.6065036066020184
 20
175.0172360137445935
 30
0.0
 40
0.4614166210610181
 50
201.3748810131802998
 51
207.716306796722705
  0
ARC
  5
1365F
  8
0
 10
3496.1767178255067847
 20
174.8781191864077869
 30
0.0
 40
0.0119763096352388
 50
119.2806489541129054
 51
189.763887314340792
  0
ARC
  5
13660
  8
0
 10
3496.5009269323518311
 20
174.9745962999755875
 30
0.0
 40
0.3501540808520796
 50
196.3394814645369024
 51
215.0586324447895947
  0
ARC
  5
13661
  8
0
 10
3496.2005347509921194
 20
174.8668956365746112
 30
0.0
 40
0.0134500862069844
 50
216.8721422037473019
 51
287.6706537991564119
  0
ARC
  5
13662
  8
0
 10
3496.2888635048861943
 20
174.9277938590624046
 30
0.0
 40
0.1207278474604988
 50
205.8642131310228933
 51
214.8391224152748009
  0
ARC
  5
13663
  8
0
 10
3496.6063556203789631
 20
175.097527589259613
 30
0.0
 40
0.4805026474141025
 50
197.1353744038217997
 51
206.1425508465611074
  0
ARC
  5
13664
  8
0
 10
3496.1598685487369949
 20
174.9600994570567138
 30
0.0
 40
0.0133458840003233
 50
122.478733647231806
 51
198.0832516500545069
  0
ARC
  5
13665
  8
0
 10
3496.3338932655001372
 20
174.9794544308711863
 30
0.0
 40
0.181716885424561
 50
195.3478297855623111
 51
211.5515111046487107
  0
ARC
  5
13666
  8
0
 10
3496.007771634063829
 20
174.8379932110669017
 30
0.0
 40
0.1774355143736765
 50
15.1509771442606702
 51
31.7483637459275201
  0
ARC
  5
13667
  8
0
 10
3496.096830711696839
 20
174.7218331824684867
 30
0.0
 40
0.1897471575919113
 50
17.4507429234228191
 51
24.5251865405174883
  0
ARC
  5
13668
  8
0
 10
3496.3475577692979641
 20
174.8249781501799873
 30
0.0
 40
0.0836556593373651
 50
202.568997080677093
 51
213.5573819198912986
  0
ARC
  5
13669
  8
0
 10
3495.9907710093789319
 20
174.8675722893196962
 30
0.0
 40
0.2483419233494393
 50
21.8181145819932709
 51
36.1355600594060178
  0
ARC
  5
1366A
  8
0
 10
3496.25494392147084
 20
175.0163229190698075
 30
0.0
 40
0.0636477162681008
 50
182.0744863833365059
 51
198.3255292466209028
  0
ARC
  5
1366B
  8
0
 10
3496.3827952814622222
 20
174.9086887248467974
 30
0.0
 40
0.1361719473296784
 50
186.2519528172871901
 51
219.938456225774587
  0
ARC
  5
1366C
  8
0
 10
3496.1457831113821157
 20
174.8076179126165925
 30
0.0
 40
0.1333054810393242
 50
5.8785949099185801
 51
40.3118141331328985
  0
ARC
  5
1366D
  8
0
 10
3496.314081215880833
 20
174.7755897526529907
 30
0.0
 40
0.0190853007640026
 50
218.3026127457632128
 51
285.7347516563818886
  0
ARC
  5
1366E
  8
0
 10
3496.4733260781049466
 20
174.905628898805503
 30
0.0
 40
0.2246775058696805
 50
206.6964913570915883
 51
219.1558295619078933
  0
ARC
  5
1366F
  8
0
 10
3496.8657940439611593
 20
175.1175480760012988
 30
0.0
 40
0.6706418111867301
 50
198.3201807008695994
 51
207.8077631368483082
  0
ARC
  5
13670
  8
0
 10
3496.3910702205971575
 20
174.9657757978247901
 30
0.0
 40
0.1723499726070753
 50
185.7454056785354055
 51
200.028758299690395
  0
ARC
  5
13671
  8
0
 10
3496.2430509206678835
 20
174.9507369448448912
 30
0.0
 40
0.0235691749118565
 50
131.2055983615452135
 51
185.3920661963973942
  0
ARC
  5
13672
  8
0
 10
3495.8918992254998557
 20
174.7019272156161946
 30
0.0
 40
0.4611209131775753
 50
6.792012657138744
 51
39.6074845487485021
  0
ARC
  5
13673
  8
0
 10
3493.2540091313589983
 20
173.5713397775791123
 30
0.0
 40
3.3148659880895011
 50
20.9478069606336987
 51
21.1661558812983799
  0
ARC
  5
13674
  8
0
 10
3493.2540091313589983
 20
173.5713397775791123
 30
0.0
 40
3.3148659880895011
 50
25.2189450676933191
 51
25.4516902452321787
  0
ARC
  5
13675
  8
0
 10
3496.4086062831261188
 20
174.6771169289422971
 30
0.0
 40
0.0173412994174973
 50
123.1594488368779992
 51
168.7411094234637119
  0
ARC
  5
13676
  8
0
 10
3496.440529468297882
 20
174.6730855368695927
 30
0.0
 40
0.0494897215775002
 50
171.3804591744948027
 51
192.3225056740982097
  0
ARC
  5
13677
  8
0
 10
3496.5921079684708275
 20
174.7092621267431127
 30
0.0
 40
0.2053185583129631
 50
193.1580767394831923
 51
211.9152318479200972
  0
ARC
  5
13678
  8
0
 10
3496.4849670604271523
 20
174.6385771124610926
 30
0.0
 40
0.0770785786495799
 50
209.4182221480182022
 51
229.6054822442536931
  0
ARC
  5
13679
  8
0
 10
3496.4484055961811464
 20
174.5944273170844951
 30
0.0
 40
0.0197753700958327
 50
227.3858008024299977
 51
286.3966638875095896
  0
ARC
  5
1367A
  8
0
 10
3496.3105667596501007
 20
174.5830545133111116
 30
0.0
 40
0.2029080741371567
 50
2.1683109797309692
 51
47.0203672591954884
  0
ARC
  5
1367B
  8
0
 10
3497.7891005041888093
 20
175.2598034200968868
 30
0.0
 40
1.440572341195254
 50
201.5141339603318897
 51
201.8256882977431985
  0
ARC
  5
1367C
  8
0
 10
3497.7891005041888093
 20
175.2598034200968868
 30
0.0
 40
1.440572341195254
 50
207.3630355707292097
 51
207.6745442785193916
  0
ARC
  5
1367D
  8
0
 10
3496.4622786126928986
 20
174.649701236794499
 30
0.0
 40
0.0566162185502301
 50
177.9545926803799034
 51
231.9553381880708116
  0
ARC
  5
1367E
  8
0
 10
3496.3741227389068627
 20
174.6086778042462129
 30
0.0
 40
0.0533837571019327
 50
356.1724385900440097
 51
53.737492278390917
  0
ARC
  5
1367F
  8
0
 10
3496.0434791969651087
 20
174.3525610531966947
 30
0.0
 40
0.4350073235267601
 50
14.91643502340205
 51
37.4988772705934394
  0
ARC
  5
13680
  8
0
 10
3499.1160356593218239
 20
175.8649562783955957
 30
0.0
 40
2.9992303806509462
 50
204.5803422184110048
 51
204.8989970962527991
  0
ARC
  5
13681
  8
0
 10
3496.4926860528171346
 20
174.4979829654548098
 30
0.0
 40
0.044175574644062
 50
206.8986122819117099
 51
229.2118970365125108
  0
ARC
  5
13682
  8
0
 10
3495.9404494220411834
 20
174.4592130150626019
 30
0.0
 40
0.4536561760548226
 50
16.6881931596012016
 51
33.4602425685910987
  0
ARC
  5
13683
  8
0
 10
3496.4347995186021762
 20
174.746493033292893
 30
0.0
 40
0.1216892861125645
 50
197.7768153395417983
 51
205.5273971609809962
  0
ARC
  5
13684
  8
0
 10
3496.257410803212224
 20
174.6918898485224076
 30
0.0
 40
0.0102438201481189
 50
122.0621621380169017
 51
203.5716124993645053
  0
ARC
  5
13685
  8
0
 10
3496.3114782452657892
 20
174.5800767122115928
 30
0.0
 40
0.0100851872986
 50
205.6997647530430982
 51
223.7651591132853923
  0
ARC
  5
13686
  8
0
 10
3496.3114782452657892
 20
174.5800767122115928
 30
0.0
 40
0.0100851872986
 50
223.7651591132853923
 51
223.7651591132853923
  0
ARC
  5
13687
  8
0
 10
3497.3764250507861107
 20
175.0747309940419996
 30
0.0
 40
1.1837695594645059
 50
203.3565184434301898
 51
208.1989557628554053
  0
ARC
  5
13688
  8
0
 10
3496.2992021528821169
 20
174.6090495742481039
 30
0.0
 40
0.0102090244140248
 50
164.388451034336299
 51
200.8015624083465127
  0
ARC
  5
13689
  8
0
 10
3496.3301425401959932
 20
174.54430323229181
 30
0.0
 40
0.0090235502306732
 50
216.3839404513321938
 51
289.7554243389710109
  0
ARC
  5
1368A
  8
0
 10
3496.3321972562789597
 20
174.566817851043993
 30
0.0
 40
0.0127936665573098
 50
220.7008392472745868
 51
291.2302035329037153
  0
ARC
  5
1368B
  8
0
 10
3496.28745549126279
 20
174.6585058828140973
 30
0.0
 40
0.0123812335908863
 50
120.1494128968307962
 51
196.4783230257137916
  0
ARC
  5
1368C
  8
0
 10
3496.4974529607411569
 20
174.7290597489295862
 30
0.0
 40
0.2339062211371824
 50
198.4603043417210984
 51
205.6821990504006124
  0
ARC
  5
1368D
  8
0
 10
3496.0554126507809087
 20
174.4893186172971866
 30
0.0
 40
0.2716602075291534
 50
20.3987048018261383
 51
31.1766370263817407
  0
ARC
  5
1368E
  8
0
 10
3496.3600963088101707
 20
174.56317381001341
 30
0.0
 40
0.0145742783693157
 50
125.9523871462985056
 51
196.8101475471524111
  0
ARC
  5
1368F
  8
0
 10
3496.737163449135096
 20
174.6915200734287907
 30
0.0
 40
0.4128777483813065
 50
198.7274273158894005
 51
212.4055308240660054
  0
ARC
  5
13690
  8
0
 10
3496.414846397366091
 20
174.4861142597158903
 30
0.0
 40
0.0306821428249036
 50
211.1227876221620932
 51
234.0555766506635962
  0
ARC
  5
13691
  8
0
 10
3496.4039149626341896
 20
174.4733937013870957
 30
0.0
 40
0.0140352946415509
 50
239.710418393379399
 51
288.5209420027886722
  0
ARC
  5
13692
  8
0
 10
3496.2512160111691628
 20
174.4539688616916067
 30
0.0
 40
0.1351133213150375
 50
15.3115367809642997
 51
37.144692988500303
  0
ARC
  5
13693
  8
0
 10
3496.4934297117160895
 20
174.5733004447504015
 30
0.0
 40
0.1397087738858861
 50
195.674806217233396
 51
216.7814236893547104
  0
ARC
  5
13694
  8
0
 10
3494.3864746898320846
 20
173.4193822259186959
 30
0.0
 40
2.297612236258888
 50
25.3567222526646603
 51
27.178991983518781
  0
ARC
  5
13695
  8
0
 10
3496.3694180120141937
 20
174.4696152707433896
 30
0.0
 40
0.0099486917697304
 50
120.083048574276205
 51
200.4527586521712124
  0
ARC
  5
13696
  8
0
 10
3497.1604777436291442
 20
174.8147597226229095
 30
0.0
 40
0.8730101263153806
 50
203.5364247007265988
 51
209.2015273800400053
  0
ARC
  5
13697
  8
0
 10
3496.4069240252101736
 20
174.3988337048772053
 30
0.0
 40
0.0131280238075778
 50
229.6217340767757946
 51
288.4655052166901896
  0
ARC
  5
13698
  8
0
 10
3496.4794896133921611
 20
174.2810600556645966
 30
0.0
 40
0.0129457197324888
 50
217.3791879705030112
 51
291.6200433970846007
  0
ARC
  5
13699
  8
0
 10
3497.0275311822229014
 20
174.6241973898684137
 30
0.0
 40
0.6594918374060482
 50
203.1302809863854009
 51
212.1557559676807045
  0
ARC
  5
1369A
  8
0
 10
3496.4325096634188412
 20
174.3709413512845003
 30
0.0
 40
0.0128443890203931
 50
121.3335672807858998
 51
206.8820014546625998
  0
ARC
  5
1369B
  8
0
 10
3496.2243703870622085
 20
174.2058880515650969
 30
0.0
 40
0.2498412733781391
 50
21.5547188055197303
 51
33.2760038696662335
  0
ARC
  5
1369C
  8
0
 10
3496.7434219150040917
 20
174.475115384664889
 30
0.0
 40
0.3371514672861429
 50
203.0758375403781884
 51
211.7548851347964103
  0
ARC
  5
1369D
  8
0
 10
3496.4458277089388503
 20
174.3198127317594128
 30
0.0
 40
0.0113280909073624
 50
132.3123198277098993
 51
179.4065072311971107
  0
ARC
  5
1369E
  8
0
 10
3496.4477613153230777
 20
174.3207391549493082
 30
0.0
 40
0.0132857485285367
 50
183.4913968559503985
 51
200.3639811321170043
  0
ARC
  5
1369F
  8
0
 10
3497.6388468152990754
 20
174.9021564552251107
 30
0.0
 40
1.338638929368118
 50
205.9628533102020924
 51
209.7215802191726937
  0
ARC
  5
136A0
  8
0
 10
3496.4848580864249925
 20
174.24368602503651
 30
0.0
 40
0.0100071701425006
 50
211.3591579836480889
 51
293.7105693420168109
  0
ARC
  5
136A1
  8
0
 10
3496.490006069176161
 20
174.2292003148093897
 30
0.0
 40
0.009854100802258
 50
149.2096917013589916
 51
207.8479085743149994
  0
ARC
  5
136A2
  8
0
 10
3495.698208411170981
 20
173.7913075629678019
 30
0.0
 40
0.894964606632352
 50
25.5984559952011814
 51
28.9562511332856687
  0
ARC
  5
136A3
  8
0
 10
3496.518065254917019
 20
174.177089825821497
 30
0.0
 40
0.0142382053316344
 50
119.010439712452694
 51
148.7648149784450027
  0
ARC
  5
136A4
  8
0
 10
3496.5146738904541053
 20
174.1804420206431132
 30
0.0
 40
0.009663836628354
 50
155.3465961123210093
 51
194.7152030417690867
  0
ARC
  5
136A5
  8
0
 10
3496.5662876910591876
 20
174.0849434099974076
 30
0.0
 40
0.0098425829669213
 50
208.4213451965929949
 51
276.5908930724921788
  0
ARC
  5
136A6
  8
0
 10
3496.5649397256811426
 20
174.1075030374933021
 30
0.0
 40
0.0120881924202694
 50
120.8683123876122067
 51
195.2925588207168062
  0
ARC
  5
136A7
  8
0
 10
3497.2387514514211944
 20
174.4187804385202867
 30
0.0
 40
0.7541620218299429
 50
204.6436635738558891
 51
212.7626771800198924
  0
ARC
  5
136A8
  8
0
 10
3496.6148252635862264
 20
174.0178972813716882
 30
0.0
 40
0.0125596535519917
 50
215.1987916438588115
 51
293.0973964234378855
  0
ARC
  5
136A9
  8
0
 10
3496.2911853490700196
 20
173.8978176912332003
 30
0.0
 40
0.3300347293318518
 50
24.4765071318548983
 51
33.345222355451078
  0
ARC
  5
136AA
  8
0
 10
3496.8681363983250776
 20
174.2164545407449054
 30
0.0
 40
0.3310299299436874
 50
204.4898650414035899
 51
213.331864445902994
  0
ARC
  5
136AB
  8
0
 10
3496.6255209133969402
 20
174.0450000097216048
 30
0.0
 40
0.014302954366224
 50
221.214405716797387
 51
288.8029479839556757
  0
ARC
  5
136AC
  8
0
 10
3496.9445920794710219
 20
174.281933052125396
 30
0.0
 40
0.4116794167072841
 50
202.2764792064799053
 51
216.7567798191574866
  0
ARC
  5
136AD
  8
0
 10
3496.5760462375660609
 20
174.1322223727910057
 30
0.0
 40
0.0139372579372194
 50
125.1964437994675023
 51
207.0916416341237039
  0
ARC
  5
136AE
  8
0
 10
3496.2363246908621477
 20
173.8831673132181095
 30
0.0
 40
0.476006750988529
 50
18.8669642798206496
 51
39.4845740728962795
  0
ARC
  5
136AF
  8
0
 10
3497.2092646061578307
 20
174.4263851965683045
 30
0.0
 40
0.6515841666278617
 50
201.663863772808611
 51
203.1131444819586136
  0
ARC
  5
136B0
  8
0
 10
3497.2092646061578307
 20
174.4263851965683045
 30
0.0
 40
0.6515841666278617
 50
215.179551055579509
 51
216.6876745799035859
  0
ARC
  5
136B1
  8
0
 10
3495.8483040701421487
 20
173.9298364691084942
 30
0.0
 40
0.7634343029409392
 50
24.1198913914156101
 51
27.8532558080330617
  0
ARC
  5
136B2
  8
0
 10
3496.7887129869018281
 20
174.3978591079963962
 30
0.0
 40
0.2893189751718517
 50
209.4069348473171033
 51
212.6401185171712882
  0
ARC
  5
136B3
  8
0
 10
3495.8144880319609911
 20
173.9903147105237053
 30
0.0
 40
0.7785550399031081
 50
21.5085041895436611
 51
33.6504996632235418
  0
ARC
  5
136B4
  8
0
 10
3496.6230993981162101
 20
174.3542055655805996
 30
0.0
 40
0.1151302990408715
 50
214.6237447867131891
 51
222.9478228705227991
  0
ARC
  5
136B5
  8
0
 10
3496.5633262008500424
 20
174.4483246655939013
 30
0.0
 40
0.1041938335624809
 50
194.7868696335706034
 51
203.7437034491615009
  0
ARC
  5
136B6
  8
0
 10
3496.1740251251439986
 20
174.0764181671256949
 30
0.0
 40
0.4955843540013624
 50
13.8560719287530905
 51
42.9634134892348385
  0
ARC
  5
136B7
  8
0
 10
3496.659414050966916
 20
174.2155830391261873
 30
0.0
 40
0.0209119158834676
 50
230.7826993144676067
 51
258.3413540071369994
  0
ARC
  5
136B8
  8
0
 10
3496.5915440354419843
 20
174.417778807387009
 30
0.0
 40
0.054974000459877
 50
183.7593621137629896
 51
192.1645802542915078
  0
ARC
  5
136B9
  8
0
 10
3496.6173851332468985
 20
174.2073160754653998
 30
0.0
 40
0.0186134235819396
 50
233.5118053930949031
 51
288.6499054611284123
  0
ARC
  5
136BA
  8
0
 10
3496.7096998665660976
 20
174.3145083162519882
 30
0.0
 40
0.1600326827999457
 50
210.1106727308724942
 51
229.7582626453097987
  0
ARC
  5
136BB
  8
0
 10
3497.1036322448121609
 20
174.5788994200470086
 30
0.0
 40
0.6342070619790406
 50
206.3900925716505128
 51
212.9204385820287087
  0
ARC
  5
136BC
  8
0
 10
3496.8735837332787924
 20
174.4729325353650893
 30
0.0
 40
0.3811024904190382
 50
197.7662438236027924
 51
207.4918827277815012
  0
ARC
  5
136BD
  8
0
 10
3496.5626873002352113
 20
174.3761383099219131
 30
0.0
 40
0.0555626937783565
 50
177.2681716193077079
 51
200.5382616750599993
  0
ARC
  5
136BE
  8
0
 10
3496.5231748547312236
 20
174.3787572188039121
 30
0.0
 40
0.0159871310225093
 50
122.1631723737830981
 51
179.8950521585049955
  0
ARC
  5
136BF
  8
0
 10
3496.4572623603239663
 20
174.2314277027429057
 30
0.0
 40
0.1215831157728775
 50
9.4373706072732642
 51
47.2352875815613018
  0
ARC
  5
136C0
  8
0
 10
3496.6633587631308728
 20
174.342567804178401
 30
0.0
 40
0.125465349370234
 50
190.0432433121918052
 51
226.6294148766488092
  0
ARC
  5
136C1
  8
0
 10
3496.7396693527830394
 20
174.2471920485205032
 30
0.0
 40
0.03017766665706
 50
238.4757558992808129
 51
287.2791968284429913
  0
ARC
  5
136C2
  8
0
 10
3496.7772414840378588
 20
174.3050961970295987
 30
0.0
 40
0.0991966650658512
 50
210.1032283101635869
 51
237.4640547307747056
  0
ARC
  5
136C3
  8
0
 10
3496.7812864097850252
 20
174.3155471717448961
 30
0.0
 40
0.1081653706544518
 50
186.5450044136171925
 51
213.8204524616479887
  0
ARC
  5
136C4
  8
0
 10
3496.701141401545101
 20
174.3078919045935038
 30
0.0
 40
0.0277123812046192
 50
126.8352266703727054
 51
189.7095852963896903
  0
ARC
  5
136C5
  8
0
 10
3496.729848585398031
 20
174.2828532863580051
 30
0.0
 40
0.038080480627693
 50
167.2512529637780005
 51
253.5120424497561089
  0
ARC
  5
136C6
  8
0
 10
3496.6845365844369553
 20
174.2562883992553111
 30
0.0
 40
0.035910148477524
 50
343.9144617864728275
 51
76.848833627039383
  0
ARC
  5
136C7
  8
0
 10
3496.8045965412788973
 20
174.2617852560790084
 30
0.0
 40
0.0256850111319097
 50
246.8205042496213082
 51
285.5397977933977245
  0
ARC
  5
136C8
  8
0
 10
3496.8060237062468332
 20
174.2502104839269919
 30
0.0
 40
0.0142558796717971
 50
292.4937231144410248
 51
356.3265618374824726
  0
ARC
  5
136C9
  8
0
 10
3496.7319982145008908
 20
174.2599071151076942
 30
0.0
 40
0.0888875808964652
 50
353.1445860537826889
 51
26.2695540124988014
  0
ARC
  5
136CA
  8
0
 10
3496.6860429313269378
 20
174.2486504637410007
 30
0.0
 40
0.1354668108036221
 50
21.93207819210091
 51
62.6291596790371514
  0
ARC
  5
136CB
  8
0
 10
3496.7405604643709012
 20
174.3525741014433947
 30
0.0
 40
0.0181243058005848
 50
64.6388545741466203
 51
110.4631903407063049
  0
ARC
  5
136CC
  8
0
 10
3496.7465325603648125
 20
174.3516886470335123
 30
0.0
 40
0.0216954880648505
 50
124.5640954187497016
 51
171.8284354874170958
  0
ARC
  5
136CD
  8
0
 10
3496.6439148679492064
 20
173.9507539901451878
 30
0.0
 40
0.0119148596008197
 50
121.1450315126993047
 51
207.1481216308241926
  0
ARC
  5
136CE
  8
0
 10
3496.6953805944572196
 20
173.8613314157568084
 30
0.0
 40
0.0121344089517574
 50
215.6339476662089965
 51
293.8980577277117163
  0
ARC
  5
136CF
  8
0
 10
3498.1901049437451547
 20
174.7773928589348884
 30
0.0
 40
1.7652059001964739
 50
208.1236466340913864
 51
211.5309719027908955
  0
ARC
  5
136D0
  8
0
 10
3496.8884194739280247
 20
173.9007200579279129
 30
0.0
 40
0.0207508024624068
 50
237.194891937894198
 51
271.9615870127444737
  0
ARC
  5
136D1
  8
0
 10
3496.8148291135998988
 20
174.0019648871162019
 30
0.0
 40
0.0139530704593669
 50
148.0604113394192893
 51
192.3467874363535088
  0
ARC
  5
136D2
  8
0
 10
3496.6638776530708128
 20
173.8233532740497083
 30
0.0
 40
0.2322611877257716
 50
14.1116570001713892
 51
53.2058952129514395
  0
ARC
  5
136D3
  8
0
 10
3496.8210274142388698
 20
173.8879995574023951
 30
0.0
 40
0.0266094974052915
 50
223.6843759189924867
 51
281.1217627253370779
  0
ARC
  5
136D4
  8
0
 10
3496.9378108132191301
 20
174.0105329048710132
 30
0.0
 40
0.1958554512517512
 50
198.0470438445993864
 51
226.0107454584546076
  0
ARC
  5
136D5
  8
0
 10
3496.7701497706520968
 20
173.9559307118495894
 30
0.0
 40
0.0195272959572945
 50
129.0186635722727999
 51
198.1207427531606982
  0
ARC
  5
136D6
  8
0
 10
3496.8287170761850575
 20
173.9417742469254051
 30
0.0
 40
0.0614649747556302
 50
188.1378853153298962
 51
237.7762706177778966
  0
ARC
  5
136D7
  8
0
 10
3496.7380906736912038
 20
173.8830172488140988
 30
0.0
 40
0.0582451755077101
 50
6.6641646924125029
 51
59.2499912406966516
  0
ARC
  5
136D8
  8
0
 10
3496.2376320131302236
 20
173.37132818700141
 30
0.0
 40
0.7568296610068744
 50
23.7837646891399608
 51
40.4649502406235015
  0
ARC
  5
136D9
  8
0
 10
3496.8122330451569724
 20
173.8799915240387861
 30
0.0
 40
0.0251616741423404
 50
168.7422103063331917
 51
202.3219451448196935
  0
ARC
  5
136DA
  8
0
 10
3496.9402491900650602
 20
173.7026430346514871
 30
0.0
 40
0.0279686870688383
 50
240.2889855531495868
 51
248.9144714848264073
  0
ARC
  5
136DB
  8
0
 10
3496.7799594792390963
 20
173.8477349766440909
 30
0.0
 40
0.0148297199264475
 50
122.6471920933787061
 51
193.513748421632414
  0
ARC
  5
136DC
  8
0
 10
3496.8934701725570449
 20
173.6966093207769859
 30
0.0
 40
0.0311906256873519
 50
227.5069394777929119
 51
275.0259770524215241
  0
ARC
  5
136DD
  8
0
 10
3497.3055014555420712
 20
174.0635883319947084
 30
0.0
 40
0.5828024721818112
 50
202.1057632033669051
 51
222.0008907259663999
  0
ARC
  5
136DE
  8
0
 10
3496.6917161496799054
 20
173.6713517668092095
 30
0.0
 40
0.1622945293536112
 50
19.0194482379412015
 51
47.263197596413832
  0
ARC
  5
136DF
  8
0
 10
3496.956846264719843
 20
173.8444605203160052
 30
0.0
 40
0.16409888728628
 50
199.1778937942258949
 51
227.1047520401239979
  0
ARC
  5
136E0
  8
0
 10
3497.0398894396489595
 20
173.927057903367313
 30
0.0
 40
0.3362902037249042
 50
201.9840316414694996
 51
220.4186758831569932
  0
ARC
  5
136E1
  8
0
 10
3496.7409568940311146
 20
173.8035358772266079
 30
0.0
 40
0.0131207792208395
 50
125.3299068528286
 51
190.3957607300100108
  0
ARC
  5
136E2
  8
0
 10
3496.7945892629868467
 20
173.716249305057687
 30
0.0
 40
0.0129364447385359
 50
213.9854279863762088
 51
292.1856471337881089
  0
ARC
  5
136E3
  8
0
 10
3496.5437646742821016
 20
173.6233211518787982
 30
0.0
 40
0.2512302704040645
 50
25.7057554284090415
 51
37.41427608559475
  0
ARC
  5
136E4
  8
0
 10
3496.9687502923688953
 20
173.8843653968048102
 30
0.0
 40
0.2501512879149179
 50
205.680415313690105
 51
217.4396162003222912
  0
ARC
  5
136E5
  8
0
 10
3496.8010144075537937
 20
173.6817619683185967
 30
0.0
 40
0.0113897177589977
 50
121.7074423354683006
 51
213.9967261109443939
  0
ARC
  5
136E6
  8
0
 10
3497.3297287446721384
 20
173.9550966156870118
 30
0.0
 40
0.6065039434408892
 50
207.4628158320888929
 51
217.4032508426195136
  0
ARC
  5
136E7
  8
0
 10
3511.3193798750849055
 20
182.8477733870664963
 30
0.0
 40
17.1185076140763712
 50
212.3024700532706106
 51
212.8799868174208996
  0
ARC
  5
136E8
  8
0
 10
3497.0359484644759505
 20
173.6185721684198882
 30
0.0
 40
0.1061893438676132
 50
208.1359425780300967
 51
214.8513459028766022
  0
ARC
  5
136E9
  8
0
 10
3496.9338542496570881
 20
173.5343392883638103
 30
0.0
 40
0.0124883013351696
 50
121.8978935923317977
 51
203.3013267918470035
  0
ARC
  5
136EA
  8
0
 10
3497.0560987741978352
 20
173.3692723865385972
 30
0.0
 40
0.0148594770668854
 50
223.2044253392228939
 51
284.3596918679810983
  0
ARC
  5
136EB
  8
0
 10
3497.9331393168431532
 20
174.1292438655156047
 30
0.0
 40
1.175346207116766
 50
210.6875198572521128
 51
220.9385267443994962
  0
ARC
  5
136EC
  8
0
 10
3497.3075209796420495
 20
173.6827814660707077
 30
0.0
 40
0.4045468798036385
 50
210.7776468327242867
 51
221.8672527132623031
  0
ARC
  5
136ED
  8
0
 10
3496.6353371165027966
 20
173.1886077192901894
 30
0.0
 40
0.4334017750416754
 50
31.1478503346885205
 51
41.4970492113064608
  0
ARC
  5
136EE
  8
0
 10
3497.0881794077668019
 20
173.5194299533708033
 30
0.0
 40
0.0177690429378055
 50
125.4499041141905025
 51
182.3474279181959048
  0
ARC
  5
136EF
  8
0
 10
3497.1145530466637865
 20
173.5209776922989136
 30
0.0
 40
0.0441864031073807
 50
182.9519598118145893
 51
206.0525046697096911
  0
ARC
  5
136F0
  8
0
 10
3497.2232362792060485
 20
173.580082802903604
 30
0.0
 40
0.1678709891952647
 50
207.8844371135917015
 51
236.6305016072323895
  0
ARC
  5
136F1
  8
0
 10
3497.1570772284899249
 20
173.4774896270616864
 30
0.0
 40
0.0458165103810825
 50
235.1573914548800133
 51
264.3288659994349814
  0
ARC
  5
136F2
  8
0
 10
3497.1527372552468478
 20
173.4647743843829062
 30
0.0
 40
0.0328775528489504
 50
269.6731684127867084
 51
286.8719236340044176
  0
ARC
  5
136F3
  8
0
 10
3497.1405005069400431
 20
173.506765550539086
 30
0.0
 40
0.0503201566410924
 50
190.1724576560021944
 51
254.4534163245477885
  0
ARC
  5
136F4
  8
0
 10
3497.0791115722049653
 20
173.450880574786197
 30
0.0
 40
0.0484711506463254
 50
8.7886251571848462
 51
75.8372488233563331
  0
ARC
  5
136F5
  8
0
 10
3497.2238114494498404
 20
173.4765934116273058
 30
0.0
 40
0.021160898889344
 50
244.9562851634904916
 51
299.9333233585601874
  0
ARC
  5
136F6
  8
0
 10
3497.1977619221761415
 20
173.4613676143827092
 30
0.0
 40
0.0367407085376956
 50
355.1405357318624283
 51
29.8542706294776607
  0
ARC
  5
136F7
  8
0
 10
3497.0482899252369862
 20
173.3747495907718985
 30
0.0
 40
0.2094962287756299
 50
30.0503123715116409
 51
69.5828507369905935
  0
ARC
  5
136F8
  8
0
 10
3497.1390505649219449
 20
173.5733952525642962
 30
0.0
 40
0.0178276962764633
 50
187.4465306682708103
 51
213.4675160824079114
  0
ARC
  5
136F9
  8
0
 10
3496.9849295161679947
 20
173.302515029777993
 30
0.0
 40
0.1012250833215778
 50
24.0150069511857112
 51
53.943608797483428
  0
ARC
  5
136FA
  8
0
 10
3497.1372572003519963
 20
173.4257764959274937
 30
0.0
 40
0.1015800268730046
 50
204.0685112124656087
 51
233.8901045361805018
  0
ARC
  5
136FB
  8
0
 10
3497.0403197645077853
 20
173.409640555052988
 30
0.0
 40
0.0140195420616792
 50
126.3621279490837992
 51
194.3909750206485967
  0
ARC
  5
136FC
  8
0
 10
3497.2618537380608359
 20
173.521375943016011
 30
0.0
 40
0.2618282007561063
 50
206.1076239740858114
 51
230.2185698497522139
  0
ARC
  5
136FD
  8
0
 10
3497.1048161990652261
 20
173.3324707906303104
 30
0.0
 40
0.0161752862333496
 50
229.5418247130266991
 51
290.5301329227893916
  0
ARC
  5
136FE
  8
0
 10
3497.2164055626490153
 20
173.4336141253280061
 30
0.0
 40
0.1141815321673485
 50
237.8813924219581963
 51
249.2966356659979112
  0
ARC
  5
136FF
  8
0
 10
3496.8394530354162271
 20
173.1605462771194937
 30
0.0
 40
0.3754096725939098
 50
26.2875004467657689
 51
53.101594929551112
  0
ARC
  5
13700
  8
0
 10
3496.7669606535041567
 20
173.360364978709697
 30
0.0
 40
0.3143510087108343
 50
15.7587231574898805
 51
18.6253385600517198
  0
ARC
  5
13701
  8
0
 10
3496.4576918053680856
 20
173.9316390372181047
 30
0.0
 40
0.2322352388896917
 50
20.7560737994902809
 51
29.0213730855121312
  0
ARC
  5
13702
  8
0
 10
3496.7278305972931776
 20
174.0641413252145071
 30
0.0
 40
0.0729832491546077
 50
210.5083506125696999
 51
223.4589408486000934
  0
LINE
  5
13703
  8
0
 10
3497.8336641126779796
 20
173.149322124231702
 30
0.0
 11
3497.7621695457778515
 21
173.2896381122316996
 31
0.0
  0
LINE
  5
13705
  8
0
 10
3478.519420121478106
 20
185.4175009811316954
 30
0.0
 11
3488.3868605408779331
 21
185.4175009811316954
 31
0.0
  0
LINE
  5
13706
  8
0
 10
3487.5863761695782159
 20
185.3654968200316944
 30
0.0
 11
3487.5809103119781867
 21
185.4175009811316954
 31
0.0
  0
LINE
  5
13707
  8
0
 10
3487.3945480482780113
 20
185.3654968200316944
 30
0.0
 11
3487.3890821906788915
 21
185.4175009811316954
 31
0.0
  0
LINE
  5
13708
  8
0
 10
3487.0813173618780638
 20
185.3654968200316944
 30
0.0
 11
3487.0758515042780346
 21
185.4175009811316954
 31
0.0
  0
LINE
  5
13709
  8
0
 10
3486.9231461191779999
 20
185.3654968200316944
 30
0.0
 11
3486.9176802615788802
 21
185.4175009811316954
 31
0.0
  0
LINE
  5
1370A
  8
0
 10
3486.7691349334781989
 20
185.3654968200316944
 30
0.0
 11
3486.7668039096711254
 21
185.3556471544347914
 31
0.0
  0
LINE
  5
1370B
  8
0
 10
3486.6562014660780733
 20
185.3654968200316944
 30
0.0
 11
3486.650735608478044
 21
185.4175009811316954
 31
0.0
  0
LINE
  5
1370C
  8
0
 10
3486.4678435898781572
 20
185.3654968200316944
 30
0.0
 11
3486.4623777323781724
 21
185.4175009811316954
 31
0.0
  0
LINE
  5
1370D
  8
0
 10
3486.1321172924767779
 20
185.3654968200316944
 30
0.0
 11
3486.1266514348781129
 21
185.4175009811316954
 31
0.0
  0
LINE
  5
1370E
  8
0
 10
3486.0324399659780283
 20
185.3654968200316944
 30
0.0
 11
3486.0269741083789086
 21
185.4175009811316954
 31
0.0
  0
LINE
  5
1370F
  8
0
 10
3485.853879781678188
 20
185.3654968200316944
 30
0.0
 11
3485.8484139240781587
 21
185.4175009811316954
 31
0.0
  0
LINE
  5
13710
  8
0
 10
3485.5249888732778345
 20
185.3654968200316944
 30
0.0
 11
3485.5195230156778052
 21
185.4175009811316954
 31
0.0
  0
LINE
  5
13711
  8
0
 10
3485.4819532893779979
 20
185.3654968200316944
 30
0.0
 11
3485.4764874317779686
 21
185.4175009811316954
 31
0.0
  0
LINE
  5
13712
  8
0
 10
3485.403401796378148
 20
185.3654968200316944
 30
0.0
 11
3485.3979359387781187
 21
185.4175009811316954
 31
0.0
  0
LINE
  5
13713
  8
0
 10
3485.2404060097778711
 20
185.3654968200316944
 30
0.0
 11
3485.2349401521778418
 21
185.4175009811316954
 31
0.0
  0
LINE
  5
13714
  8
0
 10
3484.8532634984780998
 20
185.3654968200316944
 30
0.0
 11
3484.8477976408780705
 21
185.4175009811316954
 31
0.0
  0
LINE
  5
13715
  8
0
 10
3484.8404424692771499
 20
185.3654968200316944
 30
0.0
 11
3484.8349766117080435
 21
185.4175009811316954
 31
0.0
  0
LINE
  5
13716
  8
0
 10
3484.8163274559778984
 20
185.3654968200316944
 30
0.0
 11
3484.8108615983778691
 21
185.4175009811316954
 31
0.0
  0
LINE
  5
13717
  8
0
 10
3484.7658059750779103
 20
185.3654968200316944
 30
0.0
 11
3484.760340117477881
 21
185.4175009811316954
 31
0.0
  0
LINE
  5
13718
  8
0
 10
3484.6264422014778575
 20
185.3654968200316944
 30
0.0
 11
3484.6209763438778282
 21
185.4175009811316954
 31
0.0
  0
LINE
  5
13719
  8
0
 10
3484.1326649066782011
 20
185.3654968200316944
 30
0.0
 11
3484.1271990490781718
 21
185.4175009811316954
 31
0.0
  0
LINE
  5
1371A
  8
0
 10
3484.1263790780781164
 20
185.3654968200316944
 30
0.0
 11
3484.1209132204780872
 21
185.4175009811316954
 31
0.0
  0
LINE
  5
1371B
  8
0
 10
3484.1076660386779622
 20
185.3654968200316944
 30
0.0
 11
3484.1022001810779329
 21
185.4175009811316954
 31
0.0
  0
LINE
  5
1371C
  8
0
 10
3484.0127683977789275
 20
185.3654968200316944
 30
0.0
 11
3484.0073025401779887
 21
185.4175009811316954
 31
0.0
  0
LINE
  5
1371D
  8
0
 10
3487.7592445450782179
 20
185.3654968200316944
 30
0.0
 11
3487.7647104026777924
 21
185.4175009811316954
 31
0.0
  0
LINE
  5
1371E
  8
0
 10
3487.694647589377837
 20
185.3654968200316944
 30
0.0
 11
3487.7001134469778663
 21
185.4175009811316954
 31
0.0
  0
LINE
  5
1371F
  8
0
 10
3487.5028194680780871
 20
185.3654968200316944
 30
0.0
 11
3487.5082853256781164
 21
185.4175009811316954
 31
0.0
  0
LINE
  5
13720
  8
0
 10
3487.1895887816781396
 20
185.3654968200316944
 30
0.0
 11
3487.1950546392781689
 21
185.4175009811316954
 31
0.0
  0
LINE
  5
13721
  8
0
 10
3487.0309275026779687
 20
185.3654968200316944
 30
0.0
 11
3487.0363933601779536
 21
185.4175009811316954
 31
0.0
  0
LINE
  5
13722
  8
0
 10
3486.8769163169781677
 20
185.3654968200316944
 30
0.0
 11
3486.8823821744781526
 21
185.4175009811316954
 31
0.0
  0
LINE
  5
13723
  8
0
 10
3486.7644728858781491
 20
185.3654968200316944
 30
0.0
 11
3486.7699387434781784
 21
185.4175009811316954
 31
0.0
  0
LINE
  5
13724
  8
0
 10
3486.575624973378126
 20
185.3654968200316944
 30
0.0
 11
3486.5810908309781553
 21
185.4175009811316954
 31
0.0
  0
LINE
  5
13725
  8
0
 10
3486.3473875679778757
 20
185.4175009811316954
 30
0.0
 11
3486.3419217104778909
 21
185.3654968200316944
 31
0.0
  0
LINE
  5
13726
  8
0
 10
3486.2453335014779441
 20
185.3654968200316944
 30
0.0
 11
3486.2507993590788828
 21
185.4175009811316954
 31
0.0
  0
LINE
  5
13727
  8
0
 10
3485.9621512014778091
 20
185.3654968200316944
 30
0.0
 11
3485.9676170590778383
 21
185.4175009811316954
 31
0.0
  0
LINE
  5
13728
  8
0
 10
3485.6332602930779103
 20
185.3654968200316944
 30
0.0
 11
3485.6387261506779396
 21
185.4175009811316954
 31
0.0
  0
LINE
  5
13729
  8
0
 10
3485.3481873932778399
 20
185.3654968200316944
 30
0.0
 11
3485.3536532507778247
 21
185.4175009811316954
 31
0.0
  0
LINE
  5
1372A
  8
0
 10
3484.9615349182781756
 20
185.3654968200316944
 30
0.0
 11
3484.9670007758782049
 21
185.4175009811316954
 31
0.0
  0
LINE
  5
1372B
  8
0
 10
3484.7347136212779333
 20
185.3654968200316944
 30
0.0
 11
3484.7401794788779625
 21
185.4175009811316954
 31
0.0
  0
LINE
  5
1372C
  8
0
 10
3484.2456226233780399
 20
185.3654968200316944
 30
0.0
 11
3484.2510884809780691
 21
185.4175009811316954
 31
0.0
  0
LINE
  5
1372D
  8
0
 10
3484.1154969196782076
 20
185.358445863131692
 30
0.0
 11
3484.2377807229781865
 21
185.3584458630317044
 31
0.0
  0
LINE
  5
1372E
  8
0
 10
3487.0892473850781244
 20
185.3584458630317044
 30
0.0
 11
3487.1816587583780347
 21
185.3584458630317044
 31
0.0
  0
LINE
  5
1372F
  8
0
 10
3487.4024230012778389
 20
185.3584458630317044
 30
0.0
 11
3487.4949445150778047
 21
185.3584458630317044
 31
0.0
  0
LINE
  5
13730
  8
0
 10
3487.7514136639779281
 20
185.3584458630317044
 30
0.0
 11
3487.5942180699780693
 21
185.3584458630317044
 31
0.0
  0
LINE
  5
13731
  8
0
 10
3487.0230966214780892
 20
185.3584458630317044
 30
0.0
 11
3486.930977000277835
 21
185.3584458630317044
 31
0.0
  0
LINE
  5
13732
  8
0
 10
3486.8689964240779773
 20
185.3584458630317044
 30
0.0
 11
3486.7769658148781673
 21
185.3584458630317044
 31
0.0
  0
LINE
  5
13733
  8
0
 10
3486.7566420044781808
 20
185.3584458630317044
 30
0.0
 11
3486.6640323474780416
 21
185.3584458630317044
 31
0.0
  0
LINE
  5
13734
  8
0
 10
3486.5677940900782232
 20
185.3584458630317044
 30
0.0
 11
3486.4756744732781044
 21
185.3584458630317044
 31
0.0
  0
LINE
  5
13735
  8
0
 10
3486.3340908293780558
 20
185.3584458630317044
 30
0.0
 11
3486.2414811716780605
 21
185.3584458630317044
 31
0.0
  0
LINE
  5
13736
  8
0
 10
3486.2374391612779618
 20
185.3584458630317044
 30
0.0
 11
3486.139948173978155
 21
185.3584458630317044
 31
0.0
  0
LINE
  5
13737
  8
0
 10
3486.1323904680780288
 20
185.3584458630317044
 30
0.0
 11
3486.0402708473779967
 21
185.3584458630317044
 31
0.0
  0
LINE
  5
13738
  8
0
 10
3485.954320320377974
 20
185.3584458630317044
 30
0.0
 11
3485.8617106627780231
 21
185.3584458630317044
 31
0.0
  0
LINE
  5
13739
  8
0
 10
3485.6253302698778498
 20
185.3584458630317044
 30
0.0
 11
3485.4112326778781608
 21
185.3584458630317044
 31
0.0
  0
LINE
  5
1373A
  8
0
 10
3485.3403565098778927
 20
185.3584458630317044
 30
0.0
 11
3485.2482368930777739
 21
185.3584458630317044
 31
0.0
  0
LINE
  5
1373B
  8
0
 10
3484.9536599652778932
 20
185.3584458630317044
 30
0.0
 11
3484.8482733504779389
 21
185.3584458630317044
 31
0.0
  0
LINE
  5
1373C
  8
0
 10
3484.8482733503778945
 20
185.358445863131692
 30
0.0
 11
3484.7736368560781557
 21
185.3584458630317044
 31
0.0
  0
LINE
  5
1373D
  8
0
 10
3484.7268827402781426
 20
185.3584458630317044
 30
0.0
 11
3484.6342730825781473
 21
185.3584458630317044
 31
0.0
  0
LINE
  5
1373E
  8
0
 10
3484.1130199179779083
 20
185.3584458630317044
 30
0.0
 11
3484.020698324678051
 21
185.3584458630317044
 31
0.0
  0
ARC
  5
1373F
  8
0
 10
3486.2414811716780605
 20
185.366319878831689
 30
0.0
 40
0.0078740157
 50
255.3684344927494863
 51
270.0
  0
ARC
  5
13740
  8
0
 10
3486.3340908293780558
 20
185.366319878831689
 30
0.0
 40
0.0078740157
 50
270.0
 51
354.0000000001001013
  0
ARC
  5
13741
  8
0
 10
3487.7514136639779281
 20
185.366319878831689
 30
0.0
 40
0.0078740157
 50
270.0
 51
353.9999999998009912
  0
ARC
  5
13742
  8
0
 10
3486.1399481734779329
 20
185.366319878831689
 30
0.0
 40
0.0078740157
 50
186.0000000001990088
 51
270.0
  0
ARC
  5
13743
  8
0
 10
3486.7566420048779037
 20
185.366319878831689
 30
0.0
 40
0.0078740157
 50
270.0
 51
353.9999999998009912
  0
ARC
  5
13744
  8
0
 10
3486.6640323471779084
 20
185.366319878831689
 30
0.0
 40
0.0078740157
 50
186.0000000001990088
 51
270.0
  0
ARC
  5
13745
  8
0
 10
3487.1817568816768471
 20
185.3663203276402101
 30
0.0
 40
0.0078750759394931
 50
269.286077181230894
 51
353.9975274230786795
  0
ARC
  5
13746
  8
0
 10
3487.0891492991190717
 20
185.3663203696360995
 30
0.0
 40
0.0078751174669197
 50
186.0027480354324894
 51
270.7136473602918727
  0
ARC
  5
13747
  8
0
 10
3487.4949883727549604
 20
185.3663199803536088
 30
0.0
 40
0.0078742394612935
 50
269.6808742238271748
 51
353.9994283486045106
  0
ARC
  5
13748
  8
0
 10
3487.4023791563467967
 20
185.3663199944784026
 30
0.0
 40
0.007874253514961
 50
186.0006642461289061
 51
270.3190324584491009
  0
ARC
  5
13749
  8
0
 10
3487.6868167082780019
 20
185.366319878831689
 30
0.0
 40
0.0078740157
 50
270.0
 51
353.9999999998009912
  0
ARC
  5
1374A
  8
0
 10
3487.5942070645928652
 20
185.3663198855851135
 30
0.0
 40
0.0078740302443528
 50
186.0000382884261967
 51
270.0800812692750128
  0
ARC
  5
1374B
  8
0
 10
3486.0402708470778634
 20
185.366319878831689
 30
0.0
 40
0.0078740157
 50
186.0000000001001865
 51
270.0
  0
ARC
  5
1374C
  8
0
 10
3486.132390468378162
 20
185.366319878831689
 30
0.0
 40
0.0078740157
 50
270.0
 51
298.6798034457883091
  0
ARC
  5
1374D
  8
0
 10
3486.4756744709779923
 20
185.366319878831689
 30
0.0
 40
0.0078740157
 50
186.0000000001001865
 51
270.0
  0
ARC
  5
1374E
  8
0
 10
3486.5677940923778806
 20
185.366319878831689
 30
0.0
 40
0.0078740157
 50
270.0
 51
353.9999999998997851
  0
ARC
  5
1374F
  8
0
 10
3486.7769658144779896
 20
185.366319878831689
 30
0.0
 40
0.0078740157
 50
186.0000000001001865
 51
270.0
  0
ARC
  5
13750
  8
0
 10
3486.8690845700821228
 20
185.366320289367593
 30
0.0
 40
0.0078749196718071
 50
269.3586601885746745
 51
353.9976878704230785
  0
ARC
  5
13751
  8
0
 10
3486.9309770001777906
 20
185.366319878831689
 30
0.0
 40
0.0078740157
 50
186.0000000001001865
 51
270.0
  0
ARC
  5
13752
  8
0
 10
3487.0230966215781336
 20
185.366319878831689
 30
0.0
 40
0.0078740157
 50
270.0
 51
353.9999999998997851
  0
ARC
  5
13753
  8
0
 10
3486.2375021521179406
 20
185.3663201174225037
 30
0.0
 40
0.0078745063372765
 50
269.5416667942787967
 51
353.9986296381487136
  0
ARC
  5
13754
  8
0
 10
3484.1342099591779515
 20
185.366319878831689
 30
0.0
 40
0.0078740157
 50
186.0000000184776923
 51
269.9999999531528942
  0
ARC
  5
13755
  8
0
 10
3484.7736368560781557
 20
185.366319878831689
 30
0.0
 40
0.0078740157
 50
186.0000000001001865
 51
270.0
  0
ARC
  5
13756
  8
0
 10
3485.3403565121780048
 20
185.366319878831689
 30
0.0
 40
0.0078740157
 50
270.0
 51
353.9999999998997851
  0
ARC
  5
13757
  8
0
 10
3485.2482368907781165
 20
185.366319878831689
 30
0.0
 40
0.0078740157
 50
186.0000000001001865
 51
270.0
  0
ARC
  5
13758
  8
0
 10
3484.1154969196782076
 20
185.366319878831689
 30
0.0
 40
0.0078740157
 50
186.0000000001990088
 51
270.0
  0
ARC
  5
13759
  8
0
 10
3484.7268827402781426
 20
185.366319878831689
 30
0.0
 40
0.0078740157
 50
270.0
 51
353.9999999998009912
  0
ARC
  5
1375A
  8
0
 10
3484.6342730825781473
 20
185.366319878831689
 30
0.0
 40
0.0078740157
 50
186.0000000001990088
 51
270.0
  0
ARC
  5
1375B
  8
0
 10
3484.0206004098617996
 20
185.3663204551477008
 30
0.0
 40
0.0078752008421437
 50
186.0033098175703117
 51
270.7123945643710954
  0
ARC
  5
1375C
  8
0
 10
3484.1131091815818763
 20
185.3664046492336013
 30
0.0
 40
0.007959286764448
 50
269.3574128994617922
 51
278.6622434170645874
  0
ARC
  5
1375D
  8
0
 10
3484.2377934508081125
 20
185.366317969924097
 30
0.0
 40
0.0078721171817408
 50
269.9073627501970236
 51
354.0125176919448791
  0
ARC
  5
1375E
  8
0
 10
3484.9537038387820758
 20
185.3663199625657114
 30
0.0
 40
0.0078742217618936
 50
269.6807583403128206
 51
353.9995449552935725
  0
ARC
  5
1375F
  8
0
 10
3484.8610943795779349
 20
185.366319878831689
 30
0.0
 40
0.0078740157
 50
186.0000000001990088
 51
270.0
  0
ARC
  5
13760
  8
0
 10
3485.6254282788190721
 20
185.3663204562558917
 30
0.0
 40
0.0078752031211265
 50
269.2869207855562195
 51
353.9966838187165195
  0
ARC
  5
13761
  8
0
 10
3485.5328197543781243
 20
185.366319878831689
 30
0.0
 40
0.0078740157
 50
186.0000000001990088
 51
270.0
  0
ARC
  5
13762
  8
0
 10
3484.8482733503778945
 20
185.366319878831689
 30
0.0
 40
0.0078740157
 50
186.0000000001001865
 51
270.0
  0
ARC
  5
13763
  8
0
 10
3485.4897841703777885
 20
185.366319878831689
 30
0.0
 40
0.0078740157
 50
186.0000000001001865
 51
270.0
  0
ARC
  5
13764
  8
0
 10
3484.1404957877780362
 20
185.366319878831689
 30
0.0
 40
0.0078740157
 50
186.0000000000013927
 51
269.9999999531528942
  0
ARC
  5
13765
  8
0
 10
3484.8241583370781882
 20
185.366319878831689
 30
0.0
 40
0.0078740157
 50
186.0000000000013927
 51
270.0000000767582833
  0
ARC
  5
13766
  8
0
 10
3485.4112326773779387
 20
185.366319878831689
 30
0.0
 40
0.0078740157
 50
186.0000000000013927
 51
270.0
  0
ARC
  5
13767
  8
0
 10
3485.954320320377974
 20
185.366319878831689
 30
0.0
 40
0.0078740157
 50
270.0
 51
353.9999999999985221
  0
ARC
  5
13768
  8
0
 10
3485.8617106627780231
 20
185.366319878831689
 30
0.0
 40
0.0078740157
 50
186.0000000000013927
 51
270.0
  0
LINE
  5
13769
  8
0
 10
3498.5841639944851522
 20
143.6043513006898991
 30
0.0
 11
3494.0744164986549549
 21
143.6043513006898991
 31
0.0
  0
LINE
  5
1376A
  8
0
 10
3494.81547675647289
 20
142.6615023819051089
 30
0.0
 11
3494.7910193023330976
 21
142.6615023819051089
 31
0.0
  0
ENDSEC
  0
EOF
