  0
SECTION
  2
HEADER
  9
$ACADVER
  1
AC1009
  9
$INSBASE
 10
364.5462973274363208
 20
-8.5090724166182081
 30
0.0
  9
$EXTMIN
 10
336.7706698749839234
 20
-8.509910804507804
 30
-0.0000000000112498
  9
$EXTMAX
 10
364.5576708676168778
 20
20.9597181549459215
 30
0.0000000000002956
  9
$LIMMIN
 10
0.0
 20
0.0
  9
$LIMMAX
 10
22.0
 20
17.0
  9
$ORTHOMODE
 70
     0
  9
$REGENMODE
 70
     1
  9
$FILLMODE
 70
     1
  9
$QTEXTMODE
 70
     0
  9
$MIRRTEXT
 70
     0
  9
$DRAGMODE
 70
     2
  9
$LTSCALE
 40
1.2099999999999991
  9
$OSMODE
 70
     7
  9
$ATTMODE
 70
     1
  9
$TEXTSIZE
 40
0.2
  9
$TRACEWID
 40
0.05
  9
$TEXTSTYLE
  7
STANDARD
  9
$CLAYER
  8
0
  9
$CELTYPE
  6
BYLAYER
  9
$CECOLOR
 62
   256
  9
$DIMSCALE
 40
1.0
  9
$DIMASZ
 40
0.1875
  9
$DIMEXO
 40
0.0625
  9
$DIMDLI
 40
0.38
  9
$DIMRND
 40
0.0
  9
$DIMDLE
 40
0.0
  9
$DIMEXE
 40
0.125
  9
$DIMTP
 40
1.5
  9
$DIMTM
 40
1.5
  9
$DIMTXT
 40
1.5
  9
$DIMCEN
 40
0.09
  9
$DIMTSZ
 40
0.0
  9
$DIMTOL
 70
     0
  9
$DIMLIM
 70
     0
  9
$DIMTIH
 70
     1
  9
$DIMTOH
 70
     1
  9
$DIMSE1
 70
     0
  9
$DIMSE2
 70
     0
  9
$DIMTAD
 70
     0
  9
$DIMZIN
 70
     4
  9
$DIMBLK
  1

  9
$DIMASO
 70
     1
  9
$DIMSHO
 70
     1
  9
$DIMPOST
  1

  9
$DIMAPOST
  1

  9
$DIMALT
 70
     0
  9
$DIMALTD
 70
     2
  9
$DIMALTF
 40
25.3999999999999986
  9
$DIMLFAC
 40
1.0
  9
$DIMTOFL
 70
     0
  9
$DIMTVP
 40
0.0
  9
$DIMTIX
 70
     0
  9
$DIMSOXD
 70
     0
  9
$DIMSAH
 70
     0
  9
$DIMBLK1
  1

  9
$DIMBLK2
  1

  9
$DIMSTYLE
  2
STANDARD
  9
$DIMCLRD
 70
     0
  9
$DIMCLRE
 70
     0
  9
$DIMCLRT
 70
     0
  9
$DIMTFAC
 40
1.0
  9
$DIMGAP
 40
0.09
  9
$LUNITS
 70
     2
  9
$LUPREC
 70
     4
  9
$SKETCHINC
 40
0.1
  9
$FILLETRAD
 40
0.0
  9
$AUNITS
 70
     0
  9
$AUPREC
 70
     0
  9
$MENU
  1
.
  9
$ELEVATION
 40
0.0
  9
$PELEVATION
 40
0.0
  9
$THICKNESS
 40
0.0
  9
$LIMCHECK
 70
     0
  9
$BLIPMODE
 70
     0
  9
$CHAMFERA
 40
0.0
  9
$CHAMFERB
 40
0.0
  9
$SKPOLY
 70
     0
  9
$TDCREATE
 40
2457827.4934837957844138
  9
$TDUPDATE
 40
2459528.5747222220525146
  9
$TDINDWG
 40
0.4445390046
  9
$TDUSRTIMER
 40
0.4445390046
  9
$USRTIMER
 70
     1
  9
$ANGBASE
 50
0.0
  9
$ANGDIR
 70
     0
  9
$PDMODE
 70
     0
  9
$PDSIZE
 40
0.3125
  9
$PLINEWID
 40
0.0
  9
$COORDS
 70
     1
  9
$SPLFRAME
 70
     0
  9
$SPLINETYPE
 70
     6
  9
$SPLINESEGS
 70
     8
  9
$ATTDIA
 70
     1
  9
$ATTREQ
 70
     1
  9
$HANDLING
 70
     1
  9
$HANDSEED
  5
5DFD
  9
$SURFTAB1
 70
     6
  9
$SURFTAB2
 70
     6
  9
$SURFTYPE
 70
     6
  9
$SURFU
 70
     6
  9
$SURFV
 70
     6
  9
$UCSNAME
  2

  9
$UCSORG
 10
0.0
 20
0.0
 30
0.0
  9
$UCSXDIR
 10
1.0
 20
0.0
 30
0.0
  9
$UCSYDIR
 10
0.0
 20
1.0
 30
0.0
  9
$PUCSNAME
  2

  9
$PUCSORG
 10
0.0
 20
0.0
 30
0.0
  9
$PUCSXDIR
 10
1.0
 20
0.0
 30
0.0
  9
$PUCSYDIR
 10
0.0
 20
1.0
 30
0.0
  9
$USERI1
 70
     0
  9
$USERI2
 70
     0
  9
$USERI3
 70
     0
  9
$USERI4
 70
     0
  9
$USERI5
 70
     0
  9
$USERR1
 40
0.0
  9
$USERR2
 40
0.0
  9
$USERR3
 40
0.0
  9
$USERR4
 40
0.0
  9
$USERR5
 40
0.0
  9
$WORLDVIEW
 70
     1
  9
$SHADEDGE
 70
     3
  9
$SHADEDIF
 70
    70
  9
$TILEMODE
 70
     1
  9
$MAXACTVP
 70
    48
  9
$PLIMCHECK
 70
     0
  9
$PEXTMIN
 10
1.0000000000000000E+20
 20
1.0000000000000000E+20
 30
1.0000000000000000E+20
  9
$PEXTMAX
 10
-1.0000000000000000E+20
 20
-1.0000000000000000E+20
 30
-1.0000000000000000E+20
  9
$PLIMMIN
 10
0.0
 20
0.0
  9
$PLIMMAX
 10
12.0
 20
9.0
  9
$UNITMODE
 70
     0
  9
$VISRETAIN
 70
     1
  9
$PLINEGEN
 70
     0
  9
$PSLTSCALE
 70
     1
  0
ENDSEC
  0
SECTION
  2
TABLES
  0
TABLE
  2
VPORT
 70
     1
  0
VPORT
  2
*ACTIVE
 70
     0
 10
0.0
 20
0.0
 11
1.0
 21
1.0
 12
139.6852427589957131
 22
-0.9775455103415033
 13
0.0
 23
0.0
 14
1.0
 24
1.0
 15
0.0
 25
0.0
 16
-0.0000000000000284
 26
0.0
 36
157.2215818301446859
 17
210.9789276123046875
 27
7.2024491855605604
 37
0.0
 40
29.674042570733171
 41
2.2118055555555549
 42
50.0
 43
0.0
 44
0.0
 50
0.0
 51
0.0
 71
     0
 72
   100
 73
     1
 74
     1
 75
     0
 76
     0
 77
     0
 78
     0
  0
ENDTAB
  0
TABLE
  2
LTYPE
 70
     2
  0
LTYPE
  2
CONTINUOUS
 70
     0
  3
Solid line
 72
    65
 73
     0
 40
0.0
  0
LTYPE
  2
PHANTOM2
 70
     0
  3
___ _ _ ___ _ _ ___ _ _ ___ _ _
 72
    65
 73
     6
 40
1.25
 49
0.625
 49
-0.125
 49
0.125
 49
-0.125
 49
0.125
 49
-0.125
  0
ENDTAB
  0
TABLE
  2
LAYER
 70
     2
  0
LAYER
  2
0
 70
     0
 62
     7
  6
CONTINUOUS
  0
LAYER
  2
DEFPOINTS
 70
     0
 62
     7
  6
CONTINUOUS
  0
ENDTAB
  0
TABLE
  2
STYLE
 70
     1
  0
STYLE
  2
STANDARD
 70
     0
 40
0.0
 41
0.8
 50
0.0
 71
     0
 42
0.2
  3
txt
  4

  0
ENDTAB
  0
TABLE
  2
VIEW
 70
     0
  0
ENDTAB
  0
TABLE
  2
UCS
 70
     0
  0
ENDTAB
  0
TABLE
  2
APPID
 70
     9
  0
APPID
  2
ACAD
 70
     0
  0
APPID
  2
ACAD_MLEADERVER
 70
     0
  0
APPID
  2
ACAD_EXEMPT_FROM_CAD_STANDARDS
 70
     0
  0
APPID
  2
ACAD_NAV_VCDISPLAY
 70
     0
  0
APPID
  2
ACADANNOMONITORALERTICONDI
 70
     0
  0
APPID
  2
ACAD_DSTYLE_DIMJAG
 70
     0
  0
APPID
  2
ACAD_DSTYLE_DIMTALN
 70
     0
  0
APPID
  2
ACDBATTR
 70
     0
  0
APPID
  2
DCO15
 70
     0
  0
ENDTAB
  0
TABLE
  2
DIMSTYLE
 70
     1
  0
DIMSTYLE
  2
STANDARD
 70
     0
  3

  4

  5

  6

  7

 40
1.0
 41
0.1875
 42
0.0625
 43
0.38
 44
0.125
 45
0.0
 46
0.0
 47
1.5
 48
1.5
140
1.5
141
0.09
142
0.0
143
25.3999999999999986
144
1.0
145
0.0
146
1.0
147
0.09
 71
     0
 72
     0
 73
     1
 74
     1
 75
     0
 76
     0
 77
     0
 78
     4
170
     0
171
     2
172
     0
173
     0
174
     0
175
     0
176
     0
177
     0
178
     0
  0
ENDTAB
  0
ENDSEC
  0
SECTION
  2
BLOCKS
  0
BLOCK
  8
0
  2
$MODEL_SPACE
 70
     0
 10
0.0
 20
0.0
 30
0.0
  3
$MODEL_SPACE
  1

  0
ENDBLK
  5
21
  8
0
  0
BLOCK
 67
     1
  8
0
  2
$PAPER_SPACE
 70
     0
 10
0.0
 20
0.0
 30
0.0
  3
$PAPER_SPACE
  1

  0
ENDBLK
  5
1D
 67
     1
  8
0
  0
ENDSEC
  0
SECTION
  2
ENTITIES
  0
ATTDEF
  5
4EF9
  8
DEFPOINTS
 10
364.5462873823469749
 20
-8.5056773760447903
 30
0.0
 40
0.001
  1
K-31190K-HC
  3

  2
MODELNUMBER
 70
     0
1001
ACDBATTR
1070
     0
1070
     1
  0
ATTDEF
  5
4EFA
  8
DEFPOINTS
 10
364.5462873823469749
 20
-8.5073440427114697
 30
0.0
 40
0.001
  1
VEIL
  3

  2
TRADENAME
 70
     0
1001
ACDBATTR
1070
     0
1070
     1
  0
ATTDEF
  5
4EFB
  8
DEFPOINTS
 10
364.5462873823469749
 20
-8.5090107093781491
 30
0.0
 40
0.001
  1
TOILET
  3

  2
PRODUCT
 70
     0
1001
ACDBATTR
1070
     0
1070
     1
  0
LINE
  5
5C4C
  8
0
 10
357.9161216995362906
 20
-8.5090724166182081
 30
0.0
 11
341.1989243014577937
 21
-8.5090724166182081
 31
0.0
  0
LINE
  5
5C4D
  8
0
 10
363.3098951266806012
 20
7.238959079481794
 30
0.0
 11
337.0103013898703921
 21
7.238959079481794
 31
0.0
  0
ARC
  5
5C4E
  8
0
 10
355.9298339351968821
 20
0.7960801392081294
 30
0.0
 40
5.0232004316809853
 50
93.4492589188651124
 51
119.029393803094905
  0
ARC
  5
5C4F
  8
0
 10
355.6710437735798109
 20
2.2790011703337489
 30
0.0
 40
3.6346317611608239
 50
126.8301091345057046
 51
162.7861375236240065
  0
ARC
  5
5C50
  8
0
 10
366.7178759043271725
 20
-1.065655459093896
 30
0.0
 40
15.1766378326822995
 50
163.0668353199073124
 51
176.470485697505211
  0
ARC
  5
5C51
  8
0
 10
418.2120278012820904
 20
-4.5176976213276197
 30
0.0
 40
66.7862013109971144
 50
176.2342405856626044
 51
178.2541550386617928
  0
ARC
  5
5C52
  8
0
 10
431.9687966204418217
 20
-5.5918023179396883
 30
0.0
 40
80.5719662677898754
 50
177.7887320959723922
 51
179.4631020856471935
  0
ARC
  5
5C53
  8
0
 10
363.3097758277468756
 20
7.0024374193437131
 30
0.0
 40
0.2365216902246006
 50
0.0727260294579086
 51
89.971100639106325
  0
ARC
  5
5C54
  8
0
 10
357.4338955863361775
 20
7.4358094731817408
 30
0.0
 40
0.1968503936999557
 50
269.9999999999919282
 51
357.0000000000136993
  0
ARC
  5
5C55
  8
0
 10
357.8343265626533025
 20
7.5539197093389134
 30
0.0
 40
0.1968503937428778
 50
90.0000000049781477
 51
176.9999999855596116
  0
ARC
  5
5C56
  8
0
 10
358.8993343055936975
 20
7.5554287364078396
 30
0.0
 40
0.1955658847013863
 50
92.7457326532322242
 51
177.4229289573349888
  0
ARC
  5
5C57
  8
0
 10
358.5077070143619267
 20
7.4300815723439291
 30
0.0
 40
0.1911920417906528
 50
271.5454718975680066
 51
358.6290127605324756
  0
ARC
  5
5C58
  8
0
 10
337.0103146130716141
 20
7.0027299506165326
 30
0.0
 40
0.2362291292353392
 50
90.0032071979126584
 51
208.509113534918697
  0
ARC
  5
5C59
  8
0
 10
306.8529542762366873
 20
-9.9872743531754331
 30
0.0
 40
34.3777651678910487
 50
2.4644083799892971
 51
29.4020632614347512
  0
LINE
  5
5C5A
  8
0
 10
357.3284999247547944
 20
20.9594315203817914
 30
0.0
 11
363.4281870911714236
 21
20.9594315203817914
 31
0.0
  0
ARC
  5
5C5B
  8
0
 10
357.3284999247547944
 20
20.8413169053357699
 30
0.0
 40
0.1181146150817247
 50
90.0
 51
181.2800686619831083
  0
LINE
  5
5C5C
  8
0
 10
357.2104147862361856
 20
20.8386782774818009
 30
0.0
 11
357.5004088264362281
 21
7.8662446190818036
 31
0.0
  0
LINE
  5
5C5D
  8
0
 10
358.6466960253362117
 20
20.8386696298817711
 30
0.0
 11
358.831066746536294
 21
7.866252817881807
 31
0.0
  0
ARC
  5
5C5E
  8
0
 10
358.7641448454490956
 20
20.8421959631632703
 30
0.0
 40
0.1175017462522431
 50
93.8573813061790219
 51
181.7197561871265066
  0
ARC
  5
5C5F
  8
0
 10
359.0111913047766166
 20
20.8413211738754498
 30
0.0
 40
0.1181102467063409
 50
0.8244825375579015
 51
89.9999624405954677
  0
LINE
  5
5C60
  8
0
 10
359.1292893231362768
 20
20.8430207139818116
 30
0.0
 11
359.1332666451361888
 21
20.5621002408817901
 31
0.0
  0
ARC
  5
5C61
  8
0
 10
359.2686442057120075
 20
20.5849043949326891
 30
0.0
 40
0.137284789213619
 50
189.5616286110908106
 51
269.7935662068239253
  0
LINE
  5
5C62
  8
0
 10
359.2429589295363144
 20
20.8386084466817998
 30
0.0
 11
359.2469063831362064
 21
20.5630183287817907
 31
0.0
  0
ARC
  5
5C63
  8
0
 10
359.3569090493759859
 20
20.8453864964440889
 30
0.0
 40
0.1141515298630914
 50
92.4752406013286219
 51
183.4040911359319921
  0
LINE
  5
5C64
  8
0
 10
359.2681495766369153
 20
20.4476204967817914
 30
0.0
 11
363.428185226036021
 21
20.4476204967817914
 31
0.0
  0
ARC
  5
5C65
  8
0
 10
359.360838089806407
 20
20.5613377385076284
 30
0.0
 40
0.1139441010690825
 50
179.1548994601168943
 51
266.3838859103187815
  0
ARC
  5
5C66
  8
0
 10
363.4281870912337808
 20
20.8413212841760114
 30
0.0
 40
0.1181102362057817
 50
0.0
 51
90.0000000302695184
  0
LINE
  5
5C67
  8
0
 10
363.5462973274363208
 20
20.8413212841760114
 30
0.0
 11
363.5462973274363208
 21
20.5657299721638083
 31
0.0
  0
ARC
  5
5C68
  8
0
 10
363.428187091209395
 20
20.5657307329963608
 30
0.0
 40
0.1181102362292931
 50
269.9990951965451131
 51
359.9996309168860193
  0
ARC
  5
5C69
  8
0
 10
363.4281870912111003
 20
20.3295102605713787
 30
0.0
 40
0.1181102362251423
 50
0.0000000000034604
 51
90.0009048044124143
  0
LINE
  5
5C6A
  8
0
 10
363.5462973274363208
 20
20.3295102605713893
 30
0.0
 11
363.5462973274363208
 21
7.8688803392871938
 31
0.0
  0
LINE
  5
5C6B
  8
0
 10
363.5462973274363208
 20
7.7507701030817913
 30
0.0
 11
363.5462973274363208
 21
4.148750845885651
 31
0.0
  0
ARC
  5
5C6C
  8
0
 10
363.4281870912340082
 20
7.8688803392871938
 30
0.0
 40
0.1181102362054029
 50
270.0000000010845156
 51
0.0
  0
ARC
  5
5C6D
  8
0
 10
357.6184873536685132
 20
7.8688779912272722
 30
0.0
 40
0.1181078881454732
 50
181.2775913289897005
 51
270.0000000139704071
  0
ARC
  5
5C6E
  8
0
 10
358.9452472916092916
 20
7.8648842759459461
 30
0.0
 40
0.1141887462940876
 50
179.3132987546740083
 51
267.9291818316473268
  0
LINE
  5
5C6F
  8
0
 10
357.6184873536972191
 20
7.7507701030817913
 30
0.0
 11
363.5462973274363208
 21
7.7507701030817913
 31
0.0
  0
LINE
  5
5C71
  8
0
 10
356.0235109616684213
 20
7.238959079481794
 30
0.0
 11
356.0079827638900838
 21
7.5352547444289684
 31
0.0
  0
LINE
  5
5C72
  8
0
 10
355.9883247021900843
 20
7.5539095484289751
 30
0.0
 11
354.962693385890077
 21
7.5539095484289751
 31
0.0
  0
ARC
  5
5C73
  8
0
 10
354.962693385890077
 20
7.534224509066461
 30
0.0
 40
0.019685039362507
 50
90.0
 51
176.9999999889531068
  0
LINE
  5
5C74
  8
0
 10
354.9430353241900775
 20
7.5352547444289684
 30
0.0
 11
354.9398863841901175
 21
7.4751693909289676
 31
0.0
  0
ARC
  5
5C75
  8
0
 10
354.6252362506793929
 20
7.4916680900983499
 30
0.0
 40
0.3150823917527045
 50
321.8359189112010768
 51
356.9984411155957105
  0
ARC
  5
5C76
  8
0
 10
355.9883247022158912
 20
7.5342245090936748
 30
0.0
 40
0.0196850393352905
 50
2.9999999358734541
 51
90.0000000751347642
  0
ARC
  5
5C77
  8
0
 10
355.9866056314642151
 20
7.5735970229178511
 30
0.0
 40
0.0197623848740768
 50
274.9902953385058026
 51
1.8101158115279921
  0
LINE
  5
5C78
  8
0
 10
356.0063581548901084
 20
7.574221261828967
 30
0.0
 11
355.9883178191901152
 21
8.1406157708289726
 31
0.0
  0
ARC
  5
5C79
  8
0
 10
357.9557227263715049
 20
8.2032805399486932
 30
0.0
 40
1.9684026371884471
 50
180.0894178628861937
 51
181.8243389233199991
  0
LINE
  5
5C7A
  8
0
 10
355.9655537663185214
 20
8.3512321563037233
 30
0.0
 11
355.7011125936900839
 21
9.2518765305289747
 31
0.0
  0
ARC
  5
5C7B
  8
0
 10
355.587786709531315
 20
9.2186004529388867
 30
0.0
 40
0.1181103440015461
 50
16.3639136182955909
 51
107.4159474976817989
  0
LINE
  5
5C7C
  8
0
 10
355.5524355299766057
 20
9.3312962712475525
 30
0.0
 11
355.2156565860776141
 21
9.229160843750094
 31
0.0
  0
ARC
  5
5C7D
  8
0
 10
347.710511253103391
 20
35.2592187960481525
 30
0.0
 40
27.0904256807286892
 50
282.315804162668428
 51
286.0836329800760041
  0
ARC
  5
5C7E
  8
0
 10
348.4271300050901914
 20
32.4350157987692711
 30
0.0
 40
24.178559497664871
 50
270.7316469542259938
 51
282.084225501290689
  0
ARC
  5
5C7F
  8
0
 10
336.8956144313581831
 20
8.1373960489123505
 30
0.0
 40
0.1181175887740741
 50
90.0064887004212721
 51
178.9829457190255937
  0
LINE
  5
5C80
  8
0
 10
348.5549318349554824
 20
8.255513636928967
 30
0.0
 11
336.8956010546204993
 21
8.255513636928967
 31
0.0
  0
ARC
  5
5C81
  8
0
 10
349.4176266028213149
 20
-39.6940064018317429
 30
0.0
 40
47.9572800960398311
 50
90.8145353891621596
 51
91.0307389271080325
  0
LINE
  5
5C82
  8
0
 10
336.7747301304901271
 20
7.9799195035289747
 30
0.0
 11
348.5391205172110176
 21
7.9799195035289747
 31
0.0
  0
LINE
  5
5C83
  8
0
 10
336.7747301304901271
 20
7.9799195035289747
 30
0.0
 11
336.7775154512901281
 21
8.1394926377289778
 31
0.0
  0
LINE
  5
5C84
  8
0
 10
336.7770290837901257
 20
7.4947420201289674
 30
0.0
 11
348.3524133028993219
 21
7.4947420201289674
 31
0.0
  0
ARC
  5
5C85
  8
0
 10
336.8951196068198897
 20
7.6172592733885258
 30
0.0
 40
0.1181108204589055
 50
91.7649860148960812
 51
178.9377676506796035
  0
LINE
  5
5C86
  8
0
 10
347.6073926670309788
 20
7.7353140584292239
 30
0.0
 11
348.427549784802693
 21
7.735314058428969
 31
0.0
  0
LINE
  5
5C87
  8
0
 10
341.9686928365600807
 20
7.8241909341289784
 30
0.0
 11
340.8914456153200945
 21
7.8241909341289642
 31
0.0
  0
ARC
  5
5C88
  8
0
 10
340.8916942899220999
 20
7.8438743840536773
 30
0.0
 40
0.019685020700925
 50
202.3455466112880003
 51
269.2761813987058872
  0
ARC
  5
5C89
  8
0
 10
340.655694185330276
 20
7.7468644537190121
 30
0.0
 40
0.2354756658299088
 50
22.3455466112881993
 51
81.7775677746219145
  0
LINE
  5
5C8A
  8
0
 10
340.8889810927901181
 20
7.7651358160289732
 30
0.0
 11
340.8889810927901181
 21
7.8243772406393362
 31
0.0
  0
ARC
  5
5C8B
  8
0
 10
340.9297209147557055
 20
7.7655419506229171
 30
0.0
 40
0.0407418462896776
 50
180.5711617335406913
 51
208.9416493715083902
  0
ARC
  5
5C8C
  8
0
 10
341.9684441619581889
 20
7.8438743840536773
 30
0.0
 40
0.019685020700925
 50
270.7238186012939991
 51
337.6544533887119997
  0
ARC
  5
5C8D
  8
0
 10
342.2044442665498991
 20
7.7468644537190121
 30
0.0
 40
0.2354756658299088
 50
98.2224322253780713
 51
157.6544533887118007
  0
LINE
  5
5C8E
  8
0
 10
341.9711573590901139
 20
7.7651358160289732
 30
0.0
 11
341.9711573590901139
 21
7.8243772406393362
 31
0.0
  0
ARC
  5
5C8F
  8
0
 10
341.9304175371245833
 20
7.7655419506229171
 30
0.0
 40
0.0407418462896776
 50
335.2813549064085237
 51
359.4288382664590813
  0
ARC
  5
5C90
  8
0
 10
342.9750890418357017
 20
-610.4275574063047998
 30
0.0
 40
618.1768839103508526
 50
90.0933953526989768
 51
90.192442564521059
  0
ARC
  5
5C91
  8
0
 10
337.2189690983630044
 20
-2.8846458025964661
 30
0.0
 40
10.6250080178975299
 50
90.6234981240355353
 51
91.7662680570391132
  0
ARC
  5
5C92
  8
0
 10
337.7801707547906176
 20
-117.4066368244376974
 30
0.0
 40
125.1482001333452985
 50
89.6709580538215647
 51
90.3098663599262039
  0
ARC
  5
5C93
  8
0
 10
323.5349776728796201
 20
6126.3105202932019893
 30
0.0
 40
6118.5893189241178334
 50
270.1401252858976818
 51
270.1625986476681192
  0
ARC
  5
5C94
  8
0
 10
344.1106696017805007
 20
-1040.1019773408079345
 30
0.0
 40
1047.852674432996082
 50
89.9800963767532949
 51
90.1171909797397745
  0
ARC
  5
5C95
  8
0
 10
344.3584381967048103
 20
-326.8602706195799783
 30
0.0
 40
334.6109246763751912
 50
89.6387916082666578
 51
89.9800963767532949
  0
ARC
  5
5C96
  8
0
 10
311.7833487373152934
 20
-4614.6859344042941302
 30
0.0
 40
4622.5600656306432938
 50
89.5559631373504743
 51
89.5700873031092755
  0
ARC
  5
5C97
  8
0
 10
348.1946821153393898
 20
35.6992050636789386
 30
0.0
 40
27.9648605844009417
 50
270.4771162297070077
 51
271.9264961665115834
  0
ARC
  5
5C98
  8
0
 10
348.1406295938263042
 20
36.2699466917038222
 30
0.0
 40
28.5371179808679685
 50
271.9964369003703837
 51
275.9883688888411939
  0
ARC
  5
5C99
  8
0
 10
348.5399055507642174
 20
31.9893092593039405
 30
0.0
 40
24.2382350103184088
 50
276.1053494774881187
 51
282.6344125415039912
  0
ARC
  5
5C9A
  8
0
 10
348.7215936440941846
 20
30.7055532765150687
 30
0.0
 40
22.9460573859416002
 50
282.8928667566755166
 51
285.9428232415638718
  0
LINE
  5
5C9B
  8
0
 10
355.0243697362901116
 20
8.6420865704289724
 30
0.0
 11
355.7031920321902021
 21
8.8306108340289722
 31
0.0
  0
LINE
  5
5C9C
  8
0
 10
336.7770290837901257
 20
7.4947420201289674
 30
0.0
 11
336.7770290837901257
 21
7.6194488578293109
 31
0.0
  0
ARC
  5
5C9D
  8
0
 10
348.2019899360512909
 20
39.7286978877591324
 30
0.0
 40
31.7505682771145494
 50
270.608383518004473
 51
272.1173336130929101
  0
ARC
  5
5C9E
  8
0
 10
348.422977661464472
 20
33.7514160519404314
 30
0.0
 40
25.7692027374077988
 50
272.1173336130929101
 51
276.951063003238005
  0
ARC
  5
5C9F
  8
0
 10
349.0289838076270144
 20
28.7807979316597518
 30
0.0
 40
20.7617794532376401
 50
276.951063003238005
 51
284.4791574801810725
  0
ARC
  5
5CA0
  8
0
 10
348.3747963134470069
 20
32.7488964628129082
 30
0.0
 40
24.7700086195623292
 50
283.649356939901395
 51
284.6710588009485718
  0
ARC
  5
5CA1
  8
0
 10
354.707839612072803
 20
8.5571348973765993
 30
0.0
 40
0.2369661737251474
 50
79.8711662131080971
 51
104.5570242240896022
  0
ARC
  5
5CA2
  8
0
 10
354.7078913799900874
 20
8.5578831704289655
 30
0.0
 40
0.2362204724000048
 50
14.5399004596303598
 51
79.8516087967846175
  0
ARC
  5
5CA3
  8
0
 10
355.734832641008893
 20
8.7168066794241792
 30
0.0
 40
0.1181207591058225
 50
68.3678759124032638
 51
105.5373578274950006
  0
ARC
  5
5CA4
  8
0
 10
355.7348386580160877
 20
8.71682185179057
 30
0.0
 40
0.1181044371856656
 50
26.9498461865534793
 51
68.3678759124032638
  0
ARC
  5
5CA5
  8
0
 10
355.6953025256253227
 20
8.6989680632461983
 30
0.0
 40
0.161451038105155
 50
18.4821391534597197
 51
26.2389124918729308
  0
ARC
  5
5CA6
  8
0
 10
349.1094903045159867
 20
30.0902101555371893
 30
0.0
 40
22.0119629126070109
 50
284.5737708259670171
 51
286.3178689046399086
  0
ARC
  5
5CA7
  8
0
 10
350.0874641712853759
 20
26.742936663773861
 30
0.0
 40
18.5247479117286602
 50
286.3237185791628008
 51
287.7817457022355825
  0
ARC
  5
5CA8
  8
0
 10
352.5209504402321272
 20
5.5391829192344133
 30
0.0
 40
1.968582456441246
 50
107.8443774620762952
 51
120.2936060595349943
  0
ARC
  5
5CA9
  8
0
 10
401.7203614086819243
 20
-147.3116051784423917
 30
0.0
 40
162.5423831254701952
 50
106.7601764767000958
 51
107.8422862137999942
  0
ARC
  5
5CAA
  8
0
 10
354.8257797110480851
 20
8.4016530054145022
 30
0.0
 40
0.0790194356976902
 50
286.7926776422686999
 51
304.8680302499259938
  0
ARC
  5
5CAB
  8
0
 10
348.0720390487639975
 20
36.9913929058414297
 30
0.0
 40
29.4979833750713105
 50
270.5445966638569075
 51
273.3759648117066945
  0
ARC
  5
5CAC
  8
0
 10
348.2747452992376793
 20
34.1326443513849327
 30
0.0
 40
26.6322806672717398
 50
273.302797704388297
 51
278.1700548904332777
  0
ARC
  5
5CAD
  8
0
 10
348.1654100234804901
 20
34.348065411038867
 30
0.0
 40
26.8611652783803692
 50
278.3356036403941971
 51
284.1852275349389743
  0
ARC
  5
5CAE
  8
0
 10
341.5181003526101904
 20
61.2626079228141194
 30
0.0
 40
54.5842261883676301
 50
284.026742042679416
 51
284.7687295293964098
  0
ARC
  5
5CAF
  8
0
 10
352.9005185241665004
 20
18.3639097180618514
 30
0.0
 40
10.2014481091556295
 50
284.3715281798419028
 51
287.0375444839739885
  0
ARC
  5
5CB0
  8
0
 10
354.8965826468207752
 20
8.2845487086582068
 30
0.0
 40
0.0704288138810559
 50
22.4498403313991801
 51
68.1605738086801409
  0
ARC
  5
5CB1
  8
0
 10
346.1213413452666146
 20
7.8217494174711808
 30
0.0
 40
8.8496028664148394
 50
2.3362749667012652
 51
3.2339934893720388
  0
ARC
  5
5CB2
  8
0
 10
352.9950246315465847
 20
8.2032871838250259
 30
0.0
 40
1.968673441535862
 50
358.1757186519039919
 51
359.3949483951478214
  0
LINE
  5
5CB3
  8
0
 10
354.9627002687901154
 20
8.1406157708289726
 30
0.0
 11
354.9446599331901098
 21
7.574221261828967
 31
0.0
  0
ARC
  5
5CB4
  8
0
 10
354.9644071261650993
 20
7.5735922903563164
 30
0.0
 40
0.0197572071788777
 50
178.175678353406397
 51
265.0239104965705224
  0
ARC
  5
5CB5
  8
0
 10
355.4755090439900869
 20
8.203515847628978
 30
0.0
 40
0.5118241277337505
 50
176.5084948927608934
 51
16.7746105591711512
  0
ARC
  5
5CB6
  8
0
 10
346.4207472625407149
 20
8.6914318195364757
 30
0.0
 40
8.5560874973956569
 50
356.9399517707723817
 51
357.2683347618719267
  0
ARC
  5
5CB7
  8
0
 10
354.8970708329118224
 20
8.2843740938442494
 30
0.0
 40
0.0700451698231748
 50
359.4171709418312162
 51
22.7343420630302617
  0
LINE
  5
5CB8
  8
0
 10
348.5940539635901132
 20
7.7631919149289672
 30
0.0
 11
349.7193696559900786
 21
7.8024888048289682
 31
0.0
  0
ARC
  5
5CB9
  8
0
 10
348.2973499692126893
 20
7.7361747312105811
 30
0.0
 40
0.2437799725924844
 50
32.7966474643749279
 51
89.0263186157913253
  0
ARC
  5
5CBA
  8
0
 10
348.5188945275829724
 20
7.878745788865487
 30
0.0
 40
0.01967552983235
 50
212.3405570982941128
 51
272.0545113105027895
  0
LINE
  5
5CBB
  8
0
 10
348.5195999012901211
 20
7.8590829070289772
 30
0.0
 11
349.7874265715901174
 21
7.9033501493289711
 31
0.0
  0
ARC
  5
5CBC
  8
0
 10
349.786739337487802
 20
7.9230327335228159
 30
0.0
 40
0.0196945782198846
 50
271.9997183170813173
 51
329.7336234416126217
  0
ARC
  5
5CBD
  8
0
 10
350.0087879793861134
 20
7.7930311906998488
 30
0.0
 40
0.2376107102836767
 50
94.471109195603205
 51
149.6458324721481006
  0
LINE
  5
5CBE
  8
0
 10
348.5533440458901282
 20
7.8011643698289674
 30
0.0
 11
348.5512828553482905
 21
7.8601891442118008
 31
0.0
  0
ARC
  5
5CBF
  8
0
 10
348.5927037423921888
 20
7.8025529458454619
 30
0.0
 40
0.039384182765316
 50
182.0205075219018909
 51
271.9646754906693786
  0
LINE
  5
5CC0
  8
0
 10
349.7573316062901085
 20
7.8432085419289734
 30
0.0
 11
349.7552706224510075
 21
7.9022273971221599
 31
0.0
  0
ARC
  5
5CC1
  8
0
 10
349.7179708938876956
 20
7.8418481716026767
 30
0.0
 40
0.0393842136933919
 50
272.0353338421468834
 51
1.9794475527538311
  0
ARC
  5
5CC2
  8
0
 10
348.3775819111265264
 20
7.2805594927822019
 30
0.0
 40
0.1962302825975778
 50
41.2160983888360235
 51
90.2682093301780526
  0
ARC
  5
5CC3
  8
0
 10
348.5583968244924904
 20
7.4401719714589296
 30
0.0
 40
0.0449624210225467
 50
222.3963983304182932
 51
256.6573682046648059
  0
LINE
  5
5CC4
  8
0
 10
348.5434284790900961
 20
7.3373843739817914
 30
0.0
 11
348.5434284790900961
 21
7.3964232016703297
 31
0.0
  0
LINE
  5
5CC5
  8
0
 10
348.5434284790900961
 20
7.3964232016703297
 30
0.0
 11
349.7481499231901125
 21
7.3964232016703297
 31
0.0
  0
LINE
  5
5CC6
  8
0
 10
349.7481499231901125
 20
7.3964232016703297
 30
0.0
 11
349.7481499231901125
 21
7.3373110069001584
 31
0.0
  0
ARC
  5
5CC7
  8
0
 10
348.4075775487835926
 20
7.4206836050513374
 30
0.0
 40
0.0640573944339134
 50
94.7139651254211259
 51
118.8554690851303945
  0
ARC
  5
5CC8
  8
0
 10
348.6851454545022193
 20
3.755841686134147
 30
0.0
 40
3.7393941008890832
 50
91.6392766702899735
 51
94.3377573307332966
  0
ARC
  5
5CC9
  8
0
 10
345.9963073494229775
 20
112.5260317510509935
 30
0.0
 40
105.0640547908495961
 50
271.4081400461798808
 51
271.988012354343482
  0
ARC
  5
5CCA
  8
0
 10
349.8136489715196831
 20
2.6794721204754519
 30
0.0
 40
4.8488160824633191
 50
88.8594312303364831
 51
92.0402759478935053
  0
ARC
  5
5CCB
  8
0
 10
349.9026530121226983
 20
7.4451316097826057
 30
0.0
 40
0.0825385716913322
 50
66.6782837951053864
 51
84.7771836001955847
  0
ARC
  5
5CCC
  8
0
 10
349.946056483449695
 20
7.3246949120816112
 30
0.0
 40
0.1965245465993941
 50
93.1289542032316291
 51
151.8997181643296983
  0
ARC
  5
5CCD
  8
0
 10
349.7374019256437805
 20
7.436103192367816
 30
0.0
 40
0.0400098683952848
 50
277.3625692313232207
 51
331.9050198147085098
  0
ARC
  5
5CCE
  8
0
 10
337.3376024576036798
 20
-0.8700867045260451
 30
0.0
 40
8.3708138104975713
 50
85.4020786752360692
 51
87.8332197870583968
  0
ARC
  5
5CCF
  8
0
 10
337.854634797115807
 20
5.4979195188348342
 30
0.0
 40
1.981860481300143
 50
61.4604402658634612
 51
85.5434912874136018
  0
ARC
  5
5CD0
  8
0
 10
340.6919785126713123
 20
7.3056713112382559
 30
0.0
 40
0.1907656106069159
 50
17.9264184342935309
 51
82.3566821411447449
  0
ARC
  5
5CD1
  8
0
 10
342.1680752532217866
 20
7.2860026065580143
 30
0.0
 40
0.1905166866793024
 50
112.4412903376073984
 51
156.7528145250257126
  0
ARC
  5
5CD2
  8
0
 10
342.3659466497965127
 20
6.8503139035276774
 30
0.0
 40
0.668951156204237
 50
105.561924886925695
 51
113.8605323588501932
  0
LINE
  5
5CD3
  8
0
 10
357.6304762034130817
 20
7.425507119590697
 30
0.0
 11
357.6377459455363237
 21
7.5642220629817913
 31
0.0
  0
LINE
  5
5CD4
  8
0
 10
358.6988443242361768
 20
7.4255071195817868
 30
0.0
 11
358.7039662077363005
 21
7.5642220064817911
 31
0.0
  0
ARC
  5
5CD5
  8
0
 10
363.3884952718311183
 20
4.1490735242237093
 30
0.0
 40
0.1578023855159838
 50
270.0484736102774832
 51
359.8828400473424267
  0
LINE
  5
5CD6
  8
0
 10
363.3886287764361782
 20
3.991271195181791
 30
0.0
 11
362.2953222705361895
 21
3.99127115608179
 31
0.0
  0
ARC
  5
5CD7
  8
0
 10
362.2640885747770767
 20
-2.4720909876466619
 30
0.0
 40
6.4634376104927966
 50
89.7231247490252031
 51
99.3241590808553809
  0
ARC
  5
5CD8
  8
0
 10
361.9065119320551958
 20
-0.3328853865303394
 30
0.0
 40
4.2945663109304011
 50
99.2406650429278159
 51
122.3095203081603017
  0
ARC
  5
5CD9
  8
0
 10
364.3101177374109056
 20
-0.3024363681858624
 30
0.0
 40
6.2758857502721197
 50
162.3876388019012893
 51
180.2115957854691999
  0
ARC
  5
5CDA
  8
0
 10
361.504371139240618
 20
0.5345154212251693
 30
0.0
 40
3.3488081244249179
 50
124.4271236047965061
 51
161.5110907869897972
  0
LINE
  5
5CDB
  8
0
 10
358.034274784136187
 20
-0.3256134323182103
 30
0.0
 11
358.034274784136187
 21
-8.3909627043100041
 31
0.0
  0
ARC
  5
5CDC
  8
0
 10
357.9160917611027912
 20
-8.3908893746271858
 30
0.0
 40
0.1181830457830647
 50
270.014514314530004
 51
359.9644493670782026
  0
ARC
  5
5CDD
  8
0
 10
128.1179997839689122
 20
-3.1559098304617161
 30
0.0
 40
223.2886948866639045
 50
358.6564769343345915
 51
359.5686795473155826
  0
LINE
  5
5CDE
  8
0
 10
351.3453097316361777
 20
-8.3913045355182092
 30
0.0
 11
351.3453097316361777
 21
-8.5090724166182081
 31
0.0
  0
ARC
  5
5CDF
  8
0
 10
357.1881348818687911
 20
-17.0793110913198802
 30
0.0
 40
22.9426255071222904
 50
87.0606870548793381
 51
93.9001759490905954
  0
ARC
  5
5CE0
  8
0
 10
362.3644168318094216
 20
218.4882432410302044
 30
0.0
 40
212.6927249473237964
 50
268.9224519152974722
 51
270.2653212952973263
  0
ARC
  5
5CE1
  8
0
 10
363.3492735621305201
 20
5.9948230017701611
 30
0.0
 40
0.1970242665602312
 50
270.0181374952529723
 51
359.8707570135759966
  0
LINE
  5
5CE2
  8
0
 10
349.708810907436316
 20
7.2979854495817937
 30
0.0
 11
348.582826049632672
 21
7.2979854495817937
 31
0.0
  0
ARC
  5
5CE3
  8
0
 10
349.7087691713206254
 20
7.3373661828393528
 30
0.0
 40
0.039380755373742
 50
270.0607226475489142
 51
0.0241707198266456
  0
ARC
  5
5CE4
  8
0
 10
348.5829120937607968
 20
7.337469061319033
 30
0.0
 40
0.0394837054923859
 50
180.1228919794178012
 51
269.8751391484123019
  0
LINE
  5
5CE5
  8
0
 10
341.9735440083230742
 20
7.337369376295249
 30
0.0
 11
340.8913664467718263
 21
7.337369376295249
 31
0.0
  0
LINE
  5
5CE6
  8
0
 10
340.8913664467718263
 20
7.337369376295249
 30
0.0
 11
340.891366267679075
 21
7.2783284861148942
 31
0.0
  0
LINE
  5
5CE7
  8
0
 10
341.9735440083230742
 20
7.337369376295249
 30
0.0
 11
341.9735438292304934
 21
7.278329830248758
 31
0.0
  0
LINE
  5
5CE8
  8
0
 10
341.9341415939525746
 20
7.2389591124486889
 30
0.0
 11
340.9306263602377953
 21
7.238959046514899
 31
0.0
  0
ARC
  5
5CE9
  8
0
 10
340.9309461334830189
 20
7.2785381760148899
 30
0.0
 40
0.0395804212573049
 50
180.3035440780103045
 51
269.5370979870555743
  0
ARC
  5
5CEA
  8
0
 10
341.9339612406146216
 20
7.2785418580583752
 30
0.0
 40
0.0395831564851518
 50
270.2610585350129213
 51
359.6930927746087718
  0
ARC
  5
5CEB
  8
0
 10
340.9109501887216993
 20
7.376829200167065
 30
0.0
 40
0.0394788014116134
 50
198.3689150319800945
 51
268.2233863076560283
  0
ARC
  5
5CEC
  8
0
 10
341.95638483522049
 20
7.3774423169645678
 30
0.0
 40
0.04008051106495
 50
271.1159691804169825
 51
336.0925950523143229
  0
CIRCLE
  5
5CED
  8
0
 10
349.7625087284362735
 20
-6.934219962013759
 30
0.0
 40
0.5392367717811695
  0
CIRCLE
  5
5CEE
  8
0
 10
349.7625087284362735
 20
-6.9342692669590056
 30
0.0
 40
0.5437419545211633
  0
LINE
  5
5CEF
  8
0
 10
354.8645470884362112
 20
7.2726396045817898
 30
0.0
 11
354.8645470884362112
 21
7.238959079481794
 31
0.0
  0
ARC
  5
5CF0
  8
0
 10
354.9039171673553028
 20
7.2726395530448391
 30
0.0
 40
0.0393700789191111
 50
141.8232947352121016
 51
179.9999249976137037
  0
ENDSEC
  0
EOF
