  0
SECTION
  2
HEADER
  9
$ACADVER
  1
AC1009
  9
$INSBASE
 10
327.03373708383549
 20
-7.9955907038734599
 30
0.0
  9
$EXTMIN
 10
319.0363339119253965
 20
-35.7702199219388106
 30
-0.0000000000000058
  9
$EXTMAX
 10
334.5292336322066262
 20
-7.9873086225483121
 30
0.0000000000000104
  9
$LIMMIN
 10
0.0
 20
0.0
  9
$LIMMAX
 10
22.0
 20
17.0
  9
$ORTHOMODE
 70
     0
  9
$REGENMODE
 70
     1
  9
$FILLMODE
 70
     1
  9
$QTEXTMODE
 70
     0
  9
$MIRRTEXT
 70
     0
  9
$DRAGMODE
 70
     2
  9
$LTSCALE
 40
1.2099999999999991
  9
$OSMODE
 70
     7
  9
$ATTMODE
 70
     1
  9
$TEXTSIZE
 40
0.2
  9
$TRACEWID
 40
0.05
  9
$TEXTSTYLE
  7
STANDARD
  9
$CLAYER
  8
0
  9
$CELTYPE
  6
BYLAYER
  9
$CECOLOR
 62
   256
  9
$DIMSCALE
 40
1.0
  9
$DIMASZ
 40
0.1875
  9
$DIMEXO
 40
0.0625
  9
$DIMDLI
 40
0.38
  9
$DIMRND
 40
0.0
  9
$DIMDLE
 40
0.0
  9
$DIMEXE
 40
0.125
  9
$DIMTP
 40
1.5
  9
$DIMTM
 40
1.5
  9
$DIMTXT
 40
1.5
  9
$DIMCEN
 40
0.09
  9
$DIMTSZ
 40
0.0
  9
$DIMTOL
 70
     0
  9
$DIMLIM
 70
     0
  9
$DIMTIH
 70
     1
  9
$DIMTOH
 70
     1
  9
$DIMSE1
 70
     0
  9
$DIMSE2
 70
     0
  9
$DIMTAD
 70
     0
  9
$DIMZIN
 70
     4
  9
$DIMBLK
  1

  9
$DIMASO
 70
     1
  9
$DIMSHO
 70
     1
  9
$DIMPOST
  1

  9
$DIMAPOST
  1

  9
$DIMALT
 70
     0
  9
$DIMALTD
 70
     2
  9
$DIMALTF
 40
25.3999999999999986
  9
$DIMLFAC
 40
1.0
  9
$DIMTOFL
 70
     0
  9
$DIMTVP
 40
0.0
  9
$DIMTIX
 70
     0
  9
$DIMSOXD
 70
     0
  9
$DIMSAH
 70
     0
  9
$DIMBLK1
  1

  9
$DIMBLK2
  1

  9
$DIMSTYLE
  2
STANDARD
  9
$DIMCLRD
 70
     0
  9
$DIMCLRE
 70
     0
  9
$DIMCLRT
 70
     0
  9
$DIMTFAC
 40
1.0
  9
$DIMGAP
 40
0.09
  9
$LUNITS
 70
     2
  9
$LUPREC
 70
     4
  9
$SKETCHINC
 40
0.1
  9
$FILLETRAD
 40
0.0
  9
$AUNITS
 70
     0
  9
$AUPREC
 70
     0
  9
$MENU
  1
.
  9
$ELEVATION
 40
0.0
  9
$PELEVATION
 40
0.0
  9
$THICKNESS
 40
0.0
  9
$LIMCHECK
 70
     0
  9
$BLIPMODE
 70
     0
  9
$CHAMFERA
 40
0.0
  9
$CHAMFERB
 40
0.0
  9
$SKPOLY
 70
     0
  9
$TDCREATE
 40
2457827.4934837957844138
  9
$TDUPDATE
 40
2459528.5750347231514752
  9
$TDINDWG
 40
0.3886130787
  9
$TDUSRTIMER
 40
0.3886130787
  9
$USRTIMER
 70
     1
  9
$ANGBASE
 50
0.0
  9
$ANGDIR
 70
     0
  9
$PDMODE
 70
     0
  9
$PDSIZE
 40
0.3125
  9
$PLINEWID
 40
0.0
  9
$COORDS
 70
     1
  9
$SPLFRAME
 70
     0
  9
$SPLINETYPE
 70
     6
  9
$SPLINESEGS
 70
     8
  9
$ATTDIA
 70
     1
  9
$ATTREQ
 70
     1
  9
$HANDLING
 70
     1
  9
$HANDSEED
  5
5C26
  9
$SURFTAB1
 70
     6
  9
$SURFTAB2
 70
     6
  9
$SURFTYPE
 70
     6
  9
$SURFU
 70
     6
  9
$SURFV
 70
     6
  9
$UCSNAME
  2

  9
$UCSORG
 10
0.0
 20
0.0
 30
0.0
  9
$UCSXDIR
 10
1.0
 20
0.0
 30
0.0
  9
$UCSYDIR
 10
0.0
 20
1.0
 30
0.0
  9
$PUCSNAME
  2

  9
$PUCSORG
 10
0.0
 20
0.0
 30
0.0
  9
$PUCSXDIR
 10
1.0
 20
0.0
 30
0.0
  9
$PUCSYDIR
 10
0.0
 20
1.0
 30
0.0
  9
$USERI1
 70
     0
  9
$USERI2
 70
     0
  9
$USERI3
 70
     0
  9
$USERI4
 70
     0
  9
$USERI5
 70
     0
  9
$USERR1
 40
0.0
  9
$USERR2
 40
0.0
  9
$USERR3
 40
0.0
  9
$USERR4
 40
0.0
  9
$USERR5
 40
0.0
  9
$WORLDVIEW
 70
     1
  9
$SHADEDGE
 70
     3
  9
$SHADEDIF
 70
    70
  9
$TILEMODE
 70
     1
  9
$MAXACTVP
 70
    48
  9
$PLIMCHECK
 70
     0
  9
$PEXTMIN
 10
1.0000000000000000E+20
 20
1.0000000000000000E+20
 30
1.0000000000000000E+20
  9
$PEXTMAX
 10
-1.0000000000000000E+20
 20
-1.0000000000000000E+20
 30
-1.0000000000000000E+20
  9
$PLIMMIN
 10
0.0
 20
0.0
  9
$PLIMMAX
 10
12.0
 20
9.0
  9
$UNITMODE
 70
     0
  9
$VISRETAIN
 70
     1
  9
$PLINEGEN
 70
     0
  9
$PSLTSCALE
 70
     1
  0
ENDSEC
  0
SECTION
  2
TABLES
  0
TABLE
  2
VPORT
 70
     1
  0
VPORT
  2
*ACTIVE
 70
     0
 10
0.0
 20
0.0
 11
1.0
 21
1.0
 12
115.8038561597612954
 22
-29.0812134578041217
 13
0.0
 23
0.0
 14
1.0
 24
1.0
 15
0.0
 25
0.0
 16
-0.0000000000000284
 26
0.0
 36
157.2215818301446859
 17
210.9789276123046875
 27
7.2024491855605604
 37
0.0
 40
27.9756251349932015
 41
2.2118055555555549
 42
50.0
 43
0.0
 44
0.0
 50
0.0
 51
0.0
 71
     0
 72
   100
 73
     1
 74
     1
 75
     0
 76
     0
 77
     0
 78
     0
  0
ENDTAB
  0
TABLE
  2
LTYPE
 70
     2
  0
LTYPE
  2
CONTINUOUS
 70
     0
  3
Solid line
 72
    65
 73
     0
 40
0.0
  0
LTYPE
  2
PHANTOM2
 70
     0
  3
___ _ _ ___ _ _ ___ _ _ ___ _ _
 72
    65
 73
     6
 40
1.25
 49
0.625
 49
-0.125
 49
0.125
 49
-0.125
 49
0.125
 49
-0.125
  0
ENDTAB
  0
TABLE
  2
LAYER
 70
     2
  0
LAYER
  2
0
 70
     0
 62
     7
  6
CONTINUOUS
  0
LAYER
  2
DEFPOINTS
 70
     0
 62
     7
  6
CONTINUOUS
  0
ENDTAB
  0
TABLE
  2
STYLE
 70
     1
  0
STYLE
  2
STANDARD
 70
     0
 40
0.0
 41
0.8
 50
0.0
 71
     0
 42
0.2
  3
txt
  4

  0
ENDTAB
  0
TABLE
  2
VIEW
 70
     0
  0
ENDTAB
  0
TABLE
  2
UCS
 70
     0
  0
ENDTAB
  0
TABLE
  2
APPID
 70
     9
  0
APPID
  2
ACAD
 70
     0
  0
APPID
  2
ACAD_MLEADERVER
 70
     0
  0
APPID
  2
ACAD_EXEMPT_FROM_CAD_STANDARDS
 70
     0
  0
APPID
  2
ACAD_NAV_VCDISPLAY
 70
     0
  0
APPID
  2
ACADANNOMONITORALERTICONDI
 70
     0
  0
APPID
  2
ACAD_DSTYLE_DIMJAG
 70
     0
  0
APPID
  2
ACAD_DSTYLE_DIMTALN
 70
     0
  0
APPID
  2
ACDBATTR
 70
     0
  0
APPID
  2
DCO15
 70
     0
  0
ENDTAB
  0
TABLE
  2
DIMSTYLE
 70
     1
  0
DIMSTYLE
  2
STANDARD
 70
     0
  3

  4

  5

  6

  7

 40
1.0
 41
0.1875
 42
0.0625
 43
0.38
 44
0.125
 45
0.0
 46
0.0
 47
1.5
 48
1.5
140
1.5
141
0.09
142
0.0
143
25.3999999999999986
144
1.0
145
0.0
146
1.0
147
0.09
 71
     0
 72
     0
 73
     1
 74
     1
 75
     0
 76
     0
 77
     0
 78
     4
170
     0
171
     2
172
     0
173
     0
174
     0
175
     0
176
     0
177
     0
178
     0
  0
ENDTAB
  0
ENDSEC
  0
SECTION
  2
BLOCKS
  0
BLOCK
  8
0
  2
$MODEL_SPACE
 70
     0
 10
0.0
 20
0.0
 30
0.0
  3
$MODEL_SPACE
  1

  0
ENDBLK
  5
21
  8
0
  0
BLOCK
 67
     1
  8
0
  2
$PAPER_SPACE
 70
     0
 10
0.0
 20
0.0
 30
0.0
  3
$PAPER_SPACE
  1

  0
ENDBLK
  5
1D
 67
     1
  8
0
  0
ENDSEC
  0
SECTION
  2
ENTITIES
  0
ATTDEF
  5
4EF9
  8
DEFPOINTS
 10
327.033727138746201
 20
-7.9921956633000413
 30
0.0
 40
0.001
  1
K-31190K-HC
  3

  2
MODELNUMBER
 70
     0
1001
ACDBATTR
1070
     0
1070
     1
  0
ATTDEF
  5
4EFA
  8
DEFPOINTS
 10
327.033727138746201
 20
-7.9938623299667197
 30
0.0
 40
0.001
  1
VEIL
  3

  2
TRADENAME
 70
     0
1001
ACDBATTR
1070
     0
1070
     1
  0
ATTDEF
  5
4EFB
  8
DEFPOINTS
 10
327.033727138746201
 20
-7.9955289966333991
 30
0.0
 40
0.001
  1
TOILET
  3

  2
PRODUCT
 70
     0
1001
ACDBATTR
1070
     0
1070
     1
  0
LINE
  5
5AA4
  8
0
 10
334.1291336281008739
 20
-8.9955907038734608
 30
0.0
 11
319.9383405395764157
 21
-8.9955907038734608
 31
0.0
  0
ARC
  5
5AA5
  8
0
 10
319.938432058597698
 20
-9.3894535860088411
 30
0.0
 40
0.3938628927681953
 50
90.0133133986866767
 51
179.9824124171535971
  0
ARC
  5
5AA6
  8
0
 10
994.8594077825282511
 20
-31.4077075949852009
 30
0.0
 40
675.2732915634749133
 50
178.5204102000552098
 51
178.7679135826248
  0
ARC
  5
5AA7
  8
0
 10
327.0337370838356037
 20
-30.9061958568090205
 30
0.0
 40
4.8609620440105488
 50
243.4429700804141987
 51
296.557029919585716
  0
ARC
  5
5AA8
  8
0
 10
327.5132813992448746
 20
-29.9117237398811717
 30
0.0
 40
5.9649264693310853
 50
219.5256661074863871
 51
243.5934820893450876
  0
ARC
  5
5AA9
  8
0
 10
332.6050623572722884
 20
-25.6875259449088098
 30
0.0
 40
12.5808112009811293
 50
204.2252891493612879
 51
219.6065502727637124
  0
ARC
  5
5AAA
  8
0
 10
332.2680339634899269
 20
-25.6297735355620802
 30
0.0
 40
12.2986416926146607
 50
191.8610116907690042
 51
205.114942691176708
  0
ARC
  5
5AAB
  8
0
 10
327.03373708383549
 20
4.5275690438006526
 30
0.0
 40
19.8590717654372497
 50
248.0753946782058961
 51
291.9246053217941039
  0
ARC
  5
5AAC
  8
0
 10
327.03373708383549
 20
4.527372898319725
 30
0.0
 40
19.3800879735961402
 50
247.8099447305098977
 51
292.1900552694901876
  0
ARC
  5
5AAE
  8
0
 10
322.163760064102803
 20
274.5822848441297879
 30
0.0
 40
291.2421104318580092
 50
269.6050834642974223
 51
269.99859477327999
  0
ARC
  5
5AAF
  8
0
 10
320.1516198583440769
 20
-17.1270736905982091
 30
0.0
 40
0.4741899350632386
 50
89.4269564149547875
 51
149.936238837955699
  0
ARC
  5
5AB0
  8
0
 10
320.1282817337728943
 20
-17.1078296660951601
 30
0.0
 40
0.4443786933190057
 50
150.5762252218706863
 51
180.1868999303486021
  0
ARC
  5
5AB1
  8
0
 10
1068.3442721595060902
 20
-17.6976945283567915
 30
0.0
 40
748.6605998325488827
 50
179.9547896068640966
 51
180.3139088632468088
  0
ARC
  5
5AB2
  8
0
 10
403.7728446683518087
 20
-21.3377308226249198
 30
0.0
 40
84.0792036946058658
 50
180.3146014348639028
 51
182.1882966348277932
  0
ARC
  5
5AB3
  8
0
 10
348.3173316289397121
 20
-22.6096141733358884
 30
0.0
 40
28.6280860769929504
 50
183.8827961850244037
 51
191.1743826356546947
  0
LINE
  5
5AB4
  8
0
 10
322.2293116252404275
 20
-16.5753891360346692
 30
0.0
 11
322.2274028583403833
 21
-16.6399820987346807
 31
0.0
  0
ARC
  5
5AB5
  8
0
 10
322.1602712051065964
 20
-16.4774088747478586
 30
0.0
 40
0.1824532204094555
 50
268.8524274993451968
 51
286.1442188023955282
  0
ARC
  5
5AB6
  8
0
 10
322.202228857272587
 20
-16.6243797263256106
 30
0.0
 40
0.0296169605892744
 50
287.2336175330174797
 51
328.2101437764612797
  0
ARC
  5
5AB7
  8
0
 10
322.273483510496817
 20
-16.6158527544680297
 30
0.0
 40
0.0599037550061099
 50
106.6363923218399066
 51
137.5087844466638956
  0
ARC
  5
5AB8
  8
0
 10
322.2829708377652196
 20
-16.6476036857809895
 30
0.0
 40
0.0930418149664832
 50
90.511585084555108
 51
106.6363923218399066
  0
LINE
  5
5AB9
  8
0
 10
322.2821400929403808
 20
-16.5545655796346516
 30
0.0
 11
322.6636700633403052
 21
-16.5545655796346516
 31
0.0
  0
ARC
  5
5ABA
  8
0
 10
322.6638757538510731
 20
-16.6331790766048293
 30
0.0
 40
0.0786137660620916
 50
3.5686419524369302
 51
90.1499128230688882
  0
ARC
  5
5ABB
  8
0
 10
314.0422782635408225
 20
-16.7898381767992788
 30
0.0
 40
8.7015586324600473
 50
0.0790017210817686
 51
1.0638094309961681
  0
LINE
  5
5ABC
  8
0
 10
322.7608438710403789
 20
-16.5752930383346602
 30
0.0
 11
322.7552323936403127
 21
-16.7640932059346817
 31
0.0
  0
ARC
  5
5ABD
  8
0
 10
322.8145272318337788
 20
-16.6344280298480207
 30
0.0
 40
0.0798677059102231
 50
89.9148029179281565
 51
132.2334939740152038
  0
LINE
  5
5ABE
  8
0
 10
322.814645992640294
 20
-16.554560412234661
 30
0.0
 11
323.2213696124404123
 21
-16.55456009733469
 31
0.0
  0
ARC
  5
5ABF
  8
0
 10
323.2222657980876761
 20
-16.6324102808243701
 30
0.0
 40
0.0778553416156757
 50
47.192257709788187
 51
90.6595409921827553
  0
LINE
  5
5AC0
  8
0
 10
323.275171651640278
 20
-16.5752926401346592
 30
0.0
 11
323.2807827061404282
 21
-16.7640927861346682
 31
0.0
  0
ARC
  5
5AC1
  8
0
 10
322.7396326212028725
 20
-16.7620003738736685
 30
0.0
 40
0.0157395313188053
 50
302.4080222432812093
 51
352.3589450354642167
  0
ARC
  5
5AC2
  8
0
 10
322.6924425592271177
 20
-16.687663742714939
 30
0.0
 40
0.1037897254203075
 50
289.9970145569923829
 51
302.4080222432812093
  0
ARC
  5
5AC3
  8
0
 10
322.6410086682116116
 20
-16.474825471730199
 30
0.0
 40
0.3223137991685369
 50
269.3423595910613813
 51
285.6462228283758122
  0
LINE
  5
5AC4
  8
0
 10
322.6373092347403144
 20
-16.7971180396346718
 30
0.0
 11
320.1564819362403114
 21
-16.7971199149346688
 31
0.0
  0
ARC
  5
5AC5
  8
0
 10
320.1494461016226865
 20
-17.26940870253339
 30
0.0
 40
0.4723411922119965
 50
89.1465098859894454
 51
149.2764531264377865
  0
ARC
  5
5AC6
  8
0
 10
320.1316241593873997
 20
-17.2521432193633615
 30
0.0
 40
0.4482365400529761
 50
150.0098015952592903
 51
177.2457667921800919
  0
LINE
  5
5AC7
  8
0
 10
323.3329833104403974
 20
-16.5545655803346783
 30
0.0
 11
330.7345581136402757
 21
-16.5545655803346783
 31
0.0
  0
LINE
  5
5AC8
  8
0
 10
330.6686339802403722
 20
-16.7971115649346707
 30
0.0
 11
323.3988771483403752
 21
-16.7971173302346486
 31
0.0
  0
ARC
  5
5AC9
  8
0
 10
323.2917871285450246
 20
-16.7637087819008315
 30
0.0
 40
0.0110111203659287
 50
181.9985508682617876
 51
218.8105263119151118
  0
ARC
  5
5ACA
  8
0
 10
323.3197736099019153
 20
-16.7353556898780909
 30
0.0
 40
0.0507935057005472
 50
223.9532014193503926
 51
248.558268586844008
  0
ARC
  5
5ACB
  8
0
 10
323.3939390512691716
 20
-16.4938478585756805
 30
0.0
 40
0.303309672188357
 50
252.1974387262349921
 51
270.9328572330722977
  0
ARC
  5
5ACC
  8
0
 10
323.3329833092453782
 20
-16.5939356578397401
 30
0.0
 40
0.0393700775050832
 50
89.9999982609732569
 51
179.9999189316822026
  0
LINE
  5
5ACD
  8
0
 10
323.2936132317403235
 20
-16.5939356021346605
 30
0.0
 11
323.2936132317403235
 21
-16.7788943489731395
 31
0.0
  0
LINE
  5
5ACE
  8
0
 10
329.7266768548194023
 20
-16.5183683784835083
 30
0.0
 11
324.3408730746085098
 21
-16.5183683784835083
 31
0.0
  0
LINE
  5
5ACF
  8
0
 10
319.5445691843855229
 20
-9.3893326853653871
 30
0.0
 11
319.5445691843855229
 21
-13.1899089204734707
 31
0.0
  0
LINE
  5
5AD0
  8
0
 10
319.5445691843855229
 20
-13.5306641076317593
 30
0.0
 11
319.5445691843855229
 21
-13.7856860099478098
 31
0.0
  0
ARC
  5
5AD1
  8
0
 10
319.6696608172068181
 20
-13.52689010775401
 30
0.0
 40
0.1182717722961168
 50
67.8443609852727576
 51
119.7550039448309036
  0
ARC
  5
5AD2
  8
0
 10
319.6626428715995871
 20
-13.5306640705751402
 30
0.0
 40
0.1180639730721229
 50
67.7727542245504537
 51
118.5432077285432939
  0
ARC
  5
5AD3
  8
0
 10
319.6626517615887906
 20
-13.5306804144940696
 30
0.0
 40
0.1180825783292784
 50
118.5432077285432939
 51
179.9920876186558019
  0
LINE
  5
5AD4
  8
0
 10
319.6109634442104834
 20
-13.4242118212208297
 30
0.0
 11
319.60622938394431
 21
-13.4269499435328896
 31
0.0
  0
ARC
  5
5AD5
  8
0
 10
319.662617169670682
 20
-13.7856669555106297
 30
0.0
 40
0.118047986823086
 50
180.0092482630564916
 51
248.1245808099631915
  0
ARC
  5
5AD6
  8
0
 10
319.6628193800528948
 20
-13.1897636766783197
 30
0.0
 40
0.1182502848670944
 50
180.0703749556635955
 51
247.4074008413037973
  0
LINE
  5
5AD7
  8
0
 10
319.5572309393234036
 20
-13.2430009855457307
 30
0.0
 11
319.5571381795854791
 21
-13.3194018563734602
 31
0.0
  0
ARC
  5
5AD8
  8
0
 10
313.7556501956432271
 20
-13.3123581604214092
 30
0.0
 40
5.8014922598827141
 50
358.3146991794524183
 51
359.9304361479254908
  0
ARC
  5
5AD9
  8
0
 10
324.3434940879188844
 20
-17.8771118753601712
 30
0.0
 40
1.358746024838849
 50
90.1105232995121241
 51
103.255316519096894
  0
ARC
  5
5ADA
  8
0
 10
334.1290421090732252
 20
-9.3894535860088411
 30
0.0
 40
0.3938628927681953
 50
0.0175875828455753
 51
89.9866866013133375
  0
ARC
  5
5ADB
  8
0
 10
-340.7919336148573848
 20
-31.4077075949852009
 30
0.0
 40
675.2732915634749133
 50
1.2320864173752231
 51
1.4795897999447261
  0
ARC
  5
5ADC
  8
0
 10
326.5541927684262191
 20
-29.9117237398811717
 30
0.0
 40
5.9649264693310853
 50
296.406517910654884
 51
320.4743338925135845
  0
ARC
  5
5ADD
  8
0
 10
321.3827362095232161
 20
-25.6379015308170608
 30
0.0
 40
12.6738388882153696
 50
320.4502376817200116
 51
335.7179228961549029
  0
ARC
  5
5ADE
  8
0
 10
321.7994402041811099
 20
-25.6297735355620802
 30
0.0
 40
12.2986416926146607
 50
334.8850573088233205
 51
348.1389883092310242
  0
ARC
  5
5ADF
  8
0
 10
331.9037141035681771
 20
274.5822848441297879
 30
0.0
 40
291.2421104318580092
 50
270.00140522672001
 51
270.3949165357025777
  0
ARC
  5
5AE0
  8
0
 10
333.9158543093269031
 20
-17.1270736905982091
 30
0.0
 40
0.4741899350632386
 50
30.0637611620442513
 51
90.5730435850452409
  0
ARC
  5
5AE1
  8
0
 10
333.9391924338980857
 20
-17.1078296660951601
 30
0.0
 40
0.4443786933190057
 50
359.8131000696512842
 51
29.4237747781292391
  0
ARC
  5
5AE2
  8
0
 10
-414.2767979918356787
 20
-17.6976945283567915
 30
0.0
 40
748.6605998325488827
 50
359.6860911367531912
 51
0.0452103931359084
  0
ARC
  5
5AE3
  8
0
 10
250.2946294993191998
 20
-21.3377308226249198
 30
0.0
 40
84.0792036946058658
 50
357.8117033651722068
 51
359.6853985651359835
  0
ARC
  5
5AE4
  8
0
 10
305.7501425387313247
 20
-22.6096141733358884
 30
0.0
 40
28.6280860769929504
 50
348.8256173643453053
 51
356.1172038149754826
  0
LINE
  5
5AE5
  8
0
 10
331.8381625424306094
 20
-16.5753891360346692
 30
0.0
 11
331.8400713093305967
 21
-16.6399820987346807
 31
0.0
  0
ARC
  5
5AE6
  8
0
 10
331.9072029625643836
 20
-16.4774088747478586
 30
0.0
 40
0.1824532204094555
 50
253.8557811976045002
 51
271.1475725006548032
  0
ARC
  5
5AE7
  8
0
 10
331.8652453103982793
 20
-16.6243797263256106
 30
0.0
 40
0.0296169605892744
 50
211.7898562235386919
 51
252.7663824669824066
  0
ARC
  5
5AE8
  8
0
 10
331.7939906571742199
 20
-16.6158527544680297
 30
0.0
 40
0.0599037550061099
 50
42.4912155533361116
 51
73.3636076781601361
  0
ARC
  5
5AE9
  8
0
 10
331.7845033299058173
 20
-16.6476036857809895
 30
0.0
 40
0.0930418149664832
 50
73.3636076781601361
 51
89.4884149154449062
  0
LINE
  5
5AEA
  8
0
 10
331.7853340747305992
 20
-16.5545655796346516
 30
0.0
 11
331.4038041043306748
 21
-16.5545655796346516
 31
0.0
  0
ARC
  5
5AEB
  8
0
 10
331.4035984138197932
 20
-16.6331790766048293
 30
0.0
 40
0.0786137660620916
 50
89.8500871769310976
 51
176.431358047563009
  0
ARC
  5
5AEC
  8
0
 10
340.0251959041302143
 20
-16.7898381767992788
 30
0.0
 40
8.7015586324600473
 50
178.9361905690037986
 51
179.920998278918205
  0
LINE
  5
5AED
  8
0
 10
331.3066302966306012
 20
-16.5752930383346602
 30
0.0
 11
331.3122417740307242
 21
-16.7640932059346817
 31
0.0
  0
ARC
  5
5AEE
  8
0
 10
331.2529469358372012
 20
-16.6344280298480207
 30
0.0
 40
0.0798677059102231
 50
47.7665060259848175
 51
90.0851970820718435
  0
LINE
  5
5AEF
  8
0
 10
331.252828175030686
 20
-16.554560412234661
 30
0.0
 11
330.8461045552306246
 21
-16.55456009733469
 31
0.0
  0
ARC
  5
5AF0
  8
0
 10
330.8452083695833039
 20
-16.6324102808243701
 30
0.0
 40
0.0778553416156757
 50
89.3404590078172447
 51
132.8077422902117917
  0
LINE
  5
5AF1
  8
0
 10
330.7923025160305883
 20
-16.5752926401346592
 30
0.0
 11
330.7866914615306086
 21
-16.7640927861346682
 31
0.0
  0
ARC
  5
5AF2
  8
0
 10
331.3278415464681075
 20
-16.7620003738736685
 30
0.0
 40
0.0157395313188053
 50
187.6410549645358117
 51
237.5919777567187907
  0
ARC
  5
5AF3
  8
0
 10
331.3750316084439191
 20
-16.687663742714939
 30
0.0
 40
0.1037897254203075
 50
237.5919777567187907
 51
250.0029854430075886
  0
ARC
  5
5AF4
  8
0
 10
331.4264654994594252
 20
-16.474825471730199
 30
0.0
 40
0.3223137991685369
 50
254.3537771716243014
 51
270.6576404089386187
  0
LINE
  5
5AF5
  8
0
 10
331.4301649329307224
 20
-16.7971180396346718
 30
0.0
 11
333.9109922314307255
 21
-16.7971199149346688
 31
0.0
  0
ARC
  5
5AF6
  8
0
 10
333.9180280660482936
 20
-17.26940870253339
 30
0.0
 40
0.4723411922119965
 50
30.7235468735621318
 51
90.8534901140105546
  0
ARC
  5
5AF7
  8
0
 10
333.9358500082835803
 20
-17.2521432193633615
 30
0.0
 40
0.4482365400529761
 50
2.7542332078198881
 51
29.9901984047407097
  0
ARC
  5
5AF8
  8
0
 10
330.7756870391258985
 20
-16.7637087819008315
 30
0.0
 40
0.0110111203659287
 50
321.1894736880847745
 51
358.001449131738184
  0
ARC
  5
5AF9
  8
0
 10
330.7477005577691216
 20
-16.7353556898780909
 30
0.0
 40
0.0507935057005472
 50
291.441731413155992
 51
316.0467985806496927
  0
ARC
  5
5AFA
  8
0
 10
330.6735351164018084
 20
-16.4938478585756805
 30
0.0
 40
0.303309672188357
 50
269.0671427669277023
 51
287.8025612737649794
  0
ARC
  5
5AFB
  8
0
 10
330.7344908584256018
 20
-16.5939356578397401
 30
0.0
 40
0.0393700775050832
 50
0.0000810683177952
 51
90.0000017390267431
  0
LINE
  5
5AFC
  8
0
 10
330.7738609359307134
 20
-16.5939356021346605
 30
0.0
 11
330.7738609359307134
 21
-16.7788943489731395
 31
0.0
  0
LINE
  5
5AFD
  8
0
 10
334.5229049832854002
 20
-9.3893326853653871
 30
0.0
 11
334.5229049832854002
 21
-13.1899089204734707
 31
0.0
  0
LINE
  5
5AFE
  8
0
 10
334.5229049832854002
 20
-13.5306641076317593
 30
0.0
 11
334.5229049832854002
 21
-13.7856860099478098
 31
0.0
  0
ARC
  5
5AFF
  8
0
 10
334.3978133504642187
 20
-13.52689010775401
 30
0.0
 40
0.1182717722961168
 50
60.2449960551691177
 51
112.1556390147271998
  0
ARC
  5
5B00
  8
0
 10
334.4048312960713929
 20
-13.5306640705751402
 30
0.0
 40
0.1180639730721229
 50
61.4567922714567203
 51
112.2272457754495036
  0
ARC
  5
5B01
  8
0
 10
334.4048224060821894
 20
-13.5306804144940696
 30
0.0
 40
0.1180825783292784
 50
0.0079123813441783
 51
61.4567922714567203
  0
LINE
  5
5B02
  8
0
 10
334.4565107234604966
 20
-13.4242118212208297
 30
0.0
 11
334.4612447837267268
 21
-13.4269499435328896
 31
0.0
  0
ARC
  5
5B03
  8
0
 10
334.4048569980002981
 20
-13.7856669555106297
 30
0.0
 40
0.118047986823086
 50
291.87541919003678
 51
359.9907517369434231
  0
ARC
  5
5B04
  8
0
 10
334.4046547876179716
 20
-13.1897636766783197
 30
0.0
 40
0.1182502848670944
 50
292.5925991586962027
 51
359.9296250443355802
  0
LINE
  5
5B05
  8
0
 10
334.5102432283475764
 20
-13.2430009855457307
 30
0.0
 11
334.510335988085501
 21
-13.3194018563734602
 31
0.0
  0
ARC
  5
5B06
  8
0
 10
340.3118239720276961
 20
-13.3123581604214092
 30
0.0
 40
5.8014922598827141
 50
180.0695638520737134
 51
181.6853008205467859
  0
ARC
  5
5B07
  8
0
 10
329.7239800797520957
 20
-17.8771118753601712
 30
0.0
 40
1.358746024838849
 50
76.7446834809031202
 51
89.8894767004878901
  0
ARC
  5
5B08
  8
0
 10
327.03373708383549
 20
4.527860527848758
 30
0.0
 40
19.3868928567222802
 50
247.7959333184925015
 51
292.2040666815075269
  0
LINE
  5
5B09
  8
0
 10
320.1254744898578792
 20
-14.09120187177456
 30
0.0
 11
320.0700638840229999
 21
-16.6599498124161904
 31
0.0
  0
LINE
  5
5B0A
  8
0
 10
333.9419996778131008
 20
-14.09120187177456
 30
0.0
 11
333.9974102836479801
 21
-16.6599498124161904
 31
0.0
  0
ARC
  5
5B0B
  8
0
 10
327.03373708383549
 20
4.5278169979495431
 30
0.0
 40
19.3079113747850108
 50
247.4115497841411866
 51
292.5884502158586997
  0
LINE
  5
5B0C
  8
0
 10
319.5363477287854721
 20
-11.9657718415734706
 30
0.0
 11
319.5363477287854721
 21
-13.1975040897734708
 31
0.0
  0
LINE
  5
5B0D
  8
0
 10
319.5445691843855229
 20
-12.1289849005937906
 30
0.0
 11
319.5363477287854721
 21
-12.1292720000734793
 31
0.0
  0
LINE
  5
5B0E
  8
0
 10
319.5363477287854721
 20
-13.0157361793734605
 30
0.0
 11
319.5445691843855229
 21
-13.0160232789523196
 31
0.0
  0
LINE
  5
5B0F
  8
0
 10
319.068988597685518
 20
-11.9395875776734606
 30
0.0
 11
319.068988597685518
 21
-10.6042254566556799
 31
0.0
  0
ARC
  5
5B10
  8
0
 10
318.8602075853809765
 20
-11.93646744583668
 30
0.0
 40
0.2088043254378627
 50
354.1801733073007199
 51
359.1438058624034966
  0
ARC
  5
5B11
  8
0
 10
325.03634772523111
 20
-12.5725040899472607
 30
0.0
 40
5.9999999964458608
 50
174.1181579258164049
 51
185.6929135823158106
  0
ARC
  5
5B12
  8
0
 10
319.0858420172385195
 20
-13.1657003265486292
 30
0.0
 40
0.0200000001275453
 50
185.6926390205373139
 51
268.4999997606186071
  0
LINE
  5
5B13
  8
0
 10
319.0853184781855134
 20
-13.1856934731734707
 30
0.0
 11
319.5363477287854721
 21
-13.1975040897734708
 31
0.0
  0
LINE
  5
5B14
  8
0
 10
319.0884650596855181
 20
-10.5842323101734603
 30
0.0
 11
319.5063477271855277
 21
-10.5732896674734604
 31
0.0
  0
LINE
  5
5B15
  8
0
 10
319.5063477287854994
 20
-10.5732896674315597
 30
0.0
 11
319.5063477287854994
 21
-11.9618194734793502
 31
0.0
  0
ARC
  5
5B16
  8
0
 10
319.0889885976417872
 20
-10.6042254566556799
 30
0.0
 40
0.0199999999562878
 50
91.499997109201459
 51
180.0000000509296001
  0
LINE
  5
5B17
  8
0
 10
319.5063477287854994
 20
-11.9618194734793502
 30
0.0
 11
319.085317901885503
 21
-11.9709749227734594
 31
0.0
  0
LINE
  5
5B18
  8
0
 10
319.5063477287854994
 20
-11.9618194734793502
 30
0.0
 11
319.5363477287854721
 21
-11.9657718415734706
 31
0.0
  0
ARC
  5
5B19
  8
0
 10
319.08663318935902
 20
-11.9932367875643102
 30
0.0
 40
0.0223006862025373
 50
93.3812493674917334
 51
167.8312368556840966
  0
ARC
  5
5B1A
  8
0
 10
327.03373708383549
 20
-30.7732085451268098
 30
0.0
 40
4.9945940023466413
 50
229.7240388485136009
 51
310.2759611514865128
  0
ENDSEC
  0
EOF
