  0
SECTION
  2
HEADER
  9
$ACADVER
  1
AC1009
  9
$INSBASE
 10
294.4265359659777914
 20
-2.366660284842367
 30
0.0
  9
$EXTMIN
 10
286.4120237570662084
 20
-2.3667909055051259
 30
-0.0000000000000058
  9
$EXTMAX
 10
301.9378327880912138
 20
27.1037679407180896
 30
0.0000000000000104
  9
$LIMMIN
 10
0.0
 20
0.0
  9
$LIMMAX
 10
22.0
 20
17.0
  9
$ORTHOMODE
 70
     0
  9
$REGENMODE
 70
     1
  9
$FILLMODE
 70
     1
  9
$QTEXTMODE
 70
     0
  9
$MIRRTEXT
 70
     0
  9
$DRAGMODE
 70
     2
  9
$LTSCALE
 40
1.2099999999999991
  9
$OSMODE
 70
     7
  9
$ATTMODE
 70
     1
  9
$TEXTSIZE
 40
0.2
  9
$TRACEWID
 40
0.05
  9
$TEXTSTYLE
  7
STANDARD
  9
$CLAYER
  8
0
  9
$CELTYPE
  6
BYLAYER
  9
$CECOLOR
 62
   256
  9
$DIMSCALE
 40
1.0
  9
$DIMASZ
 40
0.1875
  9
$DIMEXO
 40
0.0625
  9
$DIMDLI
 40
0.38
  9
$DIMRND
 40
0.0
  9
$DIMDLE
 40
0.0
  9
$DIMEXE
 40
0.125
  9
$DIMTP
 40
1.5
  9
$DIMTM
 40
1.5
  9
$DIMTXT
 40
1.5
  9
$DIMCEN
 40
0.09
  9
$DIMTSZ
 40
0.0
  9
$DIMTOL
 70
     0
  9
$DIMLIM
 70
     0
  9
$DIMTIH
 70
     1
  9
$DIMTOH
 70
     1
  9
$DIMSE1
 70
     0
  9
$DIMSE2
 70
     0
  9
$DIMTAD
 70
     0
  9
$DIMZIN
 70
     4
  9
$DIMBLK
  1

  9
$DIMASO
 70
     1
  9
$DIMSHO
 70
     1
  9
$DIMPOST
  1

  9
$DIMAPOST
  1

  9
$DIMALT
 70
     0
  9
$DIMALTD
 70
     2
  9
$DIMALTF
 40
25.3999999999999986
  9
$DIMLFAC
 40
1.0
  9
$DIMTOFL
 70
     0
  9
$DIMTVP
 40
0.0
  9
$DIMTIX
 70
     0
  9
$DIMSOXD
 70
     0
  9
$DIMSAH
 70
     0
  9
$DIMBLK1
  1

  9
$DIMBLK2
  1

  9
$DIMSTYLE
  2
STANDARD
  9
$DIMCLRD
 70
     0
  9
$DIMCLRE
 70
     0
  9
$DIMCLRT
 70
     0
  9
$DIMTFAC
 40
1.0
  9
$DIMGAP
 40
0.09
  9
$LUNITS
 70
     2
  9
$LUPREC
 70
     4
  9
$SKETCHINC
 40
0.1
  9
$FILLETRAD
 40
0.0
  9
$AUNITS
 70
     0
  9
$AUPREC
 70
     0
  9
$MENU
  1
.
  9
$ELEVATION
 40
0.0
  9
$PELEVATION
 40
0.0
  9
$THICKNESS
 40
0.0
  9
$LIMCHECK
 70
     0
  9
$BLIPMODE
 70
     0
  9
$CHAMFERA
 40
0.0
  9
$CHAMFERB
 40
0.0
  9
$SKPOLY
 70
     0
  9
$TDCREATE
 40
2457827.4934837957844138
  9
$TDUPDATE
 40
2459528.5753935188986361
  9
$TDINDWG
 40
0.3886246528
  9
$TDUSRTIMER
 40
0.3886246528
  9
$USRTIMER
 70
     1
  9
$ANGBASE
 50
0.0
  9
$ANGDIR
 70
     0
  9
$PDMODE
 70
     0
  9
$PDSIZE
 40
0.3125
  9
$PLINEWID
 40
0.0
  9
$COORDS
 70
     1
  9
$SPLFRAME
 70
     0
  9
$SPLINETYPE
 70
     6
  9
$SPLINESEGS
 70
     8
  9
$ATTDIA
 70
     1
  9
$ATTREQ
 70
     1
  9
$HANDLING
 70
     1
  9
$HANDSEED
  5
5BB4
  9
$SURFTAB1
 70
     6
  9
$SURFTAB2
 70
     6
  9
$SURFTYPE
 70
     6
  9
$SURFU
 70
     6
  9
$SURFV
 70
     6
  9
$UCSNAME
  2

  9
$UCSORG
 10
0.0
 20
0.0
 30
0.0
  9
$UCSXDIR
 10
1.0
 20
0.0
 30
0.0
  9
$UCSYDIR
 10
0.0
 20
1.0
 30
0.0
  9
$PUCSNAME
  2

  9
$PUCSORG
 10
0.0
 20
0.0
 30
0.0
  9
$PUCSXDIR
 10
1.0
 20
0.0
 30
0.0
  9
$PUCSYDIR
 10
0.0
 20
1.0
 30
0.0
  9
$USERI1
 70
     0
  9
$USERI2
 70
     0
  9
$USERI3
 70
     0
  9
$USERI4
 70
     0
  9
$USERI5
 70
     0
  9
$USERR1
 40
0.0
  9
$USERR2
 40
0.0
  9
$USERR3
 40
0.0
  9
$USERR4
 40
0.0
  9
$USERR5
 40
0.0
  9
$WORLDVIEW
 70
     1
  9
$SHADEDGE
 70
     3
  9
$SHADEDIF
 70
    70
  9
$TILEMODE
 70
     1
  9
$MAXACTVP
 70
    48
  9
$PLIMCHECK
 70
     0
  9
$PEXTMIN
 10
1.0000000000000000E+20
 20
1.0000000000000000E+20
 30
1.0000000000000000E+20
  9
$PEXTMAX
 10
-1.0000000000000000E+20
 20
-1.0000000000000000E+20
 30
-1.0000000000000000E+20
  9
$PLIMMIN
 10
0.0
 20
0.0
  9
$PLIMMAX
 10
12.0
 20
9.0
  9
$UNITMODE
 70
     0
  9
$VISRETAIN
 70
     1
  9
$PLINEGEN
 70
     0
  9
$PSLTSCALE
 70
     1
  0
ENDSEC
  0
SECTION
  2
TABLES
  0
TABLE
  2
VPORT
 70
     1
  0
VPORT
  2
*ACTIVE
 70
     0
 10
0.0
 20
0.0
 11
1.0
 21
1.0
 12
83.1960006602740236
 22
5.1660393320459166
 13
0.0
 23
0.0
 14
1.0
 24
1.0
 15
0.0
 25
0.0
 16
-0.0000000000000284
 26
0.0
 36
157.2215818301446859
 17
210.9789276123046875
 27
7.2024491855605604
 37
0.0
 40
29.6749789075843005
 41
2.2118055555555549
 42
50.0
 43
0.0
 44
0.0
 50
0.0
 51
0.0
 71
     0
 72
   100
 73
     1
 74
     1
 75
     0
 76
     0
 77
     0
 78
     0
  0
ENDTAB
  0
TABLE
  2
LTYPE
 70
     2
  0
LTYPE
  2
CONTINUOUS
 70
     0
  3
Solid line
 72
    65
 73
     0
 40
0.0
  0
LTYPE
  2
PHANTOM2
 70
     0
  3
___ _ _ ___ _ _ ___ _ _ ___ _ _
 72
    65
 73
     6
 40
1.25
 49
0.625
 49
-0.125
 49
0.125
 49
-0.125
 49
0.125
 49
-0.125
  0
ENDTAB
  0
TABLE
  2
LAYER
 70
     2
  0
LAYER
  2
0
 70
     0
 62
     7
  6
CONTINUOUS
  0
LAYER
  2
DEFPOINTS
 70
     0
 62
     7
  6
CONTINUOUS
  0
ENDTAB
  0
TABLE
  2
STYLE
 70
     1
  0
STYLE
  2
STANDARD
 70
     0
 40
0.0
 41
0.8
 50
0.0
 71
     0
 42
0.2
  3
txt
  4

  0
ENDTAB
  0
TABLE
  2
VIEW
 70
     0
  0
ENDTAB
  0
TABLE
  2
UCS
 70
     0
  0
ENDTAB
  0
TABLE
  2
APPID
 70
     9
  0
APPID
  2
ACAD
 70
     0
  0
APPID
  2
ACAD_MLEADERVER
 70
     0
  0
APPID
  2
ACAD_EXEMPT_FROM_CAD_STANDARDS
 70
     0
  0
APPID
  2
ACAD_NAV_VCDISPLAY
 70
     0
  0
APPID
  2
ACADANNOMONITORALERTICONDI
 70
     0
  0
APPID
  2
ACAD_DSTYLE_DIMJAG
 70
     0
  0
APPID
  2
ACAD_DSTYLE_DIMTALN
 70
     0
  0
APPID
  2
ACDBATTR
 70
     0
  0
APPID
  2
DCO15
 70
     0
  0
ENDTAB
  0
TABLE
  2
DIMSTYLE
 70
     1
  0
DIMSTYLE
  2
STANDARD
 70
     0
  3

  4

  5

  6

  7

 40
1.0
 41
0.1875
 42
0.0625
 43
0.38
 44
0.125
 45
0.0
 46
0.0
 47
1.5
 48
1.5
140
1.5
141
0.09
142
0.0
143
25.3999999999999986
144
1.0
145
0.0
146
1.0
147
0.09
 71
     0
 72
     0
 73
     1
 74
     1
 75
     0
 76
     0
 77
     0
 78
     4
170
     0
171
     2
172
     0
173
     0
174
     0
175
     0
176
     0
177
     0
178
     0
  0
ENDTAB
  0
ENDSEC
  0
SECTION
  2
BLOCKS
  0
BLOCK
  8
0
  2
$MODEL_SPACE
 70
     0
 10
0.0
 20
0.0
 30
0.0
  3
$MODEL_SPACE
  1

  0
ENDBLK
  5
21
  8
0
  0
BLOCK
 67
     1
  8
0
  2
$PAPER_SPACE
 70
     0
 10
0.0
 20
0.0
 30
0.0
  3
$PAPER_SPACE
  1

  0
ENDBLK
  5
1D
 67
     1
  8
0
  0
ENDSEC
  0
SECTION
  2
ENTITIES
  0
ATTDEF
  5
4EF9
  8
DEFPOINTS
 10
294.4265260208885024
 20
-2.3632652442689479
 30
0.0
 40
0.001
  1
K-31190K-HC
  3

  2
MODELNUMBER
 70
     0
1001
ACDBATTR
1070
     0
1070
     1
  0
ATTDEF
  5
4EFA
  8
DEFPOINTS
 10
294.4265260208885024
 20
-2.3649319109356268
 30
0.0
 40
0.001
  1
VEIL
  3

  2
TRADENAME
 70
     0
1001
ACDBATTR
1070
     0
1070
     1
  0
ATTDEF
  5
4EFB
  8
DEFPOINTS
 10
294.4265260208885024
 20
-2.3665985776023071
 30
0.0
 40
0.001
  1
TOILET
  3

  2
PRODUCT
 70
     0
1001
ACDBATTR
1070
     0
1070
     1
  0
LINE
  5
5854
  8
0
 10
300.2758324169291768
 20
-2.366660284842367
 30
0.0
 11
288.5772395150281113
 21
-2.366660284842367
 31
0.0
  0
LINE
  5
5855
  8
0
 10
301.5317351840449192
 20
13.3813712112576297
 30
0.0
 11
287.3213367478920759
 21
13.3813712112576297
 31
0.0
  0
ARC
  5
5856
  8
0
 10
287.3214663739721004
 20
13.1449246395259305
 30
0.0
 40
0.2364466072638635
 50
90.0314110139237158
 51
150.7226419102410091
  0
ARC
  5
5857
  8
0
 10
287.321010826076872
 20
13.1451800444213003
 30
0.0
 40
0.2359243472276712
 50
150.7226419102410091
 51
194.5787925341155926
  0
ARC
  5
5858
  8
0
 10
239.5531517088643909
 20
0.6308676123095509
 30
0.0
 40
49.1439948223691232
 50
8.1377944774705355
 51
14.68101512470224
  0
ARC
  5
5859
  8
0
 10
-7514.8264823114759565
 20
109.056854507618695
 30
0.0
 40
7804.0793819393347803
 50
359.182805676578198
 51
359.2278515567182922
  0
LINE
  5
585A
  8
0
 10
287.0554783028130146
 20
27.1018436521576298
 30
0.0
 11
301.7975936291426251
 21
27.1018436521576298
 31
0.0
  0
LINE
  5
585B
  8
0
 10
286.9374041913278006
 20
26.9808124366576187
 30
0.0
 11
287.2231981210692879
 21
15.42853973551974
 31
0.0
  0
ARC
  5
585C
  8
0
 10
287.0554783028130146
 20
26.9837334158910309
 30
0.0
 40
0.1181102362852207
 50
90.0
 51
181.4171239698239049
  0
LINE
  5
585E
  8
0
 10
287.5417791626056783
 20
15.4791168969576294
 30
0.0
 11
301.3112927693499046
 21
15.4791168969576294
 31
0.0
  0
ARC
  5
585F
  8
0
 10
287.553971326523822
 20
14.1829128960794097
 30
0.0
 40
1.296261339681825
 50
90.5389112630743682
 51
95.7368313265543378
  0
ARC
  5
5860
  8
0
 10
287.5153846913652274
 20
14.5709259618473208
 30
0.0
 40
0.9063346188039118
 50
95.7616231642802234
 51
107.767566966969099
  0
ARC
  5
5861
  8
0
 10
287.3287855032260723
 20
15.1532466885028203
 30
0.0
 40
0.2948473452594913
 50
107.767566966969099
 51
134.1173174699129049
  0
ARC
  5
5862
  8
0
 10
287.2540144798297206
 20
15.2433376161541094
 30
0.0
 40
0.1783483290709457
 50
137.0213402690922067
 51
174.5539667801446058
  0
ARC
  5
5863
  8
0
 10
303.5884369860311267
 20
14.4449612927224997
 30
0.0
 40
16.5124592938763897
 50
180.4429797426172115
 51
181.4836139832931963
  0
ARC
  5
5864
  8
0
 10
293.2679126589420093
 20
14.1099848326732005
 30
0.0
 40
6.1870917266226266
 50
180.857080927692806
 51
183.0945827342040957
  0
ARC
  5
5865
  8
0
 10
287.7299202875964852
 20
13.8105830323608405
 30
0.0
 40
0.6410119450912739
 50
183.0945827342040957
 51
192.1889612661767899
  0
ARC
  5
5866
  8
0
 10
287.1507292486863889
 20
13.6839243916709101
 30
0.0
 40
0.0481594214911251
 50
190.3862937021241919
 51
256.2048620364745943
  0
ARC
  5
5867
  8
0
 10
287.6044949580037269
 20
14.1954640419816407
 30
0.0
 40
1.2851840035887589
 50
92.7970921489935989
 51
101.1426214745581973
  0
ARC
  5
5868
  8
0
 10
287.4560069367374808
 20
14.9260453227269796
 30
0.0
 40
0.5396979740064913
 50
100.6645980591785019
 51
110.3986360502087933
  0
ARC
  5
5869
  8
0
 10
287.3370809101534746
 20
15.2458510734218908
 30
0.0
 40
0.1984955150813204
 50
110.3986360502087933
 51
128.6626160115177981
  0
ARC
  5
586A
  8
0
 10
287.2390588924880035
 20
15.3683662872097901
 30
0.0
 40
0.0415933367767409
 50
128.6626160115158086
 51
175.6124638684320871
  0
LINE
  5
586B
  8
0
 10
287.1975874484057272
 20
15.37154826614616
 30
0.0
 11
287.2040027228559893
 21
14.60589883003159
 31
0.0
  0
ARC
  5
586C
  8
0
 10
288.0884400404223129
 20
14.6027894719995395
 30
0.0
 40
0.8844427832320992
 50
179.7985698310934879
 51
190.4762567677184961
  0
ARC
  5
586D
  8
0
 10
287.2720533043099067
 20
14.4518310369595895
 30
0.0
 40
0.0542164574569278
 50
190.4762567677184961
 51
263.8582480994735988
  0
ARC
  5
586E
  8
0
 10
288.8097491400274066
 20
14.4451688604291508
 30
0.0
 40
1.735727886923661
 50
183.044577603775906
 51
188.5579251032868058
  0
ARC
  5
586F
  8
0
 10
287.2520038483742724
 20
14.2116008083081198
 30
0.0
 40
0.1605717636116459
 50
188.8574316934214039
 51
208.5572909546172866
  0
ARC
  5
5870
  8
0
 10
287.1341339783008948
 20
14.1495072897807699
 30
0.0
 40
0.0274185876833075
 50
212.3360555075254865
 51
262.3672732662694784
  0
ARC
  5
5871
  8
0
 10
287.2589976222125756
 20
13.9095543400921002
 30
0.0
 40
0.035336204712565
 50
190.2715144901156066
 51
244.253331278902408
  0
ARC
  5
5872
  8
0
 10
287.8008582796337009
 20
14.0350831907373799
 30
0.0
 40
0.591508144076634
 50
183.3037820463704008
 51
192.8776914921770924
  0
ARC
  5
5873
  8
0
 10
289.9874849945438768
 20
14.1982196912455798
 30
0.0
 40
2.784146142764004
 50
181.5619165378278126
 51
184.0621562024252
  0
ARC
  5
5874
  8
0
 10
287.5979824213694087
 20
13.9010612317961293
 30
0.0
 40
0.2309324258223603
 50
34.2174552033397106
 51
73.3675912173198554
  0
ARC
  5
5875
  8
0
 10
287.8119520923902996
 20
14.0484881912517992
 30
0.0
 40
0.0289479517517644
 50
217.3581866783337091
 51
251.2271539737081127
  0
ARC
  5
5876
  8
0
 10
287.9060055230942226
 20
14.4547027557539298
 30
0.0
 40
0.4457731872893526
 50
256.5917586721777184
 51
266.1977945879276035
  0
LINE
  5
5877
  8
0
 10
287.8399571271057198
 20
13.9645927885461703
 30
0.0
 11
287.8399571271057198
 21
14.0138497826512705
 31
0.0
  0
ARC
  5
5878
  8
0
 10
287.8826534891297797
 20
13.9652460007944192
 30
0.0
 40
0.0427013584834956
 50
180.8765005632560872
 51
226.4888268406735961
  0
ARC
  5
5879
  8
0
 10
287.8952985322214886
 20
13.9847549196631906
 30
0.0
 40
0.0656944106454533
 50
230.2077996816705934
 51
258.8131618263684004
  0
ARC
  5
587A
  8
0
 10
288.6567114254419835
 20
13.9010612317961293
 30
0.0
 40
0.2309324258223603
 50
106.6324087826801019
 51
145.7825447966602894
  0
ARC
  5
587B
  8
0
 10
288.4427417544209789
 20
14.0484881912517992
 30
0.0
 40
0.0289479517517644
 50
288.772846026291802
 51
322.6418133216661772
  0
ARC
  5
587C
  8
0
 10
288.3486883237172265
 20
14.4547027557539298
 30
0.0
 40
0.4457731872893526
 50
273.8022054120722828
 51
283.4082413278223953
  0
LINE
  5
587D
  8
0
 10
288.4147367197056724
 20
13.9645927885461703
 30
0.0
 11
288.4147367197056724
 21
14.0138497826512705
 31
0.0
  0
ARC
  5
587E
  8
0
 10
288.3720403576816125
 20
13.9652460007944192
 30
0.0
 40
0.0427013584834956
 50
313.5111731593262903
 51
359.1234994367438844
  0
ARC
  5
587F
  8
0
 10
288.3593953145899036
 20
13.9847549196631906
 30
0.0
 40
0.0656944106454533
 50
281.1868381736314859
 51
309.792200318329094
  0
ARC
  5
5880
  8
0
 10
288.1273469234056961
 20
17.7391186091000108
 30
0.0
 40
3.7376386764339138
 50
266.150932349936113
 51
273.8490676500640006
  0
ARC
  5
5881
  8
0
 10
288.0112565754732259
 20
14.6488765827440908
 30
0.0
 40
0.7398484196002012
 50
259.9819113040708203
 51
266.558453238521281
  0
ARC
  5
5882
  8
0
 10
288.2434372713382231
 20
14.6488765827440908
 30
0.0
 40
0.7398484196002012
 50
273.441546761478719
 51
280.0180886959291797
  0
ARC
  5
5883
  8
0
 10
288.1273469234056961
 20
16.6018116246205985
 30
0.0
 40
2.696230729764618
 50
266.5872285890156945
 51
273.4127714109843055
  0
LINE
  5
5884
  8
0
 10
290.1825772301755819
 20
13.9665970341461598
 30
0.0
 11
289.406081872535708
 21
13.9665970341461705
 31
0.0
  0
ARC
  5
5885
  8
0
 10
289.4063305471377134
 20
13.9862804840708694
 30
0.0
 40
0.019685020700925
 50
202.3455466112880003
 51
269.2761813987058872
  0
ARC
  5
5886
  8
0
 10
289.1703304425457759
 20
13.8892705537362104
 30
0.0
 40
0.2354756658299088
 50
22.3455466112880003
 51
81.787836203626199
  0
LINE
  5
5887
  8
0
 10
289.4036173500056748
 20
13.9075419160461706
 30
0.0
 11
289.4036173500056748
 21
13.96678334065653
 31
0.0
  0
ARC
  5
5888
  8
0
 10
289.4443571719712054
 20
13.9079480506401101
 30
0.0
 40
0.0407418462896776
 50
180.5711617335408903
 51
227.8840494359274942
  0
ARC
  5
5889
  8
0
 10
290.1823285555736902
 20
13.9862804840708694
 30
0.0
 40
0.019685020700925
 50
270.7238186012939991
 51
337.6544533887119997
  0
ARC
  5
588A
  8
0
 10
290.4183286601656278
 20
13.8892705537362104
 30
0.0
 40
0.2354756658299088
 50
98.2121637963737868
 51
157.6544533887119997
  0
LINE
  5
588B
  8
0
 10
290.185041752705672
 20
13.9075419160461706
 30
0.0
 11
290.185041752705672
 21
13.96678334065653
 31
0.0
  0
ARC
  5
588C
  8
0
 10
290.1443019307401983
 20
13.9079480506401101
 30
0.0
 40
0.0407418462896776
 50
312.1159505640724774
 51
359.4288382664590813
  0
ARC
  5
588D
  8
0
 10
287.6456250115434727
 20
13.4571708990337395
 30
0.0
 40
0.1922504974433575
 50
31.1331484398119507
 51
69.2166292413539708
  0
ARC
  5
588E
  8
0
 10
287.8445806028717016
 20
13.5797571002180408
 30
0.0
 40
0.0414811072275841
 50
213.9854197809740981
 51
260.5802408795083238
  0
LINE
  5
588F
  8
0
 10
287.8303106027057083
 20
13.5388353334461708
 30
0.0
 11
287.8303106027057083
 21
13.4797670209576292
 31
0.0
  0
LINE
  5
5890
  8
0
 10
287.8303106027057083
 20
13.5388353334461708
 30
0.0
 11
288.4051137479057161
 21
13.5388353334461708
 31
0.0
  0
LINE
  5
5891
  8
0
 10
288.4051137479057161
 20
13.5388353334461708
 30
0.0
 11
288.4051137479057161
 21
13.4797682991576995
 31
0.0
  0
ARC
  5
5892
  8
0
 10
288.5514486292578908
 20
13.4051185608312498
 30
0.0
 40
0.1905154654176322
 50
103.946161560949804
 51
131.3984343509023915
  0
ARC
  5
5893
  8
0
 10
288.3988012391891971
 20
13.5804956995253008
 30
0.0
 40
0.0420101694871498
 50
277.3990207230364717
 51
309.3929773934518721
  0
ARC
  5
5894
  8
0
 10
287.4342407358561218
 20
2.2100288290410779
 30
0.0
 40
11.4303028177506807
 50
82.0675850361516552
 51
88.6489816318447197
  0
ARC
  5
5895
  8
0
 10
289.1973801875586219
 20
13.4562268671632399
 30
0.0
 40
0.1967835077309582
 50
15.2800054408044303
 51
66.8418749854462675
  0
ARC
  5
5896
  8
0
 10
290.4312794877985766
 20
13.34684926598643
 30
0.0
 40
0.2718702310704767
 50
104.9175517963044939
 51
145.982181099786601
  0
ARC
  5
5897
  8
0
 10
290.0519066610203254
 20
11.9500391955142806
 30
0.0
 40
1.688110743503793
 50
79.4395224584851576
 51
88.0319244544270845
  0
LINE
  5
5898
  8
0
 10
287.5417791626052235
 20
15.4791168969576294
 30
0.0
 11
301.3112927693504162
 21
15.4791168969576294
 31
0.0
  0
ARC
  5
5899
  8
0
 10
288.5772993328703251
 20
-2.2484884244813652
 30
0.0
 40
0.1181718755007039
 50
179.2109779893239079
 51
269.9709972440916204
  0
ARC
  5
589A
  8
0
 10
246.4328578669500018
 20
1.861020942195956
 30
0.0
 40
42.1601360147028217
 50
2.755880432396673
 51
7.8063117988533062
  0
LINE
  5
589B
  8
0
 10
287.0764712091000206
 20
15.2602643258461601
 30
0.0
 11
287.0764712091000206
 21
14.3172972281556508
 31
0.0
  0
LINE
  5
589C
  8
0
 10
287.1392455841763081
 20
13.6371541519048094
 30
0.0
 11
301.7138263477792748
 21
13.6371541519048094
 31
0.0
  0
LINE
  5
589D
  8
0
 10
287.7452555355225741
 20
13.6215911303280492
 30
0.0
 11
287.7423901642277997
 21
13.5677585122576296
 31
0.0
  0
ARC
  5
589E
  8
0
 10
287.5446317280826065
 20
13.5792427580249893
 30
0.0
 40
0.1980916125620741
 50
272.7009781621703723
 51
356.676447043507892
  0
LINE
  5
589F
  8
0
 10
288.3657115126277972
 20
13.4403975813576295
 30
0.0
 11
287.869570695264315
 21
13.4403975813576295
 31
0.0
  0
ARC
  5
58A0
  8
0
 10
287.8698904685095954
 20
13.4799767108576294
 30
0.0
 40
0.0395804212573049
 50
180.3035440780105034
 51
269.5370979870555743
  0
ARC
  5
58A1
  8
0
 10
288.3655311592897874
 20
13.4799803269673202
 30
0.0
 40
0.0395831564851518
 50
270.2610585350129213
 51
359.6930927746086013
  0
LINE
  5
58A2
  8
0
 10
289.4036099270567206
 20
13.4797815080710901
 30
0.0
 11
289.4036097479632872
 21
13.4207403806539496
 31
0.0
  0
LINE
  5
58A3
  8
0
 10
290.1850364020085067
 20
13.4797815080710901
 30
0.0
 11
290.1850362229164944
 21
13.4207421184549496
 31
0.0
  0
ARC
  5
58A4
  8
0
 10
289.4431891460006909
 20
13.4209498757272492
 30
0.0
 40
0.0395799524657016
 50
180.3032656389706858
 51
269.5377696631823028
  0
ARC
  5
58A5
  8
0
 10
290.1454533078004943
 20
13.4209542826076493
 30
0.0
 40
0.0395834837110692
 50
270.261528979801426
 51
359.6928979568348836
  0
ARC
  5
58A6
  8
0
 10
287.8239700268139245
 20
5.5978502892805722
 30
0.0
 40
8.0215274201422275
 50
79.9528249759713674
 51
81.4851851195639938
  0
ARC
  5
58A7
  8
0
 10
288.9304073845834182
 20
12.1225060777430897
 30
0.0
 40
1.4047513542454939
 50
70.3144077901134068
 51
77.9613920424590106
  0
LINE
  5
58A8
  8
0
 10
290.1850364020085067
 20
13.4797815080710901
 30
0.0
 11
289.4036099270567206
 21
13.4797815080710901
 31
0.0
  0
LINE
  5
58A9
  8
0
 10
287.2662527600630824
 20
14.3979257687048108
 30
0.0
 11
301.5868191718925004
 21
14.3979257687048108
 31
0.0
  0
ARC
  5
58AA
  8
0
 10
289.425060893291004
 20
13.5192333265156197
 30
0.0
 40
0.0394607060597309
 50
196.4082380092575875
 51
268.7839372762986727
  0
ARC
  5
58AB
  8
0
 10
290.1721012297415996
 20
13.5191986311631993
 30
0.0
 40
0.0394324666377697
 50
271.6606477983721106
 51
329.0980116112472729
  0
LINE
  5
58AC
  8
0
 10
287.1304921718328842
 20
14.1223316353048194
 30
0.0
 11
301.7225797601226986
 21
14.1223316353048194
 31
0.0
  0
LINE
  5
58AD
  8
0
 10
287.2436478261799948
 20
13.8777261902048092
 30
0.0
 11
301.609424105775588
 21
13.8777261902048092
 31
0.0
  0
ARC
  5
58AE
  8
0
 10
301.5316055579834824
 20
13.1449246395259305
 30
0.0
 40
0.2364466072638635
 50
29.27735808975903
 51
89.9685889860762842
  0
ARC
  5
58AF
  8
0
 10
301.5320611058787108
 20
13.1451800444213003
 30
0.0
 40
0.2359243472276712
 50
345.4212074658843221
 51
29.27735808975903
  0
ARC
  5
58B0
  8
0
 10
349.2999202230911919
 20
0.6308676123095509
 30
0.0
 40
49.1439948223691232
 50
165.3189848752977014
 51
171.8622055225295071
  0
ARC
  5
58B1
  8
0
 10
8103.6795542434310846
 20
109.056854507618695
 30
0.0
 40
7804.0793819393347803
 50
180.7721484432811963
 51
180.817194323421802
  0
LINE
  5
58B2
  8
0
 10
301.9156677406277822
 20
26.9808124366576187
 30
0.0
 11
301.6298738108861812
 21
15.42853973551974
 31
0.0
  0
ARC
  5
58B3
  8
0
 10
301.7975936291426251
 20
26.9837334158910309
 30
0.0
 40
0.1181102362852207
 50
358.5828760301761235
 51
90.0
  0
ARC
  5
58B4
  8
0
 10
301.2991006054318177
 20
14.1829128960794097
 30
0.0
 40
1.296261339681825
 50
84.263168673445648
 51
89.461088736925646
  0
ARC
  5
58B5
  8
0
 10
301.3376872405904123
 20
14.5709259618473208
 30
0.0
 40
0.9063346188039118
 50
72.2324330330308442
 51
84.2383768357198051
  0
ARC
  5
58B6
  8
0
 10
301.5242864287295106
 20
15.1532466885028203
 30
0.0
 40
0.2948473452594913
 50
45.8826825300871235
 51
72.2324330330308442
  0
ARC
  5
58B7
  8
0
 10
301.5990574521259191
 20
15.2433376161541094
 30
0.0
 40
0.1783483290709457
 50
5.4460332198553401
 51
42.9786597309075304
  0
ARC
  5
58B8
  8
0
 10
285.264634945924513
 20
14.4449612927224997
 30
0.0
 40
16.5124592938763897
 50
358.5163860167068037
 51
359.5570202573828169
  0
ARC
  5
58B9
  8
0
 10
295.5851592730135735
 20
14.1099848326732005
 30
0.0
 40
6.1870917266226266
 50
356.9054172657957906
 51
359.1429190723071088
  0
ARC
  5
58BA
  8
0
 10
301.1231516443590976
 20
13.8105830323608405
 30
0.0
 40
0.6410119450912739
 50
347.8110387338231817
 51
356.9054172657957906
  0
ARC
  5
58BB
  8
0
 10
301.7023426832690802
 20
13.6839243916709101
 30
0.0
 40
0.0481594214911251
 50
283.7951379635254057
 51
349.6137062978756944
  0
ARC
  5
58BC
  8
0
 10
301.2485769739519128
 20
14.1954640419816407
 30
0.0
 40
1.2851840035887589
 50
78.8573785254417885
 51
87.2029078510063869
  0
ARC
  5
58BD
  8
0
 10
301.397064995218102
 20
14.9260453227269796
 30
0.0
 40
0.5396979740064913
 50
69.6013639497912209
 51
79.3354019408214981
  0
ARC
  5
58BE
  8
0
 10
301.5159910218021082
 20
15.2458510734218908
 30
0.0
 40
0.1984955150813204
 50
51.3373839884821521
 51
69.6013639497912209
  0
ARC
  5
58BF
  8
0
 10
301.6140130394675793
 20
15.3683662872097901
 30
0.0
 40
0.0415933367767409
 50
4.3875361315678481
 51
51.3373839884841914
  0
LINE
  5
58C0
  8
0
 10
301.6554844835499125
 20
15.37154826614616
 30
0.0
 11
301.6490692090994798
 21
14.60589883003159
 31
0.0
  0
ARC
  5
58C1
  8
0
 10
300.7646318915332131
 20
14.6027894719995395
 30
0.0
 40
0.8844427832320992
 50
349.5237432322815039
 51
0.2014301689065195
  0
ARC
  5
58C2
  8
0
 10
301.5810186276456761
 20
14.4518310369595895
 30
0.0
 40
0.0542164574569278
 50
276.1417519005264012
 51
349.5237432322815039
  0
ARC
  5
58C3
  8
0
 10
300.0433227919281762
 20
14.4451688604291508
 30
0.0
 40
1.735727886923661
 50
351.442074896713109
 51
356.955422396224094
  0
ARC
  5
58C4
  8
0
 10
301.6010680835813105
 20
14.2116008083081198
 30
0.0
 40
0.1605717636116459
 50
331.4427090453826281
 51
351.1425683065784824
  0
ARC
  5
58C5
  8
0
 10
301.7189379536545744
 20
14.1495072897807699
 30
0.0
 40
0.0274185876833075
 50
277.6327267337288731
 51
327.6639444924741156
  0
ARC
  5
58C6
  8
0
 10
301.5940743097430072
 20
13.9095543400921002
 30
0.0
 40
0.035336204712565
 50
295.7466687210977057
 51
349.7284855098843082
  0
ARC
  5
58C7
  8
0
 10
301.0522136523218819
 20
14.0350831907373799
 30
0.0
 40
0.591508144076634
 50
347.1223085078228223
 51
356.6962179536296276
  0
ARC
  5
58C8
  8
0
 10
298.865586937411706
 20
14.1982196912455798
 30
0.0
 40
2.784146142764004
 50
355.9378437975748284
 51
358.4380834621721874
  0
ARC
  5
58C9
  8
0
 10
301.2550895105861741
 20
13.9010612317961293
 30
0.0
 40
0.2309324258223603
 50
106.6324087826801019
 51
145.7825447966602894
  0
ARC
  5
58CA
  8
0
 10
301.0411198395652264
 20
14.0484881912517992
 30
0.0
 40
0.0289479517517644
 50
288.772846026291802
 51
322.6418133216661772
  0
ARC
  5
58CB
  8
0
 10
300.9470664088614171
 20
14.4547027557539298
 30
0.0
 40
0.4457731872893526
 50
273.8022054120722828
 51
283.4082413278223953
  0
LINE
  5
58CC
  8
0
 10
301.0131148048499199
 20
13.9645927885461703
 30
0.0
 11
301.0131148048499199
 21
14.0138497826512705
 31
0.0
  0
ARC
  5
58CD
  8
0
 10
300.9704184428258031
 20
13.9652460007944192
 30
0.0
 40
0.0427013584834956
 50
313.5111731593262903
 51
359.1234994367438844
  0
ARC
  5
58CE
  8
0
 10
300.9577733997339806
 20
13.9847549196631906
 30
0.0
 40
0.0656944106454533
 50
281.1868381736314859
 51
309.7922003183293782
  0
ARC
  5
58CF
  8
0
 10
300.1963605065135994
 20
13.9010612317961293
 30
0.0
 40
0.2309324258223603
 50
34.2174552033397106
 51
73.3675912173198554
  0
ARC
  5
58D0
  8
0
 10
300.4103301775344903
 20
14.0484881912517992
 30
0.0
 40
0.0289479517517644
 50
217.3581866783337091
 51
251.2271539737081127
  0
ARC
  5
58D1
  8
0
 10
300.5043836082384132
 20
14.4547027557539298
 30
0.0
 40
0.4457731872893526
 50
256.5917586721777184
 51
266.1977945879276035
  0
LINE
  5
58D2
  8
0
 10
300.4383352122497968
 20
13.9645927885461703
 30
0.0
 11
300.4383352122497968
 21
14.0138497826512705
 31
0.0
  0
ARC
  5
58D3
  8
0
 10
300.4810315742740272
 20
13.9652460007944192
 30
0.0
 40
0.0427013584834956
 50
180.8765005632560872
 51
226.4888268406735961
  0
ARC
  5
58D4
  8
0
 10
300.4936766173656792
 20
13.9847549196631906
 30
0.0
 40
0.0656944106454533
 50
230.207799681670906
 51
258.8131618263684004
  0
ARC
  5
58D5
  8
0
 10
300.7257250085498868
 20
17.7391186091000108
 30
0.0
 40
3.7376386764339138
 50
266.150932349936113
 51
273.8490676500640006
  0
ARC
  5
58D6
  8
0
 10
300.8418153564824138
 20
14.6488765827440908
 30
0.0
 40
0.7398484196002012
 50
273.441546761478719
 51
280.0180886959291797
  0
ARC
  5
58D7
  8
0
 10
300.6096346606174166
 20
14.6488765827440908
 30
0.0
 40
0.7398484196002012
 50
259.9819113040708203
 51
266.558453238521281
  0
ARC
  5
58D8
  8
0
 10
300.7257250085498868
 20
16.6018116246205985
 30
0.0
 40
2.696230729764618
 50
266.5872285890156945
 51
273.4127714109843055
  0
LINE
  5
58D9
  8
0
 10
298.6704947017798872
 20
13.9665970341461598
 30
0.0
 11
299.4469900594198748
 21
13.9665970341461705
 31
0.0
  0
ARC
  5
58DA
  8
0
 10
299.4467413848179262
 20
13.9862804840708694
 30
0.0
 40
0.019685020700925
 50
270.7238186012939991
 51
337.6544533887119997
  0
ARC
  5
58DB
  8
0
 10
299.6827414894096933
 20
13.8892705537362104
 30
0.0
 40
0.2354756658299088
 50
98.2121637963737868
 51
157.6544533887119997
  0
LINE
  5
58DC
  8
0
 10
299.4494545819499081
 20
13.9075419160461706
 30
0.0
 11
299.4494545819499081
 21
13.96678334065653
 31
0.0
  0
ARC
  5
58DD
  8
0
 10
299.4087147599843775
 20
13.9079480506401101
 30
0.0
 40
0.0407418462896776
 50
312.1159505640723069
 51
359.4288382664590813
  0
ARC
  5
58DE
  8
0
 10
298.6707433763817789
 20
13.9862804840708694
 30
0.0
 40
0.019685020700925
 50
202.3455466112880003
 51
269.2761813987058872
  0
ARC
  5
58DF
  8
0
 10
298.4347432717900119
 20
13.8892705537362104
 30
0.0
 40
0.2354756658299088
 50
22.3455466112880003
 51
81.787836203626199
  0
LINE
  5
58E0
  8
0
 10
298.6680301792499108
 20
13.9075419160461706
 30
0.0
 11
298.6680301792499108
 21
13.96678334065653
 31
0.0
  0
ARC
  5
58E1
  8
0
 10
298.7087700012153846
 20
13.9079480506401101
 30
0.0
 40
0.0407418462896776
 50
180.5711617335408903
 51
227.8840494359274942
  0
ARC
  5
58E2
  8
0
 10
301.2074469204121101
 20
13.4571708990337395
 30
0.0
 40
0.1922504974433575
 50
110.7833707586460008
 51
148.866851560187996
  0
ARC
  5
58E3
  8
0
 10
301.0084913290838813
 20
13.5797571002180408
 30
0.0
 40
0.0414811072275841
 50
279.4197591204916762
 51
326.0145802190259019
  0
LINE
  5
58E4
  8
0
 10
301.0227613292498745
 20
13.5388353334461708
 30
0.0
 11
301.0227613292498745
 21
13.4797670209576292
 31
0.0
  0
LINE
  5
58E5
  8
0
 10
301.0227613292498745
 20
13.5388353334461708
 30
0.0
 11
300.4479581840499236
 21
13.5388353334461708
 31
0.0
  0
LINE
  5
58E6
  8
0
 10
300.4479581840499236
 20
13.5388353334461708
 30
0.0
 11
300.4479581840499236
 21
13.4797682991576995
 31
0.0
  0
ARC
  5
58E7
  8
0
 10
300.301623302697692
 20
13.4051185608312498
 30
0.0
 40
0.1905154654176322
 50
48.6015656490975516
 51
76.0538384390502245
  0
ARC
  5
58E8
  8
0
 10
300.4542706927662721
 20
13.5804956995253008
 30
0.0
 40
0.0420101694871498
 50
230.6070226065480995
 51
262.6009792769635283
  0
ARC
  5
58E9
  8
0
 10
301.4188311960995179
 20
2.2100288290410779
 30
0.0
 40
11.4303028177506807
 50
91.3510183681552945
 51
97.9324149638483732
  0
ARC
  5
58EA
  8
0
 10
299.6556917443970747
 20
13.4562268671632399
 30
0.0
 40
0.1967835077309582
 50
113.1581250145537041
 51
164.7199945591954986
  0
ARC
  5
58EB
  8
0
 10
298.4217924441568925
 20
13.34684926598643
 30
0.0
 40
0.2718702310704767
 50
34.0178189002134417
 51
75.0824482036954493
  0
ARC
  5
58EC
  8
0
 10
298.8011652709353143
 20
11.9500391955142806
 30
0.0
 40
1.688110743503793
 50
91.9680755455745498
 51
100.5604775415147998
  0
ARC
  5
58ED
  8
0
 10
300.2757725990853146
 20
-2.2484884244813652
 30
0.0
 40
0.1181718755007039
 50
270.0290027559083796
 51
0.7890220106761415
  0
ARC
  5
58EE
  8
0
 10
342.4202140650056094
 20
1.861020942195956
 30
0.0
 40
42.1601360147028217
 50
172.1936882011466992
 51
177.2441195676032919
  0
LINE
  5
58EF
  8
0
 10
301.7766007228556191
 20
15.2602643258461601
 30
0.0
 11
301.7766007228556191
 21
14.3172972281556508
 31
0.0
  0
LINE
  5
58F0
  8
0
 10
301.1078163964330088
 20
13.6215911303280492
 30
0.0
 11
301.1106817677277832
 21
13.5677585122576296
 31
0.0
  0
ARC
  5
58F1
  8
0
 10
301.3084402038729763
 20
13.5792427580249893
 30
0.0
 40
0.1980916125620741
 50
183.323552956492108
 51
267.2990218378279224
  0
LINE
  5
58F2
  8
0
 10
300.4873604193277856
 20
13.4403975813576295
 30
0.0
 11
300.9835012366913247
 21
13.4403975813576295
 31
0.0
  0
ARC
  5
58F3
  8
0
 10
300.9831814634459874
 20
13.4799767108576294
 30
0.0
 40
0.0395804212573049
 50
270.4629020129444257
 51
359.696455921989525
  0
ARC
  5
58F4
  8
0
 10
300.4875407726657954
 20
13.4799803269673202
 30
0.0
 40
0.0395831564851518
 50
180.3069072253913134
 51
269.7389414649871924
  0
LINE
  5
58F5
  8
0
 10
299.4494620048989759
 20
13.4797815080710901
 30
0.0
 11
299.4494621839922956
 21
13.4207403806539496
 31
0.0
  0
LINE
  5
58F6
  8
0
 10
298.6680355299470762
 20
13.4797815080710901
 30
0.0
 11
298.6680357090390885
 21
13.4207421184549496
 31
0.0
  0
ARC
  5
58F7
  8
0
 10
299.4098827859548919
 20
13.4209498757272492
 30
0.0
 40
0.0395799524657016
 50
270.4622303368175835
 51
359.6967343610292005
  0
ARC
  5
58F8
  8
0
 10
298.7076186241549749
 20
13.4209542826076493
 30
0.0
 40
0.0395834837110692
 50
180.3071020431650879
 51
269.738471020198574
  0
ARC
  5
58F9
  8
0
 10
301.029101905141772
 20
5.5978502892805722
 30
0.0
 40
8.0215274201422275
 50
98.5148148804360346
 51
100.0471750240286042
  0
ARC
  5
58FA
  8
0
 10
299.9226645473722215
 20
12.1225060777430897
 30
0.0
 40
1.4047513542454939
 50
102.0386079575410037
 51
109.6855922098865932
  0
LINE
  5
58FB
  8
0
 10
298.6680355299470762
 20
13.4797815080710901
 30
0.0
 11
299.4494620048989759
 21
13.4797815080710901
 31
0.0
  0
ARC
  5
58FC
  8
0
 10
299.4280110386645788
 20
13.5192333265156197
 30
0.0
 40
0.0394607060597309
 50
271.2160627237013273
 51
343.5917619907423841
  0
ARC
  5
58FD
  8
0
 10
298.6809707022139264
 20
13.5191986311631993
 30
0.0
 40
0.0394324666377697
 50
210.9019883887526987
 51
268.3393522016264114
  0
ARC
  5
58FE
  8
0
 10
288.787638403069991
 20
-0.2585538900138786
 30
0.0
 40
0.0104387093518749
 50
66.1418370308890644
 51
113.858162969110893
  0
LINE
  5
58FF
  8
0
 10
288.7834162176278028
 20
-0.2490071731423669
 30
0.0
 11
288.7731673698277746
 21
-0.2533372716423656
 31
0.0
  0
ARC
  5
5900
  8
0
 10
288.7945132328804902
 20
-0.2962596337228049
 30
0.0
 40
0.047937198875474
 50
116.4417712517559949
 51
146.7792691327765908
  0
ARC
  5
5901
  8
0
 10
288.9258126965507927
 20
-0.3678325162378329
 30
0.0
 40
0.1973589907428667
 50
150.2823454990295033
 51
164.4106817604470052
  0
ARC
  5
5902
  8
0
 10
289.366975905017398
 20
-0.4879990782427726
 30
0.0
 40
0.6545926229922812
 50
164.6568448732101047
 51
171.1536858178808984
  0
ARC
  5
5903
  8
0
 10
291.1872250254277787
 20
-0.7918571352423669
 30
0.0
 40
2.5000000289999931
 50
170.6880450450998978
 51
189.3119549549001022
  0
ARC
  5
5904
  8
0
 10
289.4469793439039904
 20
-1.0785722182492981
 30
0.0
 40
0.7362952916519367
 50
189.2070535538836964
 51
194.9820713819107141
  0
ARC
  5
5905
  8
0
 10
288.9420224436860849
 20
-1.2112219190917839
 30
0.0
 40
0.2142247719941002
 50
195.6237992514525104
 51
206.7786060515269071
  0
ARC
  5
5906
  8
0
 10
288.7969859668212962
 20
-1.2844171537381179
 30
0.0
 40
0.0517651708733774
 50
206.778606051527305
 51
242.6046419960156868
  0
LINE
  5
5907
  8
0
 10
288.7731673698277746
 20
-1.3303769987423659
 30
0.0
 11
288.7834162176278028
 21
-1.3347070972423649
 31
0.0
  0
ARC
  5
5908
  8
0
 10
288.7876384543558856
 20
-1.32516013739545
 30
0.0
 40
0.0104389523088776
 50
246.1421190030897037
 51
293.8578809969102963
  0
ARC
  5
5909
  8
0
 10
284.9492929503123833
 20
-0.7918570933001307
 30
0.0
 40
3.9121624738154428
 50
357.6536126812364955
 51
2.346367643770773
  0
ARC
  5
590A
  8
0
 10
285.9970654770955889
 20
-0.8347896700170309
 30
0.0
 40
2.8635107327568141
 50
353.671449537576791
 51
357.6536126812364955
  0
ARC
  5
590B
  8
0
 10
287.7562805244369883
 20
-1.029896168923478
 30
0.0
 40
1.093509566455469
 50
348.5276586679062234
 51
353.671449537576791
  0
ARC
  5
590C
  8
0
 10
288.4065821980079818
 20
-1.161874654372518
 30
0.0
 40
0.4299505357200094
 50
340.3949872648159953
 51
348.5276586679062234
  0
ARC
  5
590D
  8
0
 10
288.7316004024435188
 20
-1.277640472990768
 30
0.0
 40
0.0849308870406609
 50
324.4395612361076928
 51
340.3949872648159953
  0
ARC
  5
590E
  8
0
 10
288.7802318141290243
 20
-1.312406379565707
 30
0.0
 40
0.0251506021424819
 50
297.540127447031125
 51
324.4395612361072949
  0
ARC
  5
590F
  8
0
 10
286.1933636090420237
 20
-0.734109766578257
 30
0.0
 40
2.666784735069982
 50
2.200996629330616
 51
6.4770687775656537
  0
ARC
  5
5910
  8
0
 10
287.7170962074769136
 20
-0.5611200908209142
 30
0.0
 40
1.133263799623752
 50
6.4770687775656537
 51
11.9912143689331305
  0
ARC
  5
5911
  8
0
 10
288.5100576493945255
 20
-0.392698013849639
 30
0.0
 40
0.3226135394132862
 50
11.9912143689331305
 51
22.1310375878772803
  0
ARC
  5
5912
  8
0
 10
288.7495819779758222
 20
-0.2952860903143417
 30
0.0
 40
0.064038624100252
 50
22.1310375878772803
 51
38.5324904322161572
  0
ARC
  5
5913
  8
0
 10
288.7810252055310229
 20
-0.2702458926946818
 30
0.0
 40
0.023843001752497
 50
38.5324904322158517
 51
62.9706347426584898
  0
ARC
  5
5914
  8
0
 10
288.7773746831937842
 20
-0.2645054448317623
 30
0.0
 40
0.0119343863750143
 50
70.9385265149080482
 51
110.6425711636576068
  0
ARC
  5
5915
  8
0
 10
288.7702066495211284
 20
-0.2752665665435785
 30
0.0
 40
0.0246629036140981
 50
36.7249173956565187
 51
63.3413826259692883
  0
ARC
  5
5916
  8
0
 10
288.6668764065034907
 20
-0.3385481543292741
 30
0.0
 40
0.1457452746457339
 50
15.1280896059514909
 51
32.3698031445784267
  0
ARC
  5
5917
  8
0
 10
287.7310710348268117
 20
-0.567809043443198
 30
0.0
 40
1.1091887256030899
 50
6.2388776791793461
 51
13.9446472737728495
  0
ARC
  5
5918
  8
0
 10
285.9152529830656135
 20
-0.7556153882604449
 30
0.0
 40
2.9346814392949239
 50
1.6764118838795341
 51
6.0311845880105599
  0
ARC
  5
5919
  8
0
 10
284.9662371588780729
 20
-0.7914493685773536
 30
0.0
 40
3.8843477402848512
 50
357.4579323630679824
 51
1.795233115347117
  0
ARC
  5
591A
  8
0
 10
286.0284794220223148
 20
-0.8389362333770336
 30
0.0
 40
2.8210446409508929
 50
354.3726496842385814
 51
357.4645659379123117
  0
ARC
  5
591B
  8
0
 10
287.4289822104850032
 20
-0.9778402538197497
 30
0.0
 40
1.413670932210072
 50
349.3809266529418096
 51
354.4092946814777179
  0
ARC
  5
591C
  8
0
 10
288.2943363502479883
 20
-1.1322332477088319
 30
0.0
 40
0.5347411701948556
 50
342.1180444925607844
 51
348.5540100657954099
  0
ARC
  5
591D
  8
0
 10
288.7050204179606112
 20
-1.2647377696105619
 30
0.0
 40
0.1032103465016878
 50
326.5629911786999742
 51
342.1180444925607844
  0
ARC
  5
591E
  8
0
 10
288.7671225492786107
 20
-1.305744158811577
 30
0.0
 40
0.0287912718665307
 50
308.2174438620028809
 51
326.5629911786999742
  0
ARC
  5
591F
  8
0
 10
288.7771985001501207
 20
-1.318540390016963
 30
0.0
 40
0.0125042120021255
 50
251.1929728769256087
 51
308.2174438620048136
  0
ARC
  5
5920
  8
0
 10
300.0654335288855918
 20
-0.2585538900138786
 30
0.0
 40
0.0104387093518749
 50
66.1418370308890644
 51
113.858162969110893
  0
LINE
  5
5921
  8
0
 10
300.0696557143277801
 20
-0.2490071731423669
 30
0.0
 11
300.0799045621278083
 21
-0.2533372716423656
 31
0.0
  0
ARC
  5
5922
  8
0
 10
300.0585586990752063
 20
-0.2962596337228049
 30
0.0
 40
0.047937198875474
 50
33.2207308672233523
 51
63.5582287482440265
  0
ARC
  5
5923
  8
0
 10
299.9272592354047902
 20
-0.3678325162378329
 30
0.0
 40
0.1973589907428667
 50
15.5893182395530108
 51
29.7176545009705215
  0
ARC
  5
5924
  8
0
 10
299.4860960269381849
 20
-0.4879990782427726
 30
0.0
 40
0.6545926229922812
 50
8.8463141821190501
 51
15.3431551267898598
  0
ARC
  5
5925
  8
0
 10
297.6658469065278041
 20
-0.7918571352423669
 30
0.0
 40
2.5000000289999931
 50
350.6880450450998978
 51
9.3119549549000915
  0
ARC
  5
5926
  8
0
 10
299.4060925880515924
 20
-1.0785722182492981
 30
0.0
 40
0.7362952916519367
 50
345.0179286180892859
 51
350.7929464461162752
  0
ARC
  5
5927
  8
0
 10
299.9110494882694979
 20
-1.2112219190917839
 30
0.0
 40
0.2142247719941002
 50
333.2213939484727234
 51
344.376200748547376
  0
ARC
  5
5928
  8
0
 10
300.0560859651344003
 20
-1.2844171537381179
 30
0.0
 40
0.0517651708733774
 50
297.3953580039843132
 51
333.2213939484727234
  0
LINE
  5
5929
  8
0
 10
300.0799045621278083
 20
-1.3303769987423659
 30
0.0
 11
300.0696557143277801
 21
-1.3347070972423649
 31
0.0
  0
ARC
  5
592A
  8
0
 10
300.0654334775996972
 20
-1.32516013739545
 30
0.0
 40
0.0104389523088776
 50
246.1421190030897037
 51
293.8578809969102963
  0
ARC
  5
592B
  8
0
 10
303.9037789816433133
 20
-0.7918570933001307
 30
0.0
 40
3.9121624738154428
 50
177.6536323562291955
 51
182.3463873187635045
  0
ARC
  5
592C
  8
0
 10
302.8560064548599939
 20
-0.8347896700170309
 30
0.0
 40
2.8635107327568141
 50
182.3463873187635045
 51
186.328550462423209
  0
ARC
  5
592D
  8
0
 10
301.0967914075184808
 20
-1.029896168923478
 30
0.0
 40
1.093509566455469
 50
186.328550462423209
 51
191.4723413320934924
  0
ARC
  5
592E
  8
0
 10
300.4464897339476011
 20
-1.161874654372518
 30
0.0
 40
0.4299505357200094
 50
191.4723413320934924
 51
199.6050127351840047
  0
ARC
  5
592F
  8
0
 10
300.1214715295121209
 20
-1.277640472990768
 30
0.0
 40
0.0849308870406609
 50
199.6050127351836068
 51
215.5604387638923072
  0
ARC
  5
5930
  8
0
 10
300.0728401178266154
 20
-1.312406379565707
 30
0.0
 40
0.0251506021424819
 50
215.5604387638927051
 51
242.4598725529689034
  0
ARC
  5
5931
  8
0
 10
302.659708322913616
 20
-0.734109766578257
 30
0.0
 40
2.666784735069982
 50
173.5229312224342948
 51
177.7990033706693964
  0
ARC
  5
5932
  8
0
 10
301.1359757244786124
 20
-0.5611200908209142
 30
0.0
 40
1.133263799623752
 50
168.008785631066786
 51
173.5229312224342948
  0
ARC
  5
5933
  8
0
 10
300.3430142825611142
 20
-0.392698013849639
 30
0.0
 40
0.3226135394132862
 50
157.8689624121226984
 51
168.008785631066786
  0
ARC
  5
5934
  8
0
 10
300.1034899539798175
 20
-0.2952860903143417
 30
0.0
 40
0.064038624100252
 50
141.467509567783793
 51
157.8689624121226984
  0
ARC
  5
5935
  8
0
 10
300.0720467264246167
 20
-0.2702458926946818
 30
0.0
 40
0.023843001752497
 50
117.029365257341496
 51
141.4675095677841057
  0
ARC
  5
5936
  8
0
 10
300.0756972487617986
 20
-0.2645054448317623
 30
0.0
 40
0.0119343863750143
 50
69.3574288363423932
 51
109.061473485091895
  0
ARC
  5
5937
  8
0
 10
300.0828652824345113
 20
-0.2752665665435785
 30
0.0
 40
0.0246629036140981
 50
116.6586173740306975
 51
143.275082604343396
  0
ARC
  5
5938
  8
0
 10
300.1861955254519785
 20
-0.3385481543292741
 30
0.0
 40
0.1457452746457339
 50
147.6301968554215023
 51
164.8719103940485127
  0
ARC
  5
5939
  8
0
 10
301.122000897128828
 20
-0.567809043443198
 30
0.0
 40
1.1091887256030899
 50
166.0553527262271984
 51
173.7611223208205899
  0
ARC
  5
593A
  8
0
 10
302.9378189488900261
 20
-0.7556153882604449
 30
0.0
 40
2.9346814392949239
 50
173.9688154119893966
 51
178.3235881161203906
  0
ARC
  5
593B
  8
0
 10
303.8868347730776236
 20
-0.7914493685773536
 30
0.0
 40
3.8843477402848512
 50
178.2047668846527984
 51
182.5420676369319892
  0
ARC
  5
593C
  8
0
 10
302.8245925099333249
 20
-0.8389362333770336
 30
0.0
 40
2.8210446409508929
 50
182.5354340620872904
 51
185.627350315761305
  0
ARC
  5
593D
  8
0
 10
301.4240897214705228
 20
-0.9778402538197497
 30
0.0
 40
1.413670932210072
 50
185.5907053185223106
 51
190.6190733470581904
  0
ARC
  5
593E
  8
0
 10
300.5587355817075945
 20
-1.1322332477088319
 30
0.0
 40
0.5347411701948556
 50
191.4459899342045048
 51
197.8819555074391872
  0
ARC
  5
593F
  8
0
 10
300.1480515139949716
 20
-1.2647377696105619
 30
0.0
 40
0.1032103465016878
 50
197.8819555074391872
 51
213.4370088212999974
  0
ARC
  5
5940
  8
0
 10
300.0859493826769722
 20
-1.305744158811577
 30
0.0
 40
0.0287912718665307
 50
213.4370088212999974
 51
231.7825561379970054
  0
ARC
  5
5941
  8
0
 10
300.075873431805519
 20
-1.318540390016963
 30
0.0
 40
0.0125042120021255
 50
231.7825561379951864
 51
288.8070271230744197
  0
LINE
  5
5942
  8
0
 10
286.9291466109277735
 20
25.8034735734576302
 30
0.0
 11
286.9291466109277735
 21
24.5534735734576302
 31
0.0
  0
LINE
  5
5943
  8
0
 10
286.9291466109277735
 20
25.8034735734576302
 30
0.0
 11
286.4781173603278148
 21
25.7916629568576283
 31
0.0
  0
ARC
  5
5944
  8
0
 10
286.4786408993301166
 20
25.7716698103570785
 30
0.0
 40
0.0200000000019924
 50
91.5000001035176638
 51
174.3072242739598892
  0
LINE
  5
5945
  8
0
 10
286.4587395376278209
 20
25.7736536960576288
 30
0.0
 11
286.4587395328277921
 21
24.5832934984576283
 31
0.0
  0
ARC
  5
5946
  8
0
 10
286.4786408993742839
 20
24.5852773366665716
 30
0.0
 40
0.0200000001114983
 50
185.6926389670028072
 51
268.4999997779398768
  0
LINE
  5
5947
  8
0
 10
286.4781173603278148
 20
24.5652841900576284
 30
0.0
 11
286.9291466109277735
 21
24.5534735734576302
 31
0.0
  0
ARC
  5
5948
  8
0
 10
292.4291466037083183
 20
25.178473573182611
 30
0.0
 40
5.9999999927807828
 50
174.307085953129814
 51
185.6929135847917109
  0
LINE
  5
5949
  8
0
 10
286.9291466109277735
 20
25.6217056630576288
 30
0.0
 11
286.9709912490679926
 21
25.6231669100555415
 31
0.0
  0
LINE
  5
594A
  8
0
 10
286.9882017291278089
 20
24.7948784517065484
 30
0.0
 11
286.9882017291278089
 21
24.7454045066076205
 31
0.0
  0
LINE
  5
594B
  8
0
 10
286.9291466109277735
 20
24.7352414838576316
 30
0.0
 11
286.9763354884278215
 21
24.7335936119576409
 31
0.0
  0
ARC
  5
594C
  8
0
 10
286.976390705406402
 20
24.7454045066076205
 30
0.0
 40
0.0118110237214212
 50
269.7321391075822135
 51
359.999999272382297
  0
LINE
  5
594D
  8
0
 10
286.9914651832053778
 20
24.7955759579528383
 30
0.0
 11
286.9808972993278076
 21
24.7933172575576393
 31
0.0
  0
LINE
  5
594E
  8
0
 10
286.9567056661277888
 20
24.8508068556576305
 30
0.0
 11
286.9567056661277888
 21
24.8107698081576409
 31
0.0
  0
ARC
  5
594F
  8
0
 10
286.9759228706033127
 20
24.8119147549677201
 30
0.0
 40
0.0192512818028552
 50
183.4096095707724032
 51
284.974829198669795
  0
ARC
  5
5950
  8
0
 10
286.9765132499189235
 20
24.8369700555395809
 30
0.0
 40
0.0257577488073544
 50
270.1250270554472763
 51
281.1303434821414271
  0
ARC
  5
5951
  8
0
 10
286.9699943709513832
 20
24.8263210036840682
 30
0.0
 40
0.0132956629547728
 50
181.8537359739891883
 51
240.937841789847198
  0
ARC
  5
5952
  8
0
 10
286.9761042506880244
 20
24.8355752741090683
 30
0.0
 40
0.0243673471664595
 50
238.9499376404255884
 51
271.0939213830235985
  0
LINE
  5
5953
  8
0
 10
286.9814855676277716
 20
24.8116967953576406
 30
0.0
 11
286.9910213463854802
 21
24.8135165908495701
 31
0.0
  0
LINE
  5
5954
  8
0
 10
286.9768505299277876
 20
24.8585797939576203
 30
0.0
 11
286.9681044711277877
 21
24.8585967963576202
 31
0.0
  0
ARC
  5
5955
  8
0
 10
286.9778133133045799
 20
24.869598043515289
 30
0.0
 40
0.0110602339552811
 50
265.0061336712703906
 51
342.4925080478864174
  0
ARC
  5
5956
  8
0
 10
287.0013461450616887
 20
24.8641283023176989
 30
0.0
 40
0.0131604999267112
 50
152.9872965840181109
 51
170.6307381517495116
  0
ARC
  5
5957
  8
0
 10
286.9678094951137268
 20
24.8442804019580983
 30
0.0
 40
0.0143194329305344
 50
88.8196406740015618
 51
124.9721926648219039
  0
ARC
  5
5958
  8
0
 10
286.9635049538063072
 20
24.8504342785578096
 30
0.0
 40
0.0068094879858697
 50
124.9721926647965944
 51
176.8635291235354998
  0
LINE
  5
5959
  8
0
 10
286.9567056661277888
 20
25.4591009285024796
 30
0.0
 11
286.9567056661277888
 21
25.4991379760024799
 31
0.0
  0
ARC
  5
595A
  8
0
 10
286.9759228706033127
 20
25.4979930291924006
 30
0.0
 40
0.0192512818028552
 50
96.884888377705451
 51
176.5903904292275115
  0
ARC
  5
595B
  8
0
 10
286.9699943709513832
 20
25.483586780476049
 30
0.0
 40
0.0132956629547728
 50
119.0621582101527025
 51
178.146264026010698
  0
ARC
  5
595C
  8
0
 10
286.9761042506880244
 20
25.4743325100510383
 30
0.0
 40
0.0243673471664595
 50
94.7827297952651833
 51
121.0500623595742979
  0
LINE
  5
595D
  8
0
 10
286.9752424829910069
 20
25.4513248641478889
 30
0.0
 11
286.9681044711277877
 21
25.4513109878024792
 31
0.0
  0
ARC
  5
595E
  8
0
 10
286.9678094951137268
 20
25.4656273822020189
 30
0.0
 40
0.0143194329305344
 50
235.0278073351794035
 51
271.1803593259983813
  0
ARC
  5
595F
  8
0
 10
286.9635049538063072
 20
25.4594735056023111
 30
0.0
 40
0.0068094879858697
 50
183.1364708764643865
 51
235.0278073352033061
  0
ENDSEC
  0
EOF
