  0
SECTION
  2
HEADER
  9
$ACADVER
  1
AC1009
  9
$INSBASE
 10
7916.2381018829846653
 20
1793.7820687159480713
 30
0.0
  9
$EXTMIN
 10
7909.7272395755835532
 20
1793.776614384828008
 30
0.0
  9
$EXTMAX
 10
7917.2321963711847275
 20
1799.7297931904070083
 30
0.0
  9
$LIMMIN
 10
0.0
 20
0.0
  9
$LIMMAX
 10
11.6929133858000007
 20
8.2677165353999982
  9
$ORTHOMODE
 70
     0
  9
$REGENMODE
 70
     1
  9
$FILLMODE
 70
     1
  9
$QTEXTMODE
 70
     0
  9
$MIRRTEXT
 70
     0
  9
$DRAGMODE
 70
     2
  9
$LTSCALE
 40
0.6431102362
  9
$OSMODE
 70
  4063
  9
$ATTMODE
 70
     1
  9
$TEXTSIZE
 40
0.2
  9
$TRACEWID
 40
0.05
  9
$TEXTSTYLE
  7
STANDARD
  9
$CLAYER
  8
0
  9
$CELTYPE
  6
BYLAYER
  9
$CECOLOR
 62
   256
  9
$DIMSCALE
 40
1.0
  9
$DIMASZ
 40
0.1875
  9
$DIMEXO
 40
0.0625
  9
$DIMDLI
 40
0.4443307087
  9
$DIMRND
 40
0.0
  9
$DIMDLE
 40
0.0
  9
$DIMEXE
 40
0.125
  9
$DIMTP
 40
0.01
  9
$DIMTM
 40
0.01
  9
$DIMTXT
 40
2.0
  9
$DIMCEN
 40
0.1052362205
  9
$DIMTSZ
 40
0.0
  9
$DIMTOL
 70
     1
  9
$DIMLIM
 70
     0
  9
$DIMTIH
 70
     1
  9
$DIMTOH
 70
     1
  9
$DIMSE1
 70
     0
  9
$DIMSE2
 70
     0
  9
$DIMTAD
 70
     0
  9
$DIMZIN
 70
     0
  9
$DIMBLK
  1

  9
$DIMASO
 70
     1
  9
$DIMSHO
 70
     1
  9
$DIMPOST
  1
\X
  9
$DIMAPOST
  1

  9
$DIMALT
 70
     1
  9
$DIMALTD
 70
     2
  9
$DIMALTF
 40
25.3999999999999986
  9
$DIMLFAC
 40
1.0
  9
$DIMTOFL
 70
     0
  9
$DIMTVP
 40
0.0
  9
$DIMTIX
 70
     0
  9
$DIMSOXD
 70
     0
  9
$DIMSAH
 70
     0
  9
$DIMBLK1
  1

  9
$DIMBLK2
  1

  9
$DIMSTYLE
  2
STANDARD
  9
$DIMCLRD
 70
     0
  9
$DIMCLRE
 70
     0
  9
$DIMCLRT
 70
     0
  9
$DIMTFAC
 40
1.0
  9
$DIMGAP
 40
0.09
  9
$LUNITS
 70
     2
  9
$LUPREC
 70
     4
  9
$SKETCHINC
 40
0.1
  9
$FILLETRAD
 40
0.0
  9
$AUNITS
 70
     0
  9
$AUPREC
 70
     0
  9
$MENU
  1
.
  9
$ELEVATION
 40
0.0
  9
$PELEVATION
 40
0.0
  9
$THICKNESS
 40
0.0
  9
$LIMCHECK
 70
     0
  9
$BLIPMODE
 70
     0
  9
$CHAMFERA
 40
0.0
  9
$CHAMFERB
 40
0.0
  9
$SKPOLY
 70
     0
  9
$TDCREATE
 40
2458060.468368056230247
  9
$TDUPDATE
 40
2459387.7510185181163251
  9
$TDINDWG
 40
0.4244746528
  9
$TDUSRTIMER
 40
0.4244746528
  9
$USRTIMER
 70
     1
  9
$ANGBASE
 50
0.0
  9
$ANGDIR
 70
     0
  9
$PDMODE
 70
     0
  9
$PDSIZE
 40
0.3125
  9
$PLINEWID
 40
0.0
  9
$COORDS
 70
     1
  9
$SPLFRAME
 70
     0
  9
$SPLINETYPE
 70
     6
  9
$SPLINESEGS
 70
     8
  9
$ATTDIA
 70
     1
  9
$ATTREQ
 70
     1
  9
$HANDLING
 70
     1
  9
$HANDSEED
  5
EB08
  9
$SURFTAB1
 70
     6
  9
$SURFTAB2
 70
     6
  9
$SURFTYPE
 70
     6
  9
$SURFU
 70
     6
  9
$SURFV
 70
     6
  9
$UCSNAME
  2

  9
$UCSORG
 10
0.0
 20
0.0
 30
0.0
  9
$UCSXDIR
 10
1.0
 20
0.0
 30
0.0
  9
$UCSYDIR
 10
0.0
 20
1.0
 30
0.0
  9
$PUCSNAME
  2

  9
$PUCSORG
 10
0.0
 20
0.0
 30
0.0
  9
$PUCSXDIR
 10
1.0
 20
0.0
 30
0.0
  9
$PUCSYDIR
 10
0.0
 20
1.0
 30
0.0
  9
$USERI1
 70
     0
  9
$USERI2
 70
     0
  9
$USERI3
 70
     0
  9
$USERI4
 70
     0
  9
$USERI5
 70
     0
  9
$USERR1
 40
0.0
  9
$USERR2
 40
0.0
  9
$USERR3
 40
0.0
  9
$USERR4
 40
0.0
  9
$USERR5
 40
0.0
  9
$WORLDVIEW
 70
     1
  9
$SHADEDGE
 70
     3
  9
$SHADEDIF
 70
    70
  9
$TILEMODE
 70
     1
  9
$MAXACTVP
 70
    64
  9
$PLIMCHECK
 70
     0
  9
$PEXTMIN
 10
1.0000000000000000E+20
 20
1.0000000000000000E+20
 30
1.0000000000000000E+20
  9
$PEXTMAX
 10
-1.0000000000000000E+20
 20
-1.0000000000000000E+20
 30
-1.0000000000000000E+20
  9
$PLIMMIN
 10
0.0
 20
0.0
  9
$PLIMMAX
 10
12.0
 20
9.0
  9
$UNITMODE
 70
     0
  9
$VISRETAIN
 70
     1
  9
$PLINEGEN
 70
     0
  9
$PSLTSCALE
 70
     1
  0
ENDSEC
  0
SECTION
  2
TABLES
  0
TABLE
  2
VPORT
 70
     1
  0
VPORT
  2
*ACTIVE
 70
     0
 10
0.0
 20
0.0
 11
1.0
 21
1.0
 12
3098.1813781296350498
 22
1548.9445795200390421
 13
0.0
 23
0.0
 14
1.0
 24
1.0
 15
0.0
 25
0.0
 16
0.0
 26
0.0
 36
9.5192988075487186
 17
4815.2983398437490905
 27
247.8086242675780966
 37
0.0
 40
6.000115826385354
 41
2.498684210526315
 42
50.0
 43
0.0
 44
0.0
 50
0.0
 51
0.0
 71
     0
 72
   100
 73
     1
 74
     1
 75
     0
 76
     0
 77
     0
 78
     0
  0
ENDTAB
  0
TABLE
  2
LTYPE
 70
     2
  0
LTYPE
  2
CONTINUOUS
 70
     0
  3
Solid line
 72
    65
 73
     0
 40
0.0
  0
LTYPE
  2
PHANTOM2
 70
     0
  3
___ _ _ ___ _ _ ___ _ _ ___ _ _
 72
    65
 73
     6
 40
1.25
 49
0.625
 49
-0.125
 49
0.125
 49
-0.125
 49
0.125
 49
-0.125
  0
ENDTAB
  0
TABLE
  2
LAYER
 70
     2
  0
LAYER
  2
0
 70
     0
 62
   255
  6
CONTINUOUS
  0
LAYER
  2
DEFPOINTS
 70
     0
 62
     7
  6
CONTINUOUS
  0
ENDTAB
  0
TABLE
  2
STYLE
 70
     1
  0
STYLE
  2
STANDARD
 70
     0
 40
0.0
 41
0.8
 50
0.0
 71
     0
 42
0.2
  3
txt
  4

  0
ENDTAB
  0
TABLE
  2
VIEW
 70
     1
  0
ENDTAB
  0
TABLE
  2
UCS
 70
     0
  0
ENDTAB
  0
TABLE
  2
APPID
 70
    10
  0
APPID
  2
ACAD
 70
     0
  0
APPID
  2
ACAD_MLEADERVER
 70
     0
  0
APPID
  2
ACAD_EXEMPT_FROM_CAD_STANDARDS
 70
     0
  0
APPID
  2
ACAD_NAV_VCDISPLAY
 70
     0
  0
APPID
  2
ACAECLAYERSTANDARD
 70
     0
  0
APPID
  2
ACCMTRANSPARENCY
 70
     0
  0
APPID
  2
ACAD_DSTYLE_DIMJAG
 70
     0
  0
APPID
  2
ACAD_DSTYLE_DIMTALN
 70
     0
  0
APPID
  2
ACDBATTR
 70
     0
  0
APPID
  2
ACADANNOTATIVE
 70
     0
  0
ENDTAB
  0
TABLE
  2
DIMSTYLE
 70
     2
  0
DIMSTYLE
  2
STANDARD
 70
     0
  3

  4

  5

  6

  7

 40
1.0
 41
0.1875
 42
0.0625
 43
0.38
 44
0.125
 45
0.0
 46
0.0
 47
0.01
 48
0.01
140
0.15625
141
0.09
142
0.0
143
25.3999999999999986
144
1.0
145
0.0
146
1.0
147
0.09
 71
     1
 72
     0
 73
     1
 74
     1
 75
     0
 76
     0
 77
     0
 78
     4
170
     0
171
     2
172
     0
173
     0
174
     0
175
     0
176
     0
177
     0
178
     0
  0
DIMSTYLE
  2
ANNOTATIVE
 70
     0
  3

  4

  5

  6

  7

 40
0.0
 41
0.18
 42
0.0625
 43
0.38
 44
0.18
 45
0.0
 46
0.0
 47
0.0
 48
0.0
140
0.18
141
0.09
142
0.0
143
25.3999999999999986
144
1.0
145
0.0
146
1.0
147
0.09
 71
     0
 72
     0
 73
     1
 74
     1
 75
     0
 76
     0
 77
     0
 78
     0
170
     0
171
     2
172
     0
173
     0
174
     0
175
     0
176
     0
177
     0
178
     0
  0
ENDTAB
  0
ENDSEC
  0
SECTION
  2
BLOCKS
  0
BLOCK
  8
0
  2
$MODEL_SPACE
 70
     0
 10
0.0
 20
0.0
 30
0.0
  3
$MODEL_SPACE
  1

  0
ENDBLK
  5
21
  8
0
  0
BLOCK
 67
     1
  8
0
  2
$PAPER_SPACE
 70
     0
 10
0.0
 20
0.0
 30
0.0
  3
$PAPER_SPACE
  1

  0
ENDBLK
  5
1D
 67
     1
  8
0
  0
BLOCK
  8
0
  2
_FILLED
 70
     0
 10
0.0
 20
0.0
 30
0.0
  3
_FILLED
  1

  0
SOLID
  5
D8EA
  8
0
  6
BYBLOCK
 62
     0
 10
0.0
 20
0.0
 30
0.0
 11
-1.0
 21
0.1666666667
 31
0.0
 12
-1.0
 22
-0.1666666667
 32
0.0
 13
-1.0
 23
-0.1666666667
 33
0.0
  0
ENDBLK
  5
D8EB
  8
0
  6
BYBLOCK
 62
     0
  0
ENDSEC
  0
SECTION
  2
ENTITIES
  0
ATTDEF
  5
3930
  8
DEFPOINTS
 10
7916.226724196268151
 20
1793.7799477181620205
 30
0.0
 40
0.001
  1
K-29937T
  3

  2
MODELNUMBER
 70
     0
1001
ACDBATTR
1070
     0
1070
     1
  0
ATTDEF
  5
3931
  8
DEFPOINTS
 10
7916.226724196268151
 20
1793.7782810514950143
 30
0.0
 40
0.001
  1
AVID
  3

  2
TRADENAME
 70
     0
1001
ACDBATTR
1070
     0
1070
     1
  0
ATTDEF
  5
3932
  8
DEFPOINTS
 10
7916.226724196268151
 20
1793.776614384828008
 30
0.0
 40
0.001
  1
FAUCET
  3

  2
PRODUCT
 70
     0
1001
ACDBATTR
1070
     0
1070
     1
  0
LINE
  5
EA5E
  8
0
 10
7915.2440073947836936
 20
1793.7820687159480713
 30
0.0
 11
7917.2321963711847275
 21
1793.7820687159480713
 31
0.0
  0
LINE
  5
EA5F
  8
0
 10
7915.2440073947836936
 20
1797.8135647788481037
 30
0.0
 11
7915.2440073947836936
 21
1793.7820687159480713
 31
0.0
  0
LINE
  5
EA60
  8
0
 10
7917.2321963711847275
 20
1793.7820687159480713
 30
0.0
 11
7917.2321963711847275
 21
1798.0256334803109439
 31
0.0
  0
ARC
  5
EA61
  8
0
 10
7914.6697877872220488
 20
1797.9201931164700454
 30
0.0
 40
2.5645770453420762
 50
2.3563305104476369
 51
44.6082612037732886
  0
ARC
  5
EA62
  8
0
 10
7916.4746635384899491
 20
1799.7000998240480385
 30
0.0
 40
0.0296933663590223
 50
45.2345711332369831
 51
99.6926796158561075
  0
ARC
  5
EA63
  8
0
 10
7915.2258272856834083
 20
1809.8389206980571089
 30
0.0
 40
10.1857822253786701
 50
269.0843834047174141
 51
277.0141820179457
  0
ARC
  5
EA64
  8
0
 10
7848.3427215648116544
 20
-10202.8663585786798649
 30
0.0
 40
12002.7062407255798462
 50
89.6815040362470342
 51
89.702933494461746
  0
ARC
  5
EA65
  8
0
 10
7909.7611830946425471
 20
1798.6863883037599408
 30
0.0
 40
0.034257903924632
 50
187.7682061189782985
 51
265.4442008985262191
  0
ARC
  5
EA66
  8
0
 10
7909.8657835016747413
 20
1798.6571509238578983
 30
0.0
 40
0.1407121820632175
 50
165.4323208059905141
 51
169.9286818591986048
  0
LINE
  5
EA67
  8
0
 10
7909.7295950460111271
 20
1798.6925433344049452
 30
0.0
 11
7909.8575602413839079
 21
1799.1578955405479974
 31
0.0
  0
ARC
  5
EA68
  8
0
 10
7910.6196301886748188
 20
1798.9759931704820701
 30
0.0
 40
0.7834788298337725
 50
136.9624600465865001
 51
166.5749803960931104
  0
ARC
  5
EA69
  8
0
 10
7910.4529993384221598
 20
1799.0675403392690441
 30
0.0
 40
0.6010339121991594
 50
102.8102043111070003
 51
132.4956624505558125
  0
ARC
  5
EA6A
  8
0
 10
7910.5650711063890412
 20
1798.4609610627969687
 30
0.0
 40
1.2176251541432019
 50
89.582786854670502
 51
101.6238643323984974
  0
LINE
  5
EA6B
  8
0
 10
7909.7584619915851363
 20
1798.6522386393480701
 30
0.0
 11
7909.9111474721594277
 21
1798.6485957270949712
 31
0.0
  0
ARC
  5
EA6C
  8
0
 10
7909.9956976489447698
 20
1798.5789629800369767
 30
0.0
 40
0.1136443653244173
 50
117.6531222589638048
 51
129.1404709038303054
  0
ARC
  5
EA6D
  8
0
 10
7910.1453849535628251
 20
1798.295813169162102
 30
0.0
 40
0.4339250912719052
 50
102.7802433620881999
 51
117.8081767344604032
  0
ARC
  5
EA6E
  8
0
 10
7910.1655165835945809
 20
1798.2344922510098968
 30
0.0
 40
0.4982171419747425
 50
62.182458316021183
 51
103.4780841837364989
  0
ARC
  5
EA6F
  8
0
 10
7909.931899596985204
 20
1798.659930397448079
 30
0.0
 40
0.0078740157000004
 50
180.5162223198061042
 51
268.6807001386766842
  0
LINE
  5
EA70
  8
0
 10
7909.9240259008738576
 20
1798.6598594552649502
 30
0.0
 11
7909.9239626195849269
 21
1798.667105633348001
 31
0.0
  0
LINE
  5
EA71
  8
0
 10
7909.931718304925198
 20
1798.6520584690670148
 30
0.0
 11
7909.9459689224850081
 21
1798.6517381130479407
 31
0.0
  0
ARC
  5
EA72
  8
0
 10
7909.9468709794182359
 20
1798.6911042260260274
 30
0.0
 40
0.0393764467381363
 50
268.6873224695348199
 51
323.389590690583077
  0
ARC
  5
EA73
  8
0
 10
7910.0102063551048559
 20
1798.6439394055000776
 30
0.0
 40
0.0395912546191716
 50
88.9855408251692239
 51
143.2618490554326058
  0
ARC
  5
EA74
  8
0
 10
7913.0131842713526567
 20
1944.1794048415808902
 30
0.0
 40
145.5268527680227919
 50
268.817881372409488
 51
268.9476348145180964
  0
ARC
  5
EA75
  8
0
 10
7910.3397092616669397
 20
1798.6377350966879476
 30
0.0
 40
0.0393696288449128
 50
33.6019346139662005
 51
88.982614482568664
  0
ARC
  5
EA76
  8
0
 10
7910.405393349435144
 20
1798.6814921467689601
 30
0.0
 40
0.0395549408696313
 50
213.7388081113047065
 51
268.7324643446943924
  0
LINE
  5
EA77
  8
0
 10
7910.4045183598836957
 20
1798.6419468848469023
 30
0.0
 11
7910.4180744219802364
 21
1798.641671307902925
 31
0.0
  0
ARC
  5
EA78
  8
0
 10
7910.4182290595826998
 20
1798.6495440669400523
 30
0.0
 40
0.0078742775942166
 50
268.8747346741516253
 51
359.5073382375455253
  0
LINE
  5
EA79
  8
0
 10
7910.4261030460838811
 20
1798.6494763602479452
 30
0.0
 11
7910.4261633082860499
 21
1798.656381728839051
 31
0.0
  0
ARC
  5
EA7A
  8
0
 10
7910.3232380789659146
 20
1798.5323840321968873
 30
0.0
 40
0.1611490974308434
 50
50.3053731477599868
 51
62.3536500670810483
  0
LINE
  5
EA7B
  8
0
 10
7909.9111474721594277
 20
1798.6485957270949712
 30
0.0
 11
7909.91114994358486
 21
1798.6549259040480138
 31
0.0
  0
ARC
  5
EA7C
  8
0
 10
7909.9348397431122066
 20
1798.6428341336829817
 30
0.0
 40
0.0265973215224976
 50
114.1392439673148971
 51
152.9592806592353043
  0
ARC
  5
EA7D
  8
0
 10
7910.4388893232007831
 20
1798.6452028707860791
 30
0.0
 40
0.0078740181154732
 50
180.00071818924269
 51
268.8920885614045915
  0
ARC
  5
EA7E
  8
0
 10
7910.4004608769901097
 20
1798.6258750012968903
 30
0.0
 40
0.0398907934206795
 50
40.0083314052649328
 51
49.8852983354683133
  0
LINE
  5
EA7F
  8
0
 10
7910.4310153050855661
 20
1798.6452027721629747
 30
0.0
 11
7910.4310152687839945
 21
1798.6515207522479614
 31
0.0
  0
LINE
  5
EA80
  8
0
 10
7910.4387370751437629
 20
1798.637330324703953
 30
0.0
 11
7910.5666094460839304
 21
1798.6348856325480483
 31
0.0
  0
ARC
  5
EA81
  8
0
 10
7910.5214546432753195
 20
1798.7910278547369671
 30
0.0
 40
0.1625403019781305
 50
286.1293517976550902
 51
295.1708886376272858
  0
ARC
  5
EA82
  8
0
 10
7911.058742133927808
 20
1797.485727358540089
 30
0.0
 40
1.2492335455067061
 50
104.7819675900833971
 51
112.0091421010665016
  0
ARC
  5
EA83
  8
0
 10
7910.9417165567756456
 20
1797.9546124442849759
 30
0.0
 40
0.7660361319165027
 50
86.2312003367386524
 51
105.2666128517405042
  0
ARC
  5
EA84
  8
0
 10
7910.939718698679826
 20
1798.0029725125818914
 30
0.0
 40
0.7179305987619919
 50
66.8184304296721194
 51
85.8184141175295707
  0
ARC
  5
EA85
  8
0
 10
7911.3086084728829519
 20
1798.6318825298969841
 30
0.0
 40
0.0090192411032199
 50
244.1417981519304021
 51
267.4772159715807902
  0
ARC
  5
EA86
  8
0
 10
7910.8173506343164263
 20
1797.7054877606719856
 30
0.0
 40
1.0395770030678451
 50
62.0454143859676179
 51
67.0728088734818471
  0
LINE
  5
EA87
  8
0
 10
7910.6824867247323709
 20
1798.6769520721309163
 30
0.0
 11
7910.6930059769847503
 21
1798.6587321929468999
 31
0.0
  0
LINE
  5
EA88
  8
0
 10
7910.6930059769847503
 20
1798.6587321929468999
 30
0.0
 11
7911.1749539238817306
 21
1798.5737644587029536
 31
0.0
  0
LINE
  5
EA89
  8
0
 10
7911.1749539238817306
 20
1798.5737644587029536
 30
0.0
 11
7911.1942327631850276
 21
1798.589941325647942
 31
0.0
  0
LINE
  5
EA8A
  8
0
 10
7911.1967075374841443
 20
1798.5929030373479236
 30
0.0
 11
7911.1961264313840729
 21
1798.5896074208480968
 31
0.0
  0
LINE
  5
EA8B
  8
0
 10
7911.1961264313840729
 20
1798.5896074208480968
 30
0.0
 11
7910.6890775763904458
 21
1798.679013814559994
 31
0.0
  0
LINE
  5
EA8C
  8
0
 10
7910.6961145694303923
 20
1798.6811710839760963
 30
0.0
 11
7911.1986461355591018
 21
1798.5925612106630069
 31
0.0
  0
LINE
  5
EA8D
  8
0
 10
7911.1986461355591018
 20
1798.5925612106630069
 30
0.0
 11
7911.2066790731742003
 21
1798.6381182616789829
 31
0.0
  0
LINE
  5
EA8E
  8
0
 10
7911.203780285684843
 20
1798.6386293961479623
 30
0.0
 11
7911.2175879302849353
 21
1798.6481879635480254
 31
0.0
  0
LINE
  5
EA8F
  8
0
 10
7911.2175879302849353
 20
1798.6481879635480254
 30
0.0
 11
7911.2203616232691274
 21
1798.6476988867329965
 31
0.0
  0
LINE
  5
EA90
  8
0
 10
7911.220361623169083
 20
1798.6476988866641022
 30
0.0
 11
7911.2066790732424124
 21
1798.6381182620680192
 31
0.0
  0
LINE
  5
EA91
  8
0
 10
7911.2066790732424124
 20
1798.6381182620680192
 30
0.0
 11
7911.2037802857503266
 21
1798.6386293965178993
 31
0.0
  0
LINE
  5
EA92
  8
0
 10
7911.2175879302849353
 20
1798.6481879635480254
 30
0.0
 11
7911.220338598653143
 21
1798.6637877790349194
 31
0.0
  0
LINE
  5
EA93
  8
0
 10
7911.2203616232691274
 20
1798.6476988867329965
 30
0.0
 11
7911.223013342439117
 21
1798.6626492478560522
 31
0.0
  0
LINE
  5
EA94
  8
0
 10
7911.2037802861241289
 20
1798.6386293964519609
 30
0.0
 11
7911.2090422865403525
 21
1798.6684716857751027
 31
0.0
  0
LINE
  5
EA95
  8
0
 10
7911.1008440111836535
 20
1798.6567798386479353
 30
0.0
 11
7911.1112082033860133
 21
1798.6669455796479724
 31
0.0
  0
LINE
  5
EA96
  8
0
 10
7911.1112082033860133
 20
1798.6669455796479724
 30
0.0
 11
7911.1660400333703365
 21
1798.6572772485681071
 31
0.0
  0
LINE
  5
EA97
  8
0
 10
7911.1660400333703365
 20
1798.6572772485681071
 30
0.0
 11
7911.155675841185257
 21
1798.6471115076481055
 31
0.0
  0
LINE
  5
EA98
  8
0
 10
7911.155675841185257
 20
1798.6471115076481055
 30
0.0
 11
7911.1008440111836535
 21
1798.6567798386479353
 31
0.0
  0
LINE
  5
EA99
  8
0
 10
7911.1008440111836535
 20
1798.6567798386479353
 30
0.0
 11
7911.1085984694673243
 21
1798.7007575566019568
 31
0.0
  0
LINE
  5
EA9A
  8
0
 10
7911.1112082033860133
 20
1798.6669455796479724
 30
0.0
 11
7911.1168106647237437
 21
1798.6987187164529587
 31
0.0
  0
LINE
  5
EA9B
  8
0
 10
7911.1660400334421865
 20
1798.6572772486379108
 30
0.0
 11
7911.1705379703817016
 21
1798.6827863168321073
 31
0.0
  0
LINE
  5
EA9C
  8
0
 10
7910.9847096087851241
 20
1798.6772574671479106
 30
0.0
 11
7910.9920685247770962
 21
1798.7189919539009679
 31
0.0
  0
LINE
  5
EA9D
  8
0
 10
7910.9867605714844103
 20
1798.6888890548480049
 30
0.0
 11
7910.9092166539849131
 21
1798.7025621396480801
 31
0.0
  0
LINE
  5
EA9E
  8
0
 10
7910.9123061941900232
 20
1798.720083793177082
 30
0.0
 11
7910.9071656911846731
 21
1798.6909305520468934
 31
0.0
  0
LINE
  5
EA9F
  8
0
 10
7910.9071656911846731
 20
1798.6909305520468934
 30
0.0
 11
7910.9847096087023601
 21
1798.6772574666820219
 31
0.0
  0
LINE
  5
EAA0
  8
0
 10
7911.3082114759990873
 20
1798.6228720302690363
 30
0.0
 11
7911.432879184984813
 21
1798.6211719819480095
 31
0.0
  0
ARC
  5
EAA1
  8
0
 10
7911.5431870194906878
 20
1797.8669445823989008
 30
0.0
 40
0.7622511322284443
 50
80.1931490108514993
 51
98.3206741728953375
  0
LINE
  5
EAA2
  8
0
 10
7911.6730192161676314
 20
1798.6180573497579189
 30
0.0
 11
7913.7820371239849919
 21
1798.5988811714480562
 31
0.0
  0
LINE
  5
EAA3
  8
0
 10
7911.4820160257877433
 20
1798.6267372502450144
 30
0.0
 11
7911.4841648750825698
 21
1798.6245884009479141
 31
0.0
  0
LINE
  5
EAA4
  8
0
 10
7911.4841648750825698
 20
1798.6245884009479141
 30
0.0
 11
7911.6219601503844387
 21
1798.6245884009479141
 31
0.0
  0
LINE
  5
EAA5
  8
0
 10
7911.6219601503844387
 20
1798.6245884009479141
 30
0.0
 11
7911.6224365714952
 21
1798.6250648216030186
 31
0.0
  0
ARC
  5
EAA6
  8
0
 10
7913.9034331165694311
 20
1797.9305421623109851
 30
0.0
 40
0.6792746264574701
 50
77.4734442248542621
 51
100.2948720753353058
  0
ARC
  5
EAA7
  8
0
 10
7913.978256266009339
 20
1795.6766273014920898
 30
0.0
 40
2.9179207284981841
 50
75.6356607919538249
 51
88.5761355247237674
  0
ARC
  5
EAA8
  8
0
 10
7914.4486303468811457
 20
1797.4791126957209144
 30
0.0
 40
1.055125582973673
 50
53.4159531201184521
 51
76.0970155715292975
  0
ARC
  5
EAA9
  8
0
 10
7914.3977173231369306
 20
1797.8221836138241088
 30
0.0
 40
0.8463339587228098
 50
359.4165052703253878
 51
36.563925782692273
  0
ENDSEC
  0
EOF
