  0
SECTION
  2
HEADER
  9
$ACADVER
  1
AC1009
  9
$INSBASE
 10
293.4680755647636943
 20
27.2794695810444701
 30
0.0
  9
$EXTMIN
 10
288.1672226947912918
 20
27.2794695810444701
 30
0.0
  9
$EXTMAX
 10
295.3326412824785052
 20
37.8362984671911207
 30
0.0
  9
$LIMMIN
 10
0.0
 20
0.0
  9
$LIMMAX
 10
11.6929133858000007
 20
8.2677165353999982
  9
$ORTHOMODE
 70
     0
  9
$REGENMODE
 70
     1
  9
$FILLMODE
 70
     1
  9
$QTEXTMODE
 70
     0
  9
$MIRRTEXT
 70
     0
  9
$DRAGMODE
 70
     2
  9
$LTSCALE
 40
0.6431102362
  9
$OSMODE
 70
  4095
  9
$ATTMODE
 70
     1
  9
$TEXTSIZE
 40
0.2
  9
$TRACEWID
 40
0.05
  9
$TEXTSTYLE
  7
STANDARD
  9
$CLAYER
  8
0
  9
$CELTYPE
  6
BYLAYER
  9
$CECOLOR
 62
   256
  9
$DIMSCALE
 40
1.0
  9
$DIMASZ
 40
0.1875
  9
$DIMEXO
 40
0.0625
  9
$DIMDLI
 40
0.4443307087
  9
$DIMRND
 40
0.0
  9
$DIMDLE
 40
0.0
  9
$DIMEXE
 40
0.125
  9
$DIMTP
 40
0.01
  9
$DIMTM
 40
0.01
  9
$DIMTXT
 40
1.0
  9
$DIMCEN
 40
0.1052362205
  9
$DIMTSZ
 40
0.0
  9
$DIMTOL
 70
     1
  9
$DIMLIM
 70
     0
  9
$DIMTIH
 70
     0
  9
$DIMTOH
 70
     1
  9
$DIMSE1
 70
     0
  9
$DIMSE2
 70
     0
  9
$DIMTAD
 70
     0
  9
$DIMZIN
 70
     0
  9
$DIMBLK
  1

  9
$DIMASO
 70
     1
  9
$DIMSHO
 70
     1
  9
$DIMPOST
  1
\X
  9
$DIMAPOST
  1

  9
$DIMALT
 70
     1
  9
$DIMALTD
 70
     2
  9
$DIMALTF
 40
25.3999999999999986
  9
$DIMLFAC
 40
1.0
  9
$DIMTOFL
 70
     0
  9
$DIMTVP
 40
0.0
  9
$DIMTIX
 70
     0
  9
$DIMSOXD
 70
     0
  9
$DIMSAH
 70
     0
  9
$DIMBLK1
  1

  9
$DIMBLK2
  1

  9
$DIMSTYLE
  2
STANDARD
  9
$DIMCLRD
 70
     0
  9
$DIMCLRE
 70
     0
  9
$DIMCLRT
 70
     0
  9
$DIMTFAC
 40
1.0
  9
$DIMGAP
 40
0.09
  9
$LUNITS
 70
     2
  9
$LUPREC
 70
     4
  9
$SKETCHINC
 40
0.1
  9
$FILLETRAD
 40
0.0
  9
$AUNITS
 70
     0
  9
$AUPREC
 70
     0
  9
$MENU
  1
.
  9
$ELEVATION
 40
0.0
  9
$PELEVATION
 40
0.0
  9
$THICKNESS
 40
0.0
  9
$LIMCHECK
 70
     0
  9
$BLIPMODE
 70
     0
  9
$CHAMFERA
 40
0.0
  9
$CHAMFERB
 40
0.0
  9
$SKPOLY
 70
     0
  9
$TDCREATE
 40
2458172.5207638889551163
  9
$TDUPDATE
 40
2459947.4235995369963348
  9
$TDINDWG
 40
0.1895249421
  9
$TDUSRTIMER
 40
0.1895249421
  9
$USRTIMER
 70
     1
  9
$ANGBASE
 50
0.0
  9
$ANGDIR
 70
     0
  9
$PDMODE
 70
     0
  9
$PDSIZE
 40
0.3125
  9
$PLINEWID
 40
0.0
  9
$COORDS
 70
     1
  9
$SPLFRAME
 70
     0
  9
$SPLINETYPE
 70
     6
  9
$SPLINESEGS
 70
     8
  9
$ATTDIA
 70
     1
  9
$ATTREQ
 70
     1
  9
$HANDLING
 70
     1
  9
$HANDSEED
  5
5215
  9
$SURFTAB1
 70
     6
  9
$SURFTAB2
 70
     6
  9
$SURFTYPE
 70
     6
  9
$SURFU
 70
     6
  9
$SURFV
 70
     6
  9
$UCSNAME
  2

  9
$UCSORG
 10
0.0
 20
0.0
 30
0.0
  9
$UCSXDIR
 10
1.0
 20
0.0
 30
0.0
  9
$UCSYDIR
 10
0.0
 20
1.0
 30
0.0
  9
$PUCSNAME
  2

  9
$PUCSORG
 10
0.0
 20
0.0
 30
0.0
  9
$PUCSXDIR
 10
1.0
 20
0.0
 30
0.0
  9
$PUCSYDIR
 10
0.0
 20
1.0
 30
0.0
  9
$USERI1
 70
     0
  9
$USERI2
 70
     0
  9
$USERI3
 70
     0
  9
$USERI4
 70
     0
  9
$USERI5
 70
     0
  9
$USERR1
 40
0.0
  9
$USERR2
 40
0.0
  9
$USERR3
 40
0.0
  9
$USERR4
 40
0.0
  9
$USERR5
 40
0.0
  9
$WORLDVIEW
 70
     1
  9
$SHADEDGE
 70
     3
  9
$SHADEDIF
 70
    70
  9
$TILEMODE
 70
     1
  9
$MAXACTVP
 70
    64
  9
$PLIMCHECK
 70
     0
  9
$PEXTMIN
 10
1.0000000000000000E+20
 20
1.0000000000000000E+20
 30
1.0000000000000000E+20
  9
$PEXTMAX
 10
-1.0000000000000000E+20
 20
-1.0000000000000000E+20
 30
-1.0000000000000000E+20
  9
$PLIMMIN
 10
0.0
 20
0.0
  9
$PLIMMAX
 10
12.0
 20
9.0
  9
$UNITMODE
 70
     0
  9
$VISRETAIN
 70
     1
  9
$PLINEGEN
 70
     0
  9
$PSLTSCALE
 70
     1
  0
ENDSEC
  0
SECTION
  2
TABLES
  0
TABLE
  2
VPORT
 70
     1
  0
VPORT
  2
*ACTIVE
 70
     0
 10
0.0
 20
0.0
 11
1.0
 21
1.0
 12
34.1316248314871018
 22
4.0978572590131961
 13
0.0
 23
0.0
 14
1.0
 24
1.0
 15
0.0
 25
0.0
 16
0.0
 26
0.0
 36
22.9320091338555692
 17
257.6136474609375
 27
28.4604763930557709
 37
0.0
 40
10.6338495949479501
 41
1.7905405405405399
 42
50.0
 43
0.0
 44
0.0
 50
0.0
 51
0.0
 71
     0
 72
   100
 73
     1
 74
     1
 75
     0
 76
     0
 77
     0
 78
     0
  0
ENDTAB
  0
TABLE
  2
LTYPE
 70
     2
  0
LTYPE
  2
CONTINUOUS
 70
     0
  3
Solid line
 72
    65
 73
     0
 40
0.0
  0
LTYPE
  2
PHANTOM2
 70
     0
  3
___ _ _ ___ _ _ ___ _ _ ___ _ _
 72
    65
 73
     6
 40
1.25
 49
0.625
 49
-0.125
 49
0.125
 49
-0.125
 49
0.125
 49
-0.125
  0
ENDTAB
  0
TABLE
  2
LAYER
 70
     2
  0
LAYER
  2
0
 70
     0
 62
   255
  6
CONTINUOUS
  0
LAYER
  2
DEFPOINTS
 70
     0
 62
     7
  6
CONTINUOUS
  0
ENDTAB
  0
TABLE
  2
STYLE
 70
     1
  0
STYLE
  2
STANDARD
 70
     0
 40
0.0
 41
0.8
 50
0.0
 71
     0
 42
0.2
  3
txt
  4

  0
ENDTAB
  0
TABLE
  2
VIEW
 70
     0
  0
ENDTAB
  0
TABLE
  2
UCS
 70
     0
  0
ENDTAB
  0
TABLE
  2
APPID
 70
    10
  0
APPID
  2
ACAD
 70
     0
  0
APPID
  2
ACAD_MLEADERVER
 70
     0
  0
APPID
  2
ACAD_EXEMPT_FROM_CAD_STANDARDS
 70
     0
  0
APPID
  2
ACAD_DSTYLE_DIMJAG
 70
     0
  0
APPID
  2
ACAD_DSTYLE_DIMTALN
 70
     0
  0
APPID
  2
ACAD_NAV_VCDISPLAY
 70
     0
  0
APPID
  2
ACAECLAYERSTANDARD
 70
     0
  0
APPID
  2
ACCMTRANSPARENCY
 70
     0
  0
APPID
  2
DCO15
 70
     0
  0
APPID
  2
ACDBATTR
 70
     0
  0
ENDTAB
  0
TABLE
  2
DIMSTYLE
 70
     1
  0
DIMSTYLE
  2
STANDARD
 70
     0
  3

  4

  5

  6

  7

 40
1.0
 41
0.1875
 42
0.0625
 43
0.38
 44
0.125
 45
0.0
 46
0.0
 47
0.01
 48
0.01
140
0.15625
141
0.09
142
0.0
143
25.3999999999999986
144
1.0
145
0.0
146
1.0
147
0.09
 71
     1
 72
     0
 73
     1
 74
     1
 75
     0
 76
     0
 77
     0
 78
     4
170
     0
171
     2
172
     0
173
     0
174
     0
175
     0
176
     0
177
     0
178
     0
  0
ENDTAB
  0
ENDSEC
  0
SECTION
  2
BLOCKS
  0
BLOCK
  8
0
  2
$MODEL_SPACE
 70
     0
 10
0.0
 20
0.0
 30
0.0
  3
$MODEL_SPACE
  1

  0
ENDBLK
  5
21
  8
0
  0
BLOCK
 67
     1
  8
0
  2
$PAPER_SPACE
 70
     0
 10
0.0
 20
0.0
 30
0.0
  3
$PAPER_SPACE
  1

  0
ENDBLK
  5
1D
 67
     1
  8
0
  0
ENDSEC
  0
SECTION
  2
ENTITIES
  0
ATTDEF
  5
829
  8
DEFPOINTS
 10
293.4655005228196956
 20
27.2838851299891516
 30
0.0
 40
0.001
  1
K-29929ME-4
  3

  2
MODELNUMBER
 70
     0
1001
ACDBATTR
1070
     0
1070
     1
  0
ATTDEF
  5
82A
  8
DEFPOINTS
 10
293.4655005228196956
 20
27.2822184633224794
 30
0.0
 40
0.001
  1
JULY
  3

  2
TRADENAME
 70
     0
1001
ACDBATTR
1070
     0
1070
     1
  0
ATTDEF
  5
82B
  8
DEFPOINTS
 10
293.4655005228196956
 20
27.2805517966558106
 30
0.0
 40
0.001
  1
BATHROOM SINK FAUCET
  3

  2
PRODUCT
 70
     0
1001
ACDBATTR
1070
     0
1070
     1
  0
LINE
  5
50CA
  8
0
 10
293.8510996632342085
 20
36.4956759890643099
 30
0.0
 11
294.4891603834341822
 21
36.7948865732643071
 31
0.0
  0
LINE
  5
50CB
  8
0
 10
292.4104238786342194
 20
36.8868177421643111
 30
0.0
 11
292.4104238786342194
 21
36.4419334712643135
 31
0.0
  0
LINE
  5
50CC
  8
0
 10
292.4113406329341842
 20
34.8348658348646865
 30
0.0
 11
292.4113406237636923
 21
27.2794695810444701
 31
0.0
  0
LINE
  5
50CD
  8
0
 10
294.5248105149341882
 20
36.8509719972222527
 30
0.0
 11
294.5248105149341882
 21
37.7423117870643097
 31
0.0
  0
LINE
  5
50CE
  8
0
 10
294.5248105149341882
 20
36.2603375448630914
 30
0.0
 11
294.5248105057635826
 21
27.2794695810444701
 31
0.0
  0
LINE
  5
50CF
  8
0
 10
292.4113406237636923
 20
27.2794695810444701
 30
0.0
 11
294.5248105057635826
 21
27.2794695810444701
 31
0.0
  0
LINE
  5
50D0
  8
0
 10
289.307438487101706
 20
35.3551414873643068
 30
0.0
 11
291.8018549522316221
 21
35.3540967192986386
 31
0.0
  0
LINE
  5
50D1
  8
0
 10
288.1895132526785233
 20
36.2993926020757698
 30
0.0
 11
288.7338583647829751
 21
36.3397268472041901
 31
0.0
  0
LINE
  5
50D2
  8
0
 10
294.486426589175494
 20
36.2993926020757698
 30
0.0
 11
288.1895132526785233
 21
36.2993926020757698
 31
0.0
  0
LINE
  5
50D3
  8
0
 10
292.4497734718132165
 20
36.4025657736643069
 30
0.0
 11
293.4332261212342132
 21
36.4025657736643069
 31
0.0
  0
ARC
  5
50D4
  8
0
 10
288.2052362504629741
 20
36.2654261280143189
 30
0.0
 40
0.0374290531472365
 50
114.8393028794171045
 51
180.8644681920750941
  0
ARC
  5
50D5
  8
0
 10
293.5899748034877916
 20
30.4290860658324611
 30
0.0
 40
7.4072124787840918
 50
83.0275983033404543
 51
89.9917157714789653
  0
ARC
  5
50D6
  8
0
 10
293.4332261015342169
 20
37.3868177421643111
 30
0.0
 40
0.9842519684999999
 50
270.0000011507008821
 51
295.1227868334012214
  0
ARC
  5
50D7
  8
0
 10
293.6943431591342915
 20
36.2994870737643112
 30
0.0
 40
0.8661417323
 50
173.165084819642999
 51
180.0062493571724929
  0
ARC
  5
50D8
  8
0
 10
293.5841069490342079
 20
36.2994870530643112
 30
0.0
 40
0.8661417323
 50
359.9937520121441139
 51
29.3790710440579694
  0
ARC
  5
50D9
  8
0
 10
294.4862325287048748
 20
36.2608121841862072
 30
0.0
 40
0.0385809059509825
 50
359.2951042671900268
 51
89.7118032211498218
  0
ARC
  5
50DA
  8
0
 10
289.281261690440715
 20
44.5186697465240613
 30
0.0
 40
9.1635656477761387
 50
269.7501408754854992
 51
270.1636723157051279
  0
ARC
  5
50DB
  8
0
 10
291.7969949785000949
 20
34.5272129092656002
 30
0.0
 40
0.8268980920521158
 50
56.2388054628859493
 51
89.6632504184096462
  0
ARC
  5
50DC
  8
0
 10
291.9469202030090855
 20
34.8670117596669016
 30
0.0
 40
0.465531627511174
 50
356.0404566392689958
 51
48.3126427496346693
  0
ARC
  5
50DD
  8
0
 10
292.0500633343800132
 20
36.1972463654064427
 30
0.0
 40
3.8828406395887232
 50
179.002211569027196
 51
184.8907983561817048
  0
LINE
  5
50DE
  8
0
 10
288.7338583647829751
 20
36.3397268472041901
 30
0.0
 11
291.9618532046499126
 21
36.3397268472041901
 31
0.0
  0
ARC
  5
50DF
  8
0
 10
292.9910555736769879
 20
46.9040036882952407
 30
0.0
 40
10.6142923782804992
 50
264.435639490588926
 51
267.5526742287481738
  0
ARC
  5
50E0
  8
0
 10
292.4484769795907937
 20
36.4406194750147989
 30
0.0
 40
0.0380757807346758
 50
178.0223283781679982
 51
271.951316372932979
  0
ARC
  5
50E1
  8
0
 10
294.4608524025376255
 20
36.8522532889395222
 30
0.0
 40
0.0639709453565158
 50
296.2643366270575029
 51
358.8523302772078978
  0
ARC
  5
50E2
  8
0
 10
294.4854146691043866
 20
37.7423014802055903
 30
0.0
 40
0.0393958471780465
 50
0.0149898924405615
 51
84.5658831083278812
  0
ARC
  5
50E3
  8
0
 10
291.5117814602356816
 20
37.0254024369440415
 30
0.0
 40
0.909265590337775
 50
351.2331596710474741
 51
8.7668442630688102
  0
ARC
  5
50E4
  8
0
 10
292.0586825166050176
 20
37.2264593040738418
 30
0.0
 40
0.3572460548091259
 50
349.928826685134311
 51
48.6980006121745177
  0
ARC
  5
50E5
  8
0
 10
292.0175231760190968
 20
37.0932041811943733
 30
0.0
 40
0.4878640630600431
 50
55.4112504929965368
 51
93.0066677174504406
  0
ARC
  5
50E6
  8
0
 10
291.109060607046672
 20
18.8543615721834783
 30
0.0
 40
18.7468358729469813
 50
87.3006849408656791
 51
90.5997254122142124
  0
ARC
  5
50E7
  8
0
 10
291.4511974132316823
 20
243.7898461142067958
 30
0.0
 40
206.1903784549755017
 50
269.6991280900626862
 51
269.8504014645988036
  0
ARC
  5
50E8
  8
0
 10
290.3767224104295792
 20
34.9045933759174716
 30
0.0
 40
2.6977298130854099
 50
90.1756016299675309
 51
96.2377999212278041
  0
ARC
  5
50E9
  8
0
 10
289.9647087251282755
 20
38.7278636228022606
 30
0.0
 40
1.1476870605545439
 50
271.1218513072807923
 51
275.9460566173714824
  0
ARC
  5
50EA
  8
0
 10
289.9207627397198053
 20
39.0393002447076896
 30
0.0
 40
1.460414701599356
 50
259.0285754557543214
 51
272.6065777031923858
  0
ARC
  5
50EB
  8
0
 10
289.7158986430471259
 20
37.8853207674054104
 30
0.0
 40
0.2891305812587262
 50
213.3877653336340927
 51
255.3590012882073097
  0
ARC
  5
50EC
  8
0
 10
289.5087370044619774
 20
37.7456242856069011
 30
0.0
 40
0.0393710880231598
 50
114.2538145091930062
 51
209.5427071609626921
  0
LINE
  5
50ED
  8
0
 10
293.5910457905864064
 20
37.8362984671911207
 30
0.0
 11
289.9977819898321059
 21
37.8362984671911207
 31
0.0
  0
ARC
  5
50EE
  8
0
 10
289.9994525946307249
 20
35.4636961901251411
 30
0.0
 40
2.372602865221876
 50
90.0403432928053746
 51
102.3358885725609042
  0
LINE
  5
50EF
  8
0
 10
289.4925641665250851
 20
37.7815202726415578
 30
0.0
 11
294.4891454994059927
 21
37.7815202726415578
 31
0.0
  0
ARC
  5
50F0
  8
0
 10
289.3346742050491116
 20
35.9712451865201785
 30
0.0
 40
1.158087362017461
 50
185.2038436888385036
 51
199.1426569656645995
  0
LINE
  5
50F1
  8
0
 10
295.3326412824785052
 20
29.0985478536590101
 30
0.0
 11
295.2508675926786168
 21
28.8452009764568409
 31
0.0
  0
LINE
  5
50F2
  8
0
 10
295.2508675926786168
 20
28.8452009764568409
 30
0.0
 11
294.7813727182785897
 21
29.1162639685568401
 31
0.0
  0
LINE
  5
50F3
  8
0
 10
294.7813727182785897
 20
29.1162639685568401
 30
0.0
 11
294.9591049423784739
 21
29.3151164806568403
 31
0.0
  0
ARC
  5
50F4
  8
0
 10
294.5785584797084766
 20
28.2283311047981016
 30
0.0
 40
1.151485155540916
 50
49.0895666986500814
 51
70.70189553311819
  0
ARC
  5
50F5
  8
0
 10
295.4586518694180768
 20
28.3172986240817792
 30
0.0
 40
0.5673228351682321
 50
111.4847784674595061
 51
149.9999999888592868
  0
LINE
  5
50F6
  8
0
 10
294.9673358820705857
 20
28.6009600417614216
 30
0.0
 11
294.9105136697955913
 21
28.5025410831469586
 31
0.0
  0
LINE
  5
50F7
  8
0
 10
294.9105136697955913
 20
28.5025410831469586
 30
0.0
 11
294.654797507278488
 21
28.6501788784568383
 31
0.0
  0
LINE
  5
50F8
  8
0
 10
294.654797507278488
 20
28.6501788784568383
 30
0.0
 11
294.7116197195055065
 21
28.7485978370412596
 31
0.0
  0
ARC
  5
50F9
  8
0
 10
294.2203037323611738
 20
29.0322592544507501
 30
0.0
 40
0.5673228348571639
 50
330.0000000022258178
 51
8.5152215456198093
  0
LINE
  5
50FA
  8
0
 10
294.5248105064711126
 20
27.9722788831766103
 30
0.0
 11
294.8508465651840993
 21
28.5369899020665514
 31
0.0
  0
LINE
  5
50FB
  8
0
 10
294.5248105067926758
 20
28.287239513824769
 30
0.0
 11
294.714464611872927
 21
28.6157300595471185
 31
0.0
  0
LINE
  5
50FC
  8
0
 10
288.2858408875204077
 20
35.3296567445411824
 30
0.0
 11
289.1135247062662756
 21
35.0744294016477696
 31
0.0
  0
LINE
  5
50FD
  8
0
 10
289.1135247062662756
 20
35.0744294016477696
 30
0.0
 11
289.159929677668913
 21
35.224917368753573
 31
0.0
  0
LINE
  5
50FE
  8
0
 10
289.1975516694723751
 20
35.2133161258801266
 30
0.0
 11
289.2413007499890796
 21
35.3551912310070975
 31
0.0
  0
LINE
  5
50FF
  8
0
 10
289.159929677668913
 20
35.224917368753573
 30
0.0
 11
289.1975516694723751
 21
35.2133161258801266
 31
0.0
  0
LINE
  5
5100
  8
0
 10
288.2858408875204077
 20
35.3296567445411824
 30
0.0
 11
288.3320973393437043
 21
35.479663073262742
 31
0.0
  0
ARC
  5
5101
  8
0
 10
287.262212983117081
 20
26.2711400541102797
 30
0.0
 40
9.2835534871807841
 50
80.4996376884797229
 51
83.6502019396466636
  0
ARC
  5
5102
  8
0
 10
288.6988412130363031
 20
34.0819969808380208
 30
0.0
 40
1.3487649521125591
 50
76.1448505679616687
 51
85.9330187240349943
  0
ARC
  5
5103
  8
0
 10
289.3636358509710931
 20
36.7754272094550814
 30
0.0
 40
1.4254950408227871
 50
256.1263091142872099
 51
265.0768559201824246
  0
ARC
  5
5104
  8
0
 10
288.6297541546758794
 20
35.7327873230151809
 30
0.0
 40
0.413992266378471
 50
199.957292548135996
 51
214.5938725611171947
  0
LINE
  5
5105
  8
0
 10
288.2960301738925182
 20
35.4969509867819184
 30
0.0
 11
288.2942869078434001
 21
35.4912742421444705
 31
0.0
  0
LINE
  5
5106
  8
0
 10
288.2942869078434001
 20
35.4912742421444705
 30
0.0
 11
288.3320973393437043
 21
35.479663073262742
 31
0.0
  0
ARC
  5
5108
  8
0
 10
293.3940978791372913
 20
37.4727800847359518
 30
0.0
 40
0.3288418093536771
 50
79.6213619444254022
 51
100.5938680007431003
  0
ARC
  5
5109
  8
0
 10
293.3929408210408951
 20
38.0888139508867312
 30
0.0
 40
0.2987416516625481
 50
258.5509339012900796
 51
281.6642960438791761
  0
LINE
  5
510A
  8
0
 10
295.3326412824785052
 20
29.0985478536588005
 30
0.0
 11
294.9591049423784739
 21
29.3151164806568296
 31
0.0
  0
LINE
  5
510B
  8
0
 10
289.1252745080043951
 20
35.1125331591551912
 30
0.0
 11
288.2972935872031144
 21
35.3667970215325269
 31
0.0
  0
ENDSEC
  0
EOF
