  0
SECTION
  2
HEADER
  9
$ACADVER
  1
AC1009
  9
$INSBASE
 10
273.9658822687850943
 20
26.6475411073466617
 30
0.0
  9
$EXTMIN
 10
273.0295092668350776
 20
26.6475411073466617
 30
0.0
  9
$EXTMAX
 10
274.9022552799057735
 20
37.2043699934932874
 30
0.0
  9
$LIMMIN
 10
0.0
 20
0.0
  9
$LIMMAX
 10
11.6929133858000007
 20
8.2677165353999982
  9
$ORTHOMODE
 70
     0
  9
$REGENMODE
 70
     1
  9
$FILLMODE
 70
     1
  9
$QTEXTMODE
 70
     0
  9
$MIRRTEXT
 70
     0
  9
$DRAGMODE
 70
     2
  9
$LTSCALE
 40
0.6431102362
  9
$OSMODE
 70
  4095
  9
$ATTMODE
 70
     1
  9
$TEXTSIZE
 40
0.2
  9
$TRACEWID
 40
0.05
  9
$TEXTSTYLE
  7
STANDARD
  9
$CLAYER
  8
0
  9
$CELTYPE
  6
BYLAYER
  9
$CECOLOR
 62
   256
  9
$DIMSCALE
 40
1.0
  9
$DIMASZ
 40
0.1875
  9
$DIMEXO
 40
0.0625
  9
$DIMDLI
 40
0.4443307087
  9
$DIMRND
 40
0.0
  9
$DIMDLE
 40
0.0
  9
$DIMEXE
 40
0.125
  9
$DIMTP
 40
0.01
  9
$DIMTM
 40
0.01
  9
$DIMTXT
 40
1.0
  9
$DIMCEN
 40
0.1052362205
  9
$DIMTSZ
 40
0.0
  9
$DIMTOL
 70
     1
  9
$DIMLIM
 70
     0
  9
$DIMTIH
 70
     0
  9
$DIMTOH
 70
     1
  9
$DIMSE1
 70
     0
  9
$DIMSE2
 70
     0
  9
$DIMTAD
 70
     0
  9
$DIMZIN
 70
     0
  9
$DIMBLK
  1

  9
$DIMASO
 70
     1
  9
$DIMSHO
 70
     1
  9
$DIMPOST
  1
\X
  9
$DIMAPOST
  1

  9
$DIMALT
 70
     1
  9
$DIMALTD
 70
     2
  9
$DIMALTF
 40
25.3999999999999986
  9
$DIMLFAC
 40
1.0
  9
$DIMTOFL
 70
     0
  9
$DIMTVP
 40
0.0
  9
$DIMTIX
 70
     0
  9
$DIMSOXD
 70
     0
  9
$DIMSAH
 70
     0
  9
$DIMBLK1
  1

  9
$DIMBLK2
  1

  9
$DIMSTYLE
  2
STANDARD
  9
$DIMCLRD
 70
     0
  9
$DIMCLRE
 70
     0
  9
$DIMCLRT
 70
     0
  9
$DIMTFAC
 40
1.0
  9
$DIMGAP
 40
0.09
  9
$LUNITS
 70
     2
  9
$LUPREC
 70
     4
  9
$SKETCHINC
 40
0.1
  9
$FILLETRAD
 40
0.0
  9
$AUNITS
 70
     0
  9
$AUPREC
 70
     0
  9
$MENU
  1
.
  9
$ELEVATION
 40
0.0
  9
$PELEVATION
 40
0.0
  9
$THICKNESS
 40
0.0
  9
$LIMCHECK
 70
     0
  9
$BLIPMODE
 70
     0
  9
$CHAMFERA
 40
0.0
  9
$CHAMFERB
 40
0.0
  9
$SKPOLY
 70
     0
  9
$TDCREATE
 40
2458172.5207638889551163
  9
$TDUPDATE
 40
2459947.4234490739181638
  9
$TDINDWG
 40
0.1903235532
  9
$TDUSRTIMER
 40
0.1903235532
  9
$USRTIMER
 70
     1
  9
$ANGBASE
 50
0.0
  9
$ANGDIR
 70
     0
  9
$PDMODE
 70
     0
  9
$PDSIZE
 40
0.3125
  9
$PLINEWID
 40
0.0
  9
$COORDS
 70
     1
  9
$SPLFRAME
 70
     0
  9
$SPLINETYPE
 70
     6
  9
$SPLINESEGS
 70
     8
  9
$ATTDIA
 70
     1
  9
$ATTREQ
 70
     1
  9
$HANDLING
 70
     1
  9
$HANDSEED
  5
529F
  9
$SURFTAB1
 70
     6
  9
$SURFTAB2
 70
     6
  9
$SURFTYPE
 70
     6
  9
$SURFU
 70
     6
  9
$SURFV
 70
     6
  9
$UCSNAME
  2

  9
$UCSORG
 10
0.0
 20
0.0
 30
0.0
  9
$UCSXDIR
 10
1.0
 20
0.0
 30
0.0
  9
$UCSYDIR
 10
0.0
 20
1.0
 30
0.0
  9
$PUCSNAME
  2

  9
$PUCSORG
 10
0.0
 20
0.0
 30
0.0
  9
$PUCSXDIR
 10
1.0
 20
0.0
 30
0.0
  9
$PUCSYDIR
 10
0.0
 20
1.0
 30
0.0
  9
$USERI1
 70
     0
  9
$USERI2
 70
     0
  9
$USERI3
 70
     0
  9
$USERI4
 70
     0
  9
$USERI5
 70
     0
  9
$USERR1
 40
0.0
  9
$USERR2
 40
0.0
  9
$USERR3
 40
0.0
  9
$USERR4
 40
0.0
  9
$USERR5
 40
0.0
  9
$WORLDVIEW
 70
     1
  9
$SHADEDGE
 70
     3
  9
$SHADEDIF
 70
    70
  9
$TILEMODE
 70
     1
  9
$MAXACTVP
 70
    64
  9
$PLIMCHECK
 70
     0
  9
$PEXTMIN
 10
1.0000000000000000E+20
 20
1.0000000000000000E+20
 30
1.0000000000000000E+20
  9
$PEXTMAX
 10
-1.0000000000000000E+20
 20
-1.0000000000000000E+20
 30
-1.0000000000000000E+20
  9
$PLIMMIN
 10
0.0
 20
0.0
  9
$PLIMMAX
 10
12.0
 20
9.0
  9
$UNITMODE
 70
     0
  9
$VISRETAIN
 70
     1
  9
$PLINEGEN
 70
     0
  9
$PSLTSCALE
 70
     1
  0
ENDSEC
  0
SECTION
  2
TABLES
  0
TABLE
  2
VPORT
 70
     1
  0
VPORT
  2
*ACTIVE
 70
     0
 10
0.0
 20
0.0
 11
1.0
 21
1.0
 12
16.3515127917138408
 22
3.4663851373801351
 13
0.0
 23
0.0
 14
1.0
 24
1.0
 15
0.0
 25
0.0
 16
0.0
 26
0.0
 36
22.9320091338555692
 17
257.6136474609375
 27
28.4604763930557709
 37
0.0
 40
10.6336658370133907
 41
1.7905405405405399
 42
50.0
 43
0.0
 44
0.0
 50
0.0
 51
0.0
 71
     0
 72
   100
 73
     1
 74
     1
 75
     0
 76
     0
 77
     0
 78
     0
  0
ENDTAB
  0
TABLE
  2
LTYPE
 70
     2
  0
LTYPE
  2
CONTINUOUS
 70
     0
  3
Solid line
 72
    65
 73
     0
 40
0.0
  0
LTYPE
  2
PHANTOM2
 70
     0
  3
___ _ _ ___ _ _ ___ _ _ ___ _ _
 72
    65
 73
     6
 40
1.25
 49
0.625
 49
-0.125
 49
0.125
 49
-0.125
 49
0.125
 49
-0.125
  0
ENDTAB
  0
TABLE
  2
LAYER
 70
     2
  0
LAYER
  2
0
 70
     0
 62
   255
  6
CONTINUOUS
  0
LAYER
  2
DEFPOINTS
 70
     0
 62
     7
  6
CONTINUOUS
  0
ENDTAB
  0
TABLE
  2
STYLE
 70
     1
  0
STYLE
  2
STANDARD
 70
     0
 40
0.0
 41
0.8
 50
0.0
 71
     0
 42
0.2
  3
txt
  4

  0
ENDTAB
  0
TABLE
  2
VIEW
 70
     0
  0
ENDTAB
  0
TABLE
  2
UCS
 70
     0
  0
ENDTAB
  0
TABLE
  2
APPID
 70
    10
  0
APPID
  2
ACAD
 70
     0
  0
APPID
  2
ACAD_MLEADERVER
 70
     0
  0
APPID
  2
ACAD_EXEMPT_FROM_CAD_STANDARDS
 70
     0
  0
APPID
  2
ACAD_DSTYLE_DIMJAG
 70
     0
  0
APPID
  2
ACAD_DSTYLE_DIMTALN
 70
     0
  0
APPID
  2
ACAD_NAV_VCDISPLAY
 70
     0
  0
APPID
  2
ACAECLAYERSTANDARD
 70
     0
  0
APPID
  2
ACCMTRANSPARENCY
 70
     0
  0
APPID
  2
DCO15
 70
     0
  0
APPID
  2
ACDBATTR
 70
     0
  0
ENDTAB
  0
TABLE
  2
DIMSTYLE
 70
     1
  0
DIMSTYLE
  2
STANDARD
 70
     0
  3

  4

  5

  6

  7

 40
1.0
 41
0.1875
 42
0.0625
 43
0.38
 44
0.125
 45
0.0
 46
0.0
 47
0.01
 48
0.01
140
0.15625
141
0.09
142
0.0
143
25.3999999999999986
144
1.0
145
0.0
146
1.0
147
0.09
 71
     1
 72
     0
 73
     1
 74
     1
 75
     0
 76
     0
 77
     0
 78
     4
170
     0
171
     2
172
     0
173
     0
174
     0
175
     0
176
     0
177
     0
178
     0
  0
ENDTAB
  0
ENDSEC
  0
SECTION
  2
BLOCKS
  0
BLOCK
  8
0
  2
$MODEL_SPACE
 70
     0
 10
0.0
 20
0.0
 30
0.0
  3
$MODEL_SPACE
  1

  0
ENDBLK
  5
21
  8
0
  0
BLOCK
 67
     1
  8
0
  2
$PAPER_SPACE
 70
     0
 10
0.0
 20
0.0
 30
0.0
  3
$PAPER_SPACE
  1

  0
ENDBLK
  5
1D
 67
     1
  8
0
  0
ENDSEC
  0
SECTION
  2
ENTITIES
  0
ATTDEF
  5
829
  8
DEFPOINTS
 10
273.9622271895012773
 20
26.652642083380421
 30
0.0
 40
0.001
  1
K-29929ME-4
  3

  2
MODELNUMBER
 70
     0
1001
ACDBATTR
1070
     0
1070
     1
  0
ATTDEF
  5
82A
  8
DEFPOINTS
 10
273.9622271895012773
 20
26.6509754167137594
 30
0.0
 40
0.001
  1
JULY
  3

  2
TRADENAME
 70
     0
1001
ACDBATTR
1070
     0
1070
     1
  0
ATTDEF
  5
82B
  8
DEFPOINTS
 10
273.9622271895012773
 20
26.6493087500470907
 30
0.0
 40
0.001
  1
BATHROOM SINK FAUCET
  3

  2
PRODUCT
 70
     0
1001
ACDBATTR
1070
     0
1070
     1
  0
LINE
  5
5069
  8
0
 10
273.0295092668350776
 20
26.6475411073466617
 30
0.0
 11
274.902255270735111
 21
26.6475411073466617
 31
0.0
  0
LINE
  5
506A
  8
0
 10
273.0716829418057046
 20
35.7706372999664808
 30
0.0
 11
274.8600816141051268
 21
35.7706372999664808
 31
0.0
  0
CIRCLE
  5
506B
  8
0
 10
273.9659157221058194
 20
36.3926845440664906
 30
0.0
 40
0.1377952756
  0
LINE
  5
506C
  8
0
 10
273.0641740405058044
 20
37.1495917989437388
 30
0.0
 11
274.8675905154057091
 21
37.1495917989437388
 31
0.0
  0
LINE
  5
506D
  8
0
 10
274.9022552799057735
 20
37.1105235682664869
 30
0.0
 11
274.9022552799057735
 21
35.8108988389664802
 31
0.0
  0
LINE
  5
506E
  8
0
 10
274.9022552799057735
 20
35.6284226916579883
 30
0.0
 11
274.902255270735111
 21
26.6475411073466617
 31
0.0
  0
LINE
  5
506F
  8
0
 10
274.8628911193056865
 20
35.667464197266483
 30
0.0
 11
274.7321625409966828
 21
35.6674635913664915
 31
0.0
  0
ARC
  5
5070
  8
0
 10
273.9636477995035193
 20
29.7186532947172815
 30
0.0
 40
7.4857170322707187
 50
83.0642840251477281
 51
89.9828972714202848
  0
ARC
  5
5071
  8
0
 10
274.6351258761674217
 20
35.6316483852343495
 30
0.0
 40
0.0392335755704503
 50
0.1633318830727298
 51
84.1598541343839344
  0
ARC
  5
5072
  8
0
 10
274.6086828066974022
 20
37.1099333810008076
 30
0.0
 40
0.0399211905804174
 50
345.6255726148770009
 51
83.4224453262830536
  0
ARC
  5
5073
  8
0
 10
273.9107307287056869
 20
35.6675586068664927
 30
0.0
 40
0.8661417323
 50
359.9937216311000157
 51
6.8356728808999394
  0
CIRCLE
  5
5074
  8
0
 10
273.9658488338056941
 20
36.3926845440664906
 30
0.0
 40
0.1377952756
  0
ARC
  5
5075
  8
0
 10
274.8629957226582974
 20
35.628204171227452
 30
0.0
 40
0.0392601653899526
 50
0.3189075597772187
 51
90.1526569655759147
  0
ARC
  5
5076
  8
0
 10
274.7098539935358872
 20
36.3698919963261602
 30
0.0
 40
0.7027825662208845
 50
264.223324352568909
 51
271.8190553259930198
  0
ARC
  5
5077
  8
0
 10
273.747879790727211
 20
24.7537023074508511
 30
0.0
 40
10.9532949818166898
 50
85.3328469679131842
 51
86.2929253855889158
  0
ARC
  5
5078
  8
0
 10
273.9516390524008216
 20
30.4036764616125907
 30
0.0
 40
5.3044418408037277
 50
84.5431484592473623
 51
87.898923006423189
  0
ARC
  5
5079
  8
0
 10
273.928461003506925
 20
28.6253144697193207
 30
0.0
 40
7.0825827633133942
 50
88.2389883110236326
 51
89.6972727128782452
  0
ARC
  5
507A
  8
0
 10
265.0187811570073109
 20
35.5403584908262928
 30
0.0
 40
9.6560107396724852
 50
357.987994562064614
 51
0.5423577186344295
  0
ARC
  5
507B
  8
0
 10
273.8916662721952093
 20
35.1918124741619422
 30
0.0
 40
0.7772310989163939
 50
337.4872279867810789
 51
0.7028488197034072
  0
ARC
  5
507C
  8
0
 10
274.3705513361069848
 20
35.0316296119237478
 30
0.0
 40
0.2757868751443087
 50
284.1797848604578007
 51
330.1157472306410909
  0
ARC
  5
507D
  8
0
 10
274.8628562943471252
 20
37.1104782556722483
 30
0.0
 40
0.0393990116155503
 50
0.0658955865703788
 51
83.0986108043394154
  0
ARC
  5
507E
  8
0
 10
274.8595768279441245
 20
35.813385131531291
 30
0.0
 40
0.0427508118351103
 50
270.6765436134393212
 51
356.6659230233657922
  0
ARC
  5
507F
  8
0
 10
274.5000930620300892
 20
37.1436900880753527
 30
0.0
 40
0.1535991418874685
 50
287.0501908241334945
 51
343.4832972467530112
  0
ARC
  5
5080
  8
0
 10
274.292772952207315
 20
37.7802555917182588
 30
0.0
 40
0.8230558795565602
 50
272.2887982788307113
 51
287.8550256575301773
  0
ARC
  5
5081
  8
0
 10
273.9269178936218054
 20
44.1862313258146528
 30
0.0
 40
7.2393636958465191
 50
270.3083842235978977
 51
273.1572974731548129
  0
ARC
  5
5082
  8
0
 10
282.3163145187074861
 20
113.1863485100724063
 30
0.0
 40
76.4259477293406633
 50
263.9866435755466796
 51
264.2152700370382945
  0
ARC
  5
5083
  8
0
 10
273.9354592352668192
 20
33.6550751522982878
 30
0.0
 40
3.5456870779744891
 50
83.9378454002175971
 51
89.5083792515200258
  0
LINE
  5
5084
  8
0
 10
273.0295092760056832
 20
37.1105235682664869
 30
0.0
 11
273.0295092760056832
 21
35.8108988389664802
 31
0.0
  0
LINE
  5
5085
  8
0
 10
273.0295092760056832
 20
35.6284226916580522
 30
0.0
 11
273.0295092668350776
 21
26.6475411073466617
 31
0.0
  0
LINE
  5
5086
  8
0
 10
273.068873436605827
 20
35.667464197266483
 30
0.0
 11
273.1996020149147739
 21
35.6674635913664915
 31
0.0
  0
ARC
  5
5087
  8
0
 10
273.9681167564079942
 20
29.7186532947172815
 30
0.0
 40
7.4857170322707187
 50
90.0171027285797436
 51
96.9357159748522719
  0
ARC
  5
5088
  8
0
 10
273.2966386797440919
 20
35.6316483852343495
 30
0.0
 40
0.0392335755704503
 50
95.8401458656160656
 51
179.8366681169273136
  0
ARC
  5
5089
  8
0
 10
273.3230817492142251
 20
37.1099333810008076
 30
0.0
 40
0.0399211905804174
 50
96.5775546737169464
 51
194.3744273851231981
  0
ARC
  5
508A
  8
0
 10
274.0210338272058266
 20
35.6675586068664927
 30
0.0
 40
0.8661417323
 50
173.1643271190999087
 51
180.0062783688998991
  0
ARC
  5
508B
  8
0
 10
273.0687688332532161
 20
35.628204171227452
 30
0.0
 40
0.0392601653899526
 50
89.8473430344240995
 51
179.6810924402228125
  0
ARC
  5
508C
  8
0
 10
273.2219105623756263
 20
36.3698919963261602
 30
0.0
 40
0.7027825662208845
 50
268.1809446740069802
 51
275.776675647431091
  0
ARC
  5
508D
  8
0
 10
274.1838847651844162
 20
24.7537023074508511
 30
0.0
 40
10.9532949818166898
 50
93.7070746144110984
 51
94.6671530320868015
  0
ARC
  5
508E
  8
0
 10
273.9801255035108056
 20
30.4036764616125907
 30
0.0
 40
5.3044418408037277
 50
92.101076993576811
 51
95.4568515407526519
  0
ARC
  5
508F
  8
0
 10
274.0033035524045886
 20
28.6253144697193207
 30
0.0
 40
7.0825827633133942
 50
90.3027272871217548
 51
91.7610116889763532
  0
ARC
  5
5090
  8
0
 10
282.9129833989042027
 20
35.5403584908262928
 30
0.0
 40
9.6560107396724852
 50
179.4576422813655086
 51
182.0120054379349881
  0
ARC
  5
5091
  8
0
 10
274.0400982837161905
 20
35.1918124741619422
 30
0.0
 40
0.7772310989163939
 50
179.2971511802965949
 51
202.5127720132184095
  0
ARC
  5
5092
  8
0
 10
273.5612132198044719
 20
35.0316296119237478
 30
0.0
 40
0.2757868751443087
 50
209.8842527693589091
 51
255.7744260676055887
  0
ARC
  5
5093
  8
0
 10
273.0689082615643883
 20
37.1104782556722483
 30
0.0
 40
0.0393990116155503
 50
96.901389195660613
 51
179.9341044134295942
  0
ARC
  5
5094
  8
0
 10
273.072187727967389
 20
35.813385131531291
 30
0.0
 40
0.0427508118351103
 50
183.3340769766334972
 51
269.3234563865606788
  0
ARC
  5
5095
  8
0
 10
273.4316714938814243
 20
37.1436900880753527
 30
0.0
 40
0.1535991418874685
 50
196.5167027532471877
 51
252.9498091758665907
  0
ARC
  5
5096
  8
0
 10
273.6389916037041985
 20
37.7802555917182588
 30
0.0
 40
0.8230558795565602
 50
252.1449743424697942
 51
267.7112017211692887
  0
ARC
  5
5097
  8
0
 10
273.9808200779710887
 20
43.3920429110988621
 30
0.0
 40
6.4450877322000037
 50
266.6671130296966226
 51
269.8672052735466877
  0
ARC
  5
5098
  8
0
 10
265.6154500372040275
 20
113.1863485100724063
 30
0.0
 40
76.4259477293406633
 50
275.7847299629617055
 51
276.0133564244533204
  0
ARC
  5
5099
  8
0
 10
273.9963053206446943
 20
33.6550751522982878
 30
0.0
 40
3.5456870779744891
 50
90.4916207484767057
 51
96.0621545997824171
  0
ARC
  5
509A
  8
0
 10
273.9799398919369082
 20
36.0655650331121791
 30
0.0
 40
1.6231249814265369
 50
264.9127083530390792
 51
269.5037643092621238
  0
ARC
  5
509B
  8
0
 10
273.9289658958610971
 20
35.4929782794916235
 30
0.0
 40
1.0482737496302821
 50
255.965134587049107
 51
264.9127083530390792
  0
ARC
  5
509C
  8
0
 10
273.7748429142864097
 20
34.8764233297655721
 30
0.0
 40
0.4127472753735873
 50
241.320154820433487
 51
255.965134587049107
  0
ARC
  5
509D
  8
0
 10
273.6357840976090188
 20
34.6222149548307669
 30
0.0
 40
0.1229900452951521
 50
223.3179222629017886
 51
241.320154820430588
  0
ARC
  5
509E
  8
0
 10
273.5819869472236974
 20
34.5714873040070714
 30
0.0
 40
0.0490479872519154
 50
197.221846104962907
 51
223.3179222629050003
  0
ARC
  5
509F
  8
0
 10
273.5767529313603745
 20
34.5698649183028124
 30
0.0
 40
0.0435682922393845
 50
143.5821241705278908
 51
197.221846104962907
  0
ARC
  5
50A0
  8
0
 10
273.6769794336989889
 20
34.4721594353815632
 30
0.0
 40
0.1832268777288675
 50
110.1010389948465047
 51
137.5913825245810926
  0
ARC
  5
50A1
  8
0
 10
273.8578108654324978
 20
34.0035286078398116
 30
0.0
 40
0.6855159895199192
 50
97.8226009654939475
 51
110.8331509822995002
  0
ARC
  5
50A2
  8
0
 10
273.9541910842901871
 20
33.426025093288473
 30
0.0
 40
1.270875475992564
 50
92.9226847195007792
 51
98.583700256574275
  0
ARC
  5
50A3
  8
0
 10
274.0164986217496903
 20
31.9565860059258391
 30
0.0
 40
2.7416095512863499
 50
91.0578706132325806
 51
92.6573179050740237
  0
ARC
  5
50A4
  8
0
 10
273.9063399266318015
 20
33.707832873141129
 30
0.0
 40
1.035152379100583
 50
97.173831198315952
 51
105.0270680480050061
  0
ARC
  5
50A5
  8
0
 10
273.7466709432915764
 20
34.3026015509019828
 30
0.0
 40
0.4193245100606043
 50
105.0270680480050061
 51
120.4257584135765029
  0
ARC
  5
50A6
  8
0
 10
273.5796780503746959
 20
34.5869410895302778
 30
0.0
 40
0.0895736957900536
 50
120.4257584135767019
 51
163.8138018972715884
  0
ARC
  5
50A7
  8
0
 10
273.5376425095990953
 20
34.6078082289608702
 30
0.0
 40
0.0441784178776065
 50
174.671843027269091
 51
212.3799980770710931
  0
ARC
  5
50A8
  8
0
 10
274.4742657339991752
 20
35.5049063523892272
 30
0.0
 40
1.340275429988159
 50
223.3923853194037008
 51
226.1821360662538041
  0
ARC
  5
50A9
  8
0
 10
273.9655177804132222
 20
33.3842815354615681
 30
0.0
 40
1.30140666225006
 50
89.9839530207819251
 51
95.5440955029620795
  0
ARC
  5
50AA
  8
0
 10
273.9312023604293813
 20
33.7378087427323905
 30
0.0
 40
0.9462179316723927
 50
95.5440955029620795
 51
104.1647094258849933
  0
ARC
  5
50AB
  8
0
 10
273.7837386664130008
 20
34.3220926552461378
 30
0.0
 40
0.3436125620685996
 50
104.1647094258849933
 51
122.8710658207629933
  0
ARC
  5
50AC
  8
0
 10
273.6288018206500965
 20
34.5618539564362308
 30
0.0
 40
0.0581464384684003
 50
122.8710658207625954
 51
157.6642245406719098
  0
ARC
  5
50AD
  8
0
 10
273.6099706054200738
 20
34.569590940186032
 30
0.0
 40
0.0377877650198581
 50
157.6642245406729046
 51
225.301982436103799
  0
ARC
  5
50AE
  8
0
 10
273.7104409538528103
 20
34.671125985640721
 30
0.0
 40
0.1806291328713288
 50
225.301982436103799
 51
252.0428377253859082
  0
ARC
  5
50AF
  8
0
 10
273.9509521262349949
 20
35.4132307088297296
 30
0.0
 40
0.9607349232742075
 50
252.0428377253859082
 51
258.6970602585681718
  0
ARC
  5
50B0
  8
0
 10
273.9483530932448048
 20
35.5447215977739504
 30
0.0
 40
1.0895342223735971
 50
260.1865229487517013
 51
266.2078875985433228
  0
ARC
  5
50B1
  8
0
 10
274.1594253670050989
 20
41.4987811486646692
 30
0.0
 40
7.0468984298370101
 50
267.6973502887275913
 51
268.4261732431227756
  0
ARC
  5
50B2
  8
0
 10
273.9655425042319052
 20
35.6693090978541605
 30
0.0
 40
1.2055221838180861
 50
265.4951267882935895
 51
270.0161482513075271
  0
ARC
  5
50B3
  8
0
 10
273.9481286720071012
 20
35.4482857232724768
 30
0.0
 40
0.9838138762059609
 50
259.0352050706836167
 51
265.4951267882935895
  0
ARC
  5
50B4
  8
0
 10
273.8597238898087767
 20
34.9919858427074928
 30
0.0
 40
0.5190289942238391
 50
248.1569599994332123
 51
259.0352050706836167
  0
ARC
  5
50B5
  8
0
 10
273.7310683362209147
 20
34.6710234584162791
 30
0.0
 40
0.1732413374185165
 50
234.4069706755441018
 51
248.1569599994332123
  0
ARC
  5
50B6
  8
0
 10
273.739022728378302
 20
34.6821368921156079
 30
0.0
 40
0.1869081133068654
 50
221.4639423846631985
 51
234.4069706755439029
  0
ARC
  5
50B7
  8
0
 10
273.6444671396802732
 20
34.5985871987246725
 30
0.0
 40
0.0607284373692132
 50
179.9872535998447063
 51
221.4639423846624027
  0
ARC
  5
50B8
  8
0
 10
273.6886594493623761
 20
34.6005811938780496
 30
0.0
 40
0.0931046007768345
 50
208.3430619919815001
 51
221.4088626782692018
  0
ARC
  5
50B9
  8
0
 10
273.637529631241307
 20
34.5702457758161117
 30
0.0
 40
0.0337895783076038
 50
145.7090307966172134
 51
204.2276056102730877
  0
ARC
  5
50BA
  8
0
 10
273.7048912855673279
 20
34.5137487386814712
 30
0.0
 40
0.1215866199841824
 50
114.8569748004284037
 51
141.593574414905504
  0
ARC
  5
50BB
  8
0
 10
273.8292440256486771
 20
34.2453260733535814
 30
0.0
 40
0.4174148323431379
 50
104.8171326319584011
 51
114.8569748004284037
  0
ARC
  5
50BC
  8
0
 10
273.8936705275384043
 20
34.0017764526162267
 30
0.0
 40
0.6693417898269181
 50
99.2881652472065923
 51
104.8171326319583017
  0
ARC
  5
50BD
  8
0
 10
273.955735232609527
 20
33.6222783855054104
 30
0.0
 40
1.053881528418936
 50
95.3705912919697738
 51
99.2881652472065923
  0
ARC
  5
50BE
  8
0
 10
273.9586317051703759
 20
33.5914681223834819
 30
0.0
 40
1.0848276407262729
 50
91.5478664949509948
 51
95.3705912919697738
  0
ARC
  5
50BF
  8
0
 10
273.9698684210592887
 20
33.1756313787203183
 30
0.0
 40
1.500816175621587
 50
90.1521771780159469
 51
91.5478664949509948
  0
ARC
  5
50C0
  8
0
 10
273.9658358318552018
 20
33.4512631827457767
 30
0.0
 40
1.226129880298338
 50
89.9978300503572939
 51
92.4470707339302038
  0
ARC
  5
50C1
  8
0
 10
273.9613990056961939
 20
33.5550839764476621
 30
0.0
 40
1.1222143250082151
 50
92.4470707339302038
 51
97.8045879572173646
  0
ARC
  5
50C2
  8
0
 10
273.9118973141094102
 20
33.9162400561401611
 30
0.0
 40
0.7576815674008889
 50
97.8045879572173646
 51
103.7270435950147061
  0
ARC
  5
50C3
  8
0
 10
273.8431628036747725
 20
34.1976230870089211
 30
0.0
 40
0.4680251450906196
 50
103.7270435950147061
 51
111.3623993427994066
  0
ARC
  5
50C4
  8
0
 10
273.7521385936886986
 20
34.4303389283293626
 30
0.0
 40
0.2181410327403822
 50
111.3623993427994066
 51
121.7331832926035986
  0
ARC
  5
50C5
  8
0
 10
273.6941509876381815
 20
34.5241073498182303
 30
0.0
 40
0.1078909564411897
 50
121.7331832926035986
 51
137.3901588187144966
  0
ARC
  5
50C6
  8
0
 10
273.6357080186144799
 20
34.5778669438553621
 30
0.0
 40
0.028482678665197
 50
137.3901588187148946
 51
156.3720591609070141
  0
ARC
  5
50C7
  8
0
 10
273.9705895217002762
 20
35.2255781402610992
 30
0.0
 40
0.5278708581408197
 50
258.0639086880652826
 51
269.4890619634730911
  0
ARC
  5
50C8
  8
0
 10
274.0153355515599856
 20
35.3640242179364606
 30
0.0
 40
0.6727484730548858
 50
249.2575778604166885
 51
256.7739427996122004
  0
ARC
  5
50C9
  8
0
 10
273.9544827789629835
 20
33.4605198168092315
 30
0.0
 40
1.3985135487967351
 50
92.6280411188444504
 51
97.2880715307436787
  0
ARC
  5
50CA
  8
0
 10
273.9681837056890004
 20
33.1617318122387488
 30
0.0
 40
1.6976155162237629
 50
90.0776752218258139
 51
92.6275862408475774
  0
ARC
  5
50CB
  8
0
 10
273.9860593094326191
 20
30.3664454879424284
 30
0.0
 40
4.4994121281925352
 50
90.2569364872367572
 51
93.5265781698861645
  0
ARC
  5
50CC
  8
0
 10
273.8114919881045921
 20
33.2789322861946104
 30
0.0
 40
1.581710226677405
 50
93.704612065703202
 51
98.6970614497792127
  0
ARC
  5
50CD
  8
0
 10
273.6145980015436976
 20
34.5660817552647117
 30
0.0
 40
0.2795884974710662
 50
98.6970614497792127
 51
111.2997196011891958
  0
ARC
  5
50CE
  8
0
 10
273.5380477140370772
 20
34.7624259289066089
 30
0.0
 40
0.0688493671690175
 50
111.2997196011996976
 51
130.1492267688662992
  0
ARC
  5
50CF
  8
0
 10
273.5072356355009902
 20
34.798658081262559
 30
0.0
 40
0.0212884974119784
 50
129.637937338926605
 51
230.3620626606899009
  0
LINE
  5
50D0
  8
0
 10
273.4936549785318789
 20
34.6119106327423509
 30
0.0
 11
273.4936549785318789
 21
34.8150521618512627
 31
0.0
  0
LINE
  5
50D1
  8
0
 10
273.777070004135112
 20
34.847734599564923
 30
0.0
 11
273.777070004135112
 21
34.7348819153466479
 31
0.0
  0
ARC
  5
50D2
  8
0
 10
273.9518246456332804
 20
36.0655650331121791
 30
0.0
 40
1.6231249814265369
 50
270.4962356907378762
 51
275.0872916469609208
  0
ARC
  5
50D3
  8
0
 10
274.0027986417092052
 20
35.4929782794916235
 30
0.0
 40
1.0482737496302821
 50
275.0872916469609208
 51
284.0348654129476813
  0
ARC
  5
50D4
  8
0
 10
274.1569216232837789
 20
34.8764233297655721
 30
0.0
 40
0.4127472753735873
 50
284.0348654129508077
 51
298.6798451795664278
  0
ARC
  5
50D5
  8
0
 10
274.2959804399612835
 20
34.6222149548307669
 30
0.0
 40
0.1229900452951521
 50
298.6798451795664278
 51
316.6820777370982114
  0
ARC
  5
50D6
  8
0
 10
274.3497775903464913
 20
34.5714873040070714
 30
0.0
 40
0.0490479872519154
 50
316.6820777370949145
 51
342.7781538950370077
  0
ARC
  5
50D7
  8
0
 10
274.3550116062098141
 20
34.5698649183028124
 30
0.0
 40
0.0435682922393845
 50
342.7781538950370077
 51
36.4178758294721234
  0
ARC
  5
50D8
  8
0
 10
274.2547851038711997
 20
34.4721594353815632
 30
0.0
 40
0.1832268777288675
 50
42.4086174754188718
 51
69.8989610051534811
  0
ARC
  5
50D9
  8
0
 10
274.0739536721378045
 20
34.0035286078398116
 30
0.0
 40
0.6855159895199192
 50
69.1668490177005992
 51
82.1773990345060383
  0
ARC
  5
50DA
  8
0
 10
273.9775734532798879
 20
33.426025093288473
 30
0.0
 40
1.270875475992564
 50
81.4162997434257534
 51
87.0773152804992208
  0
ARC
  5
50DB
  8
0
 10
273.9152659158204983
 20
31.9565860059258391
 30
0.0
 40
2.7416095512863499
 50
87.3426820949259763
 51
88.9421293867674336
  0
ARC
  5
50DC
  8
0
 10
274.0254246109382734
 20
33.707832873141129
 30
0.0
 40
1.035152379100583
 50
74.9729319519949371
 51
82.8261688016840765
  0
ARC
  5
50DD
  8
0
 10
274.185093594278726
 20
34.3026015509019828
 30
0.0
 40
0.4193245100606043
 50
59.5742415864234971
 51
74.9729319519949371
  0
ARC
  5
50DE
  8
0
 10
274.3520864871954927
 20
34.5869410895302778
 30
0.0
 40
0.0895736957900536
 50
16.1861981027283797
 51
59.574241586423291
  0
ARC
  5
50DF
  8
0
 10
274.394122027971207
 20
34.6078082289608702
 30
0.0
 40
0.0441784178776065
 50
327.6200019229286795
 51
5.3281569727308327
  0
ARC
  5
50E0
  8
0
 10
273.4574988035710135
 20
35.5049063523892272
 30
0.0
 40
1.340275429988159
 50
313.8178639337461959
 51
316.6076146805963276
  0
ARC
  5
50E1
  8
0
 10
273.9662467571570232
 20
33.3842815354615681
 30
0.0
 40
1.30140666225006
 50
84.4559044970411747
 51
90.0160469792180891
  0
ARC
  5
50E2
  8
0
 10
274.000562177140921
 20
33.7378087427323905
 30
0.0
 40
0.9462179316723927
 50
75.8352905741149783
 51
84.4559044970379347
  0
ARC
  5
50E3
  8
0
 10
274.1480258711571878
 20
34.3220926552461378
 30
0.0
 40
0.3436125620685996
 50
57.1289341792370209
 51
75.8352905741149783
  0
ARC
  5
50E4
  8
0
 10
274.3029627169200921
 20
34.5618539564362308
 30
0.0
 40
0.0581464384684003
 50
22.3357754593280191
 51
57.1289341792373619
  0
ARC
  5
50E5
  8
0
 10
274.3217939321501149
 20
34.569590940186032
 30
0.0
 40
0.0377877650198581
 50
314.698017563896201
 51
22.3357754593270812
  0
ARC
  5
50E6
  8
0
 10
274.2213235837173784
 20
34.671125985640721
 30
0.0
 40
0.1806291328713288
 50
287.957162274614177
 51
314.698017563896201
  0
ARC
  5
50E7
  8
0
 10
273.9808124113351937
 20
35.4132307088297296
 30
0.0
 40
0.9607349232742075
 50
281.3029397414318282
 51
287.957162274614177
  0
ARC
  5
50E8
  8
0
 10
273.9834114443253839
 20
35.5447215977739504
 30
0.0
 40
1.0895342223735971
 50
273.7921124014566772
 51
279.8134770512482987
  0
ARC
  5
50E9
  8
0
 10
273.7723391705650897
 20
41.4987811486646692
 30
0.0
 40
7.0468984298370101
 50
271.5738267568772244
 51
272.3026497112724087
  0
ARC
  5
50EA
  8
0
 10
273.9662220333382265
 20
35.6693090978541605
 30
0.0
 40
1.2055221838180861
 50
269.9838517486924729
 51
274.5048732117064105
  0
ARC
  5
50EB
  8
0
 10
273.9836358655630875
 20
35.4482857232724768
 30
0.0
 40
0.9838138762059609
 50
274.5048732117064105
 51
280.9647949293163833
  0
ARC
  5
50EC
  8
0
 10
274.0720406477612983
 20
34.9919858427074928
 30
0.0
 40
0.5190289942238391
 50
280.9647949293163833
 51
291.8430400005668162
  0
ARC
  5
50ED
  8
0
 10
274.2006962013492739
 20
34.6710234584162791
 30
0.0
 40
0.1732413374185165
 50
291.8430400005668162
 51
305.5930293244559266
  0
ARC
  5
50EE
  8
0
 10
274.1927418091918867
 20
34.6821368921156079
 30
0.0
 40
0.1869081133068654
 50
305.5930293244560971
 51
318.5360576153366878
  0
ARC
  5
50EF
  8
0
 10
274.2872973978899154
 20
34.5985871987246725
 30
0.0
 40
0.0607284373692132
 50
318.536057615337711
 51
0.0127464001552742
  0
ARC
  5
50F0
  8
0
 10
274.2431050882078125
 20
34.6005811938780496
 30
0.0
 40
0.0931046007768345
 50
318.5911373217307982
 51
331.6569380080184146
  0
ARC
  5
50F1
  8
0
 10
274.2942349063289953
 20
34.5702457758161117
 30
0.0
 40
0.0337895783076038
 50
335.7723943897269123
 51
34.2909692033828293
  0
ARC
  5
50F2
  8
0
 10
274.2268732520029175
 20
34.5137487386814712
 30
0.0
 40
0.1215866199841824
 50
38.4064255850944605
 51
65.1430251995715395
  0
ARC
  5
50F3
  8
0
 10
274.1025205119215116
 20
34.2453260733535814
 30
0.0
 40
0.4174148323431379
 50
65.1430251995715395
 51
75.1828673680415989
  0
ARC
  5
50F4
  8
0
 10
274.0380940100318981
 20
34.0017764526162267
 30
0.0
 40
0.6693417898269181
 50
75.1828673680416557
 51
80.7118347527934645
  0
ARC
  5
50F5
  8
0
 10
273.9760293049607185
 20
33.6222783855054104
 30
0.0
 40
1.053881528418936
 50
80.7118347527934645
 51
84.6294087080302404
  0
ARC
  5
50F6
  8
0
 10
273.9731328323999264
 20
33.5914681223834819
 30
0.0
 40
1.0848276407262729
 50
84.6294087080302404
 51
88.4521335050490052
  0
ARC
  5
50F7
  8
0
 10
273.9618961165110136
 20
33.1756313787203183
 30
0.0
 40
1.500816175621587
 50
88.4521335050490052
 51
89.8478228219840531
  0
ARC
  5
50F8
  8
0
 10
273.9659287057149868
 20
33.4512631827457767
 30
0.0
 40
1.226129880298338
 50
87.5529292660697962
 51
90.0021699496427203
  0
ARC
  5
50F9
  8
0
 10
273.9703655318739948
 20
33.5550839764476621
 30
0.0
 40
1.1222143250082151
 50
82.1954120427826354
 51
87.5529292660697962
  0
ARC
  5
50FA
  8
0
 10
274.0198672234607784
 20
33.9162400561401611
 30
0.0
 40
0.7576815674008889
 50
76.2729564049853224
 51
82.1954120427826354
  0
ARC
  5
50FB
  8
0
 10
274.088601733895473
 20
34.1976230870089211
 30
0.0
 40
0.4680251450906196
 50
68.6376006572006503
 51
76.2729564049853224
  0
ARC
  5
50FC
  8
0
 10
274.1796259438816037
 20
34.4303389283293626
 30
0.0
 40
0.2181410327403822
 50
58.2668167073963517
 51
68.6376006572006503
  0
ARC
  5
50FD
  8
0
 10
274.2376135499320071
 20
34.5241073498182303
 30
0.0
 40
0.1078909564411897
 50
42.6098411812855318
 51
58.2668167073963517
  0
ARC
  5
50FE
  8
0
 10
274.2960565189558224
 20
34.5778669438553621
 30
0.0
 40
0.028482678665197
 50
23.6279408390929788
 51
42.609841181285077
  0
ARC
  5
50FF
  8
0
 10
273.9611750158699124
 20
35.2255781402610992
 30
0.0
 40
0.5278708581408197
 50
270.5109380365267953
 51
281.9360913119347174
  0
ARC
  5
5100
  8
0
 10
273.9164289860103167
 20
35.3640242179364606
 30
0.0
 40
0.6727484730548858
 50
283.226057200387686
 51
290.7424221395833115
  0
ARC
  5
5101
  8
0
 10
273.9772817586072051
 20
33.4605198168092315
 30
0.0
 40
1.3985135487967351
 50
82.7119284692563355
 51
87.3719588811555639
  0
ARC
  5
5102
  8
0
 10
273.9635808318813019
 20
33.1617318122389477
 30
0.0
 40
1.697615516223564
 50
87.3724137591524226
 51
89.9223247781741861
  0
ARC
  5
5103
  8
0
 10
273.9273236572291239
 20
29.809923950866871
 30
0.0
 40
5.0560354553803721
 50
86.6534417568440318
 51
89.5630435860326344
  0
ARC
  5
5104
  8
0
 10
274.1202725494657102
 20
33.2789322861946104
 30
0.0
 40
1.581710226677405
 50
81.3029385502208157
 51
86.2953879342968122
  0
ARC
  5
5105
  8
0
 10
274.317166536026491
 20
34.5660817552647117
 30
0.0
 40
0.2795884974710662
 50
68.70028039881079
 51
81.3029385502208157
  0
ARC
  5
5106
  8
0
 10
274.3937168235332251
 20
34.7624259289066089
 30
0.0
 40
0.0688493671690175
 50
49.8507732311337293
 51
68.7002803988002881
  0
ARC
  5
5107
  8
0
 10
274.4245289020691985
 20
34.798658081262559
 30
0.0
 40
0.0212884974119784
 50
309.6379373393100991
 51
50.3620626610733595
  0
LINE
  5
5108
  8
0
 10
274.4381095590383097
 20
34.6119106327423509
 30
0.0
 11
274.4381095590383097
 21
34.8150521618512627
 31
0.0
  0
LINE
  5
5109
  8
0
 10
274.1546945334350767
 20
34.847734599564923
 30
0.0
 11
274.1546945334350767
 21
34.7348819153466479
 31
0.0
  0
ARC
  5
510A
  8
0
 10
273.9266934099863988
 20
34.6380690915829703
 30
0.0
 40
0.0231124883332762
 50
57.3624222622393631
 51
122.796783558848702
  0
ARC
  5
510B
  8
0
 10
273.9266394463975871
 20
34.6769104338652809
 30
0.0
 40
0.0230704817128202
 50
237.2953781261981874
 51
302.8638276948926773
  0
ARC
  5
510C
  8
0
 10
273.8772585580074974
 20
34.603474660280483
 30
0.0
 40
0.0231124883332762
 50
57.3624222622393631
 51
122.796783558848702
  0
ARC
  5
510D
  8
0
 10
273.8772045944187994
 20
34.6423160025627865
 30
0.0
 40
0.0230704817128202
 50
237.2953781261981874
 51
302.8638276948926773
  0
ARC
  5
510E
  8
0
 10
273.9271267969944006
 20
34.5782678995101165
 30
0.0
 40
0.0231124883332762
 50
57.3624222622393631
 51
122.796783558848702
  0
ARC
  5
510F
  8
0
 10
273.9270728334055889
 20
34.6171092417924271
 30
0.0
 40
0.0230704817128202
 50
237.2953781261981874
 51
302.8638276948926773
  0
ARC
  5
5110
  8
0
 10
273.904646841867816
 20
34.5271919183140525
 30
0.0
 40
0.0231124883332762
 50
57.3624222622393631
 51
122.796783558848702
  0
ARC
  5
5111
  8
0
 10
273.9045928782790043
 20
34.5660332605963632
 30
0.0
 40
0.0230704817128202
 50
237.2953781261981874
 51
302.8638276948926773
  0
ARC
  5
5112
  8
0
 10
273.953058002447392
 20
34.4921602079606089
 30
0.0
 40
0.0231124883332762
 50
57.3624222622393631
 51
122.796783558848702
  0
ARC
  5
5113
  8
0
 10
273.953004038858694
 20
34.5310015502429195
 30
0.0
 40
0.0230704817128202
 50
237.2953781261981874
 51
302.8638276948926773
  0
ARC
  5
5114
  8
0
 10
273.9011250354557205
 20
34.4647100381710771
 30
0.0
 40
0.0231124883332762
 50
57.3624222622393631
 51
122.796783558848702
  0
ARC
  5
5115
  8
0
 10
273.9010710718669088
 20
34.5035513804533878
 30
0.0
 40
0.0230704817128202
 50
237.2953781261981874
 51
302.8638276948926773
  0
ARC
  5
5116
  8
0
 10
273.854481870164193
 20
34.5017635530308695
 30
0.0
 40
0.0231124883332762
 50
57.3624222622393631
 51
122.796783558848702
  0
ARC
  5
5117
  8
0
 10
273.8544279065753813
 20
34.5406048953131801
 30
0.0
 40
0.0230704817128202
 50
237.2953781261981874
 51
302.8638276948926773
  0
ARC
  5
5118
  8
0
 10
273.865996128938491
 20
34.5543498218310603
 30
0.0
 40
0.0231124883332762
 50
57.3624222622393631
 51
122.796783558848702
  0
ARC
  5
5119
  8
0
 10
273.8659421653496793
 20
34.5931911641133709
 30
0.0
 40
0.0230704817128202
 50
237.2953781261981874
 51
302.8638276948926773
  0
ARC
  5
511A
  8
0
 10
273.7993743251017804
 20
34.5834210701643698
 30
0.0
 40
0.0231124883332762
 50
57.3624222622393631
 51
122.796783558848702
  0
ARC
  5
511B
  8
0
 10
273.7993203615130255
 20
34.6222624124466805
 30
0.0
 40
0.0230704817128202
 50
237.2953781261981874
 51
302.8638276948926773
  0
ARC
  5
511C
  8
0
 10
273.8271533218987202
 20
34.6290369479313682
 30
0.0
 40
0.0231124883332762
 50
57.3624222622393631
 51
122.796783558848702
  0
ARC
  5
511D
  8
0
 10
273.8270993583099084
 20
34.667878290213693
 30
0.0
 40
0.0230704817128202
 50
237.2953781261981874
 51
302.8638276948926773
  0
ARC
  5
511E
  8
0
 10
273.7447807331005833
 20
34.6100856314726215
 30
0.0
 40
0.0231124883332762
 50
57.3624222622393631
 51
122.796783558848702
  0
ARC
  5
511F
  8
0
 10
273.7447267695117716
 20
34.6489269737549321
 30
0.0
 40
0.0230704817128202
 50
237.2953781261981874
 51
302.8638276948926773
  0
ARC
  5
5120
  8
0
 10
273.6884681014410035
 20
34.5842257813122629
 30
0.0
 40
0.0231124883332762
 50
57.3624222622393631
 51
122.796783558848702
  0
ARC
  5
5121
  8
0
 10
273.6884141378521917
 20
34.6230671235945735
 30
0.0
 40
0.0230704817128202
 50
237.2953781261981874
 51
302.8638276948926773
  0
ARC
  5
5122
  8
0
 10
273.6661698251957091
 20
34.554507034061281
 30
0.0
 40
0.0231124883332762
 50
57.3624222622393631
 51
122.796783558848702
  0
ARC
  5
5123
  8
0
 10
273.6661158616068974
 20
34.5933483763435916
 30
0.0
 40
0.0230704817128202
 50
237.2953781261981874
 51
302.8638276948926773
  0
ARC
  5
5124
  8
0
 10
273.6792516367539179
 20
34.5239444876230266
 30
0.0
 40
0.0231124883332762
 50
57.3624222622393631
 51
122.796783558848702
  0
ARC
  5
5125
  8
0
 10
273.6791976731649925
 20
34.5627858299053372
 30
0.0
 40
0.0230704817128202
 50
237.2953781261981874
 51
302.8638276948926773
  0
ARC
  5
5126
  8
0
 10
273.7275939433474718
 20
34.4968831838466627
 30
0.0
 40
0.0231124883332762
 50
57.3624222622393631
 51
122.796783558848702
  0
ARC
  5
5127
  8
0
 10
273.727539979758717
 20
34.5357245261289805
 30
0.0
 40
0.0230704817128202
 50
237.2953781261981874
 51
302.8638276948926773
  0
ARC
  5
5128
  8
0
 10
273.8047717643459009
 20
34.4762293761761001
 30
0.0
 40
0.0231124883332762
 50
57.3624222622393631
 51
122.796783558848702
  0
ARC
  5
5129
  8
0
 10
273.8047178007572029
 20
34.5150707184584107
 30
0.0
 40
0.0230704817128202
 50
237.2953781261981874
 51
302.8638276948926773
  0
ARC
  5
512A
  8
0
 10
273.7860236223150991
 20
34.5246272947870594
 30
0.0
 40
0.0231124883332762
 50
57.3624222622393631
 51
122.796783558848702
  0
ARC
  5
512B
  8
0
 10
273.7859696587264011
 20
34.56346863706937
 30
0.0
 40
0.0230704817128202
 50
237.2953781261981874
 51
302.8638276948926773
  0
ARC
  5
512C
  8
0
 10
273.7657716751872954
 20
34.5545988128682993
 30
0.0
 40
0.0231124883332762
 50
57.3624222622393631
 51
122.796783558848702
  0
ARC
  5
512D
  8
0
 10
273.7657177115984837
 20
34.5934401551506099
 30
0.0
 40
0.0230704817128202
 50
237.2953781261981874
 51
302.8638276948926773
  0
ARC
  5
512E
  8
0
 10
273.9795158456570903
 20
34.6094307993037802
 30
0.0
 40
0.0231124883332762
 50
57.3624222622393631
 51
122.796783558848702
  0
ARC
  5
512F
  8
0
 10
273.9794618820682786
 20
34.6482721415860908
 30
0.0
 40
0.0230704817128202
 50
237.2953781261981874
 51
302.8638276948926773
  0
ARC
  5
5130
  8
0
 10
274.0313256941029749
 20
34.6367285325297374
 30
0.0
 40
0.0231124883332762
 50
57.3624222622393631
 51
122.796783558848702
  0
ARC
  5
5131
  8
0
 10
274.0312717305142201
 20
34.675569874812048
 30
0.0
 40
0.0230704817128202
 50
237.2953781261981874
 51
302.8638276948926773
  0
ARC
  5
5132
  8
0
 10
274.077143462612014
 20
34.5996296827869827
 30
0.0
 40
0.0231124883332762
 50
57.3624222622393631
 51
122.796783558848702
  0
ARC
  5
5133
  8
0
 10
274.0770894990232023
 20
34.6384710250692933
 30
0.0
 40
0.0230704817128202
 50
237.2953781261981874
 51
302.8638276948926773
  0
ARC
  5
5134
  8
0
 10
274.1267052020717756
 20
34.6249439752742489
 30
0.0
 40
0.0231124883332762
 50
57.3624222622393631
 51
122.796783558848702
  0
ARC
  5
5135
  8
0
 10
274.1266512384830207
 20
34.6637853175565596
 30
0.0
 40
0.0230704817128202
 50
237.2953781261981874
 51
302.8638276948926773
  0
ARC
  5
5136
  8
0
 10
274.203824908522904
 20
34.6041153465172826
 30
0.0
 40
0.0231124883332762
 50
57.3624222622393631
 51
122.796783558848702
  0
ARC
  5
5137
  8
0
 10
274.2037709449340923
 20
34.6429566887995932
 30
0.0
 40
0.0230704817128202
 50
237.2953781261981874
 51
302.8638276948926773
  0
ARC
  5
5138
  8
0
 10
274.2529759151113922
 20
34.5772847006502388
 30
0.0
 40
0.0231124883332762
 50
57.3624222622393631
 51
122.796783558848702
  0
ARC
  5
5139
  8
0
 10
274.2529219515225805
 20
34.6161260429325495
 30
0.0
 40
0.0230704817128202
 50
237.2953781261981874
 51
302.8638276948926773
  0
ARC
  5
513A
  8
0
 10
274.265653964301805
 20
34.5467033684142493
 30
0.0
 40
0.0231124883332762
 50
57.3624222622393631
 51
122.796783558848702
  0
ARC
  5
513B
  8
0
 10
274.2656000007129933
 20
34.5855447106965599
 30
0.0
 40
0.0230704817128202
 50
237.2953781261981874
 51
302.8638276948926773
  0
ARC
  5
513C
  8
0
 10
274.2436209319284899
 20
34.5170202689119918
 30
0.0
 40
0.0231124883332762
 50
57.3624222622393631
 51
122.796783558848702
  0
ARC
  5
513D
  8
0
 10
274.2435669683397919
 20
34.5558616111943024
 30
0.0
 40
0.0230704817128202
 50
237.2953781261981874
 51
302.8638276948926773
  0
ARC
  5
513E
  8
0
 10
274.166211706421393
 20
34.5469619786852675
 30
0.0
 40
0.0231124883332762
 50
57.3624222622393631
 51
122.796783558848702
  0
ARC
  5
513F
  8
0
 10
274.1661577428325813
 20
34.5858033209675781
 30
0.0
 40
0.0230704817128202
 50
237.2953781261981874
 51
302.8638276948926773
  0
ARC
  5
5140
  8
0
 10
274.1458734790485892
 20
34.5763688590603095
 30
0.0
 40
0.0231124883332762
 50
57.3624222622393631
 51
122.796783558848702
  0
ARC
  5
5141
  8
0
 10
274.1458195154597774
 20
34.6152102013426202
 30
0.0
 40
0.0230704817128202
 50
237.2953781261981874
 51
302.8638276948926773
  0
ARC
  5
5142
  8
0
 10
274.1875886198812964
 20
34.4910126446872667
 30
0.0
 40
0.0231124883332762
 50
57.3624222622393631
 51
122.796783558848702
  0
ARC
  5
5143
  8
0
 10
274.1875346562924847
 20
34.5298539869695773
 30
0.0
 40
0.0230704817128202
 50
237.2953781261981874
 51
302.8638276948926773
  0
ARC
  5
5144
  8
0
 10
274.1326634831715978
 20
34.5181007691507702
 30
0.0
 40
0.0231124883332762
 50
57.3624222622393631
 51
122.796783558848702
  0
ARC
  5
5145
  8
0
 10
274.1326095195827861
 20
34.5569421114330666
 30
0.0
 40
0.0230704817128202
 50
237.2953781261981874
 51
302.8638276948926773
  0
ARC
  5
5146
  8
0
 10
274.1045633974216003
 20
34.4720181661607015
 30
0.0
 40
0.0231124883332762
 50
57.3624222622393631
 51
122.796783558848702
  0
ARC
  5
5147
  8
0
 10
274.1045094338327885
 20
34.5108595084430121
 30
0.0
 40
0.0230704817128202
 50
237.2953781261981874
 51
302.8638276948926773
  0
ARC
  5
5148
  8
0
 10
274.005625325791982
 20
34.4629631853164327
 30
0.0
 40
0.0231124883332762
 50
57.3624222622393631
 51
122.796783558848702
  0
ARC
  5
5149
  8
0
 10
274.005571362203284
 20
34.5018045275987433
 30
0.0
 40
0.0230704817128202
 50
237.2953781261981874
 51
302.8638276948926773
  0
ARC
  5
514A
  8
0
 10
274.0546547943558267
 20
34.4976711688445192
 30
0.0
 40
0.0231124883332762
 50
57.3624222622393631
 51
122.796783558848702
  0
ARC
  5
514B
  8
0
 10
274.0546008307670149
 20
34.5365125111268298
 30
0.0
 40
0.0230704817128202
 50
237.2953781261981874
 51
302.8638276948926773
  0
ARC
  5
514C
  8
0
 10
274.0045059520733162
 20
34.5230389442716188
 30
0.0
 40
0.0231124883332762
 50
57.3624222622393631
 51
122.796783558848702
  0
ARC
  5
514D
  8
0
 10
274.0044519884845045
 20
34.5618802865539294
 30
0.0
 40
0.0230704817128202
 50
237.2953781261981874
 51
302.8638276948926773
  0
ARC
  5
514E
  8
0
 10
273.9664427829500255
 20
34.5507403910809998
 30
0.0
 40
0.0231124883332762
 50
57.3624222622393631
 51
122.796783558848702
  0
ARC
  5
514F
  8
0
 10
273.9663888193612138
 20
34.5895817333633104
 30
0.0
 40
0.0230704817128202
 50
237.2953781261981874
 51
302.8638276948926773
  0
ARC
  5
5150
  8
0
 10
274.0273881700989023
 20
34.5744197985948389
 30
0.0
 40
0.0231124883332762
 50
57.3624222622393631
 51
122.796783558848702
  0
ARC
  5
5151
  8
0
 10
274.0273342065100906
 20
34.6132611408771496
 30
0.0
 40
0.0230704817128202
 50
237.2953781261981874
 51
302.8638276948926773
  0
ARC
  5
5152
  8
0
 10
274.0662379881684956
 20
34.5470112970627099
 30
0.0
 40
0.0231124883332762
 50
57.3624222622393631
 51
122.796783558848702
  0
ARC
  5
5153
  8
0
 10
274.0661840245797976
 20
34.5858526393450205
 30
0.0
 40
0.0230704817128202
 50
237.2953781261981874
 51
302.8638276948926773
  0
ENDSEC
  0
EOF
