  0
SECTION
  2
HEADER
  9
$ACADVER
  1
AC1009
  9
$INSBASE
 10
4678.3033896175311384
 20
507.1108604165892757
 30
0.0
  9
$EXTMIN
 10
4661.4527192161367566
 20
499.2730544543956057
 30
-0.0000000349181948
  9
$EXTMAX
 10
4694.8538811891276055
 20
507.6416677339619241
 30
0.0000000814935746
  9
$LIMMIN
 10
0.0
 20
0.0
  9
$LIMMAX
 10
11.6929133858000007
 20
8.2677165353999982
  9
$ORTHOMODE
 70
     0
  9
$REGENMODE
 70
     1
  9
$FILLMODE
 70
     1
  9
$QTEXTMODE
 70
     0
  9
$MIRRTEXT
 70
     0
  9
$DRAGMODE
 70
     2
  9
$LTSCALE
 40
0.6431102362
  9
$OSMODE
 70
     7
  9
$ATTMODE
 70
     1
  9
$TEXTSIZE
 40
0.2
  9
$TRACEWID
 40
0.05
  9
$TEXTSTYLE
  7
STANDARD
  9
$CLAYER
  8
0
  9
$CELTYPE
  6
BYLAYER
  9
$CECOLOR
 62
   256
  9
$DIMSCALE
 40
1.0
  9
$DIMASZ
 40
0.1875
  9
$DIMEXO
 40
0.0625
  9
$DIMDLI
 40
0.4443307087
  9
$DIMRND
 40
0.0
  9
$DIMDLE
 40
0.0
  9
$DIMEXE
 40
0.125
  9
$DIMTP
 40
0.01
  9
$DIMTM
 40
0.01
  9
$DIMTXT
 40
2.0
  9
$DIMCEN
 40
0.1052362205
  9
$DIMTSZ
 40
0.0
  9
$DIMTOL
 70
     1
  9
$DIMLIM
 70
     0
  9
$DIMTIH
 70
     1
  9
$DIMTOH
 70
     1
  9
$DIMSE1
 70
     0
  9
$DIMSE2
 70
     0
  9
$DIMTAD
 70
     0
  9
$DIMZIN
 70
     0
  9
$DIMBLK
  1

  9
$DIMASO
 70
     1
  9
$DIMSHO
 70
     1
  9
$DIMPOST
  1
\X
  9
$DIMAPOST
  1

  9
$DIMALT
 70
     1
  9
$DIMALTD
 70
     2
  9
$DIMALTF
 40
25.3999999999999986
  9
$DIMLFAC
 40
1.0
  9
$DIMTOFL
 70
     0
  9
$DIMTVP
 40
0.0
  9
$DIMTIX
 70
     0
  9
$DIMSOXD
 70
     0
  9
$DIMSAH
 70
     0
  9
$DIMBLK1
  1

  9
$DIMBLK2
  1

  9
$DIMSTYLE
  2
STANDARD
  9
$DIMCLRD
 70
     0
  9
$DIMCLRE
 70
     0
  9
$DIMCLRT
 70
     0
  9
$DIMTFAC
 40
1.0
  9
$DIMGAP
 40
0.09
  9
$LUNITS
 70
     2
  9
$LUPREC
 70
     4
  9
$SKETCHINC
 40
0.1
  9
$FILLETRAD
 40
0.0
  9
$AUNITS
 70
     0
  9
$AUPREC
 70
     0
  9
$MENU
  1
.
  9
$ELEVATION
 40
0.0
  9
$PELEVATION
 40
0.0
  9
$THICKNESS
 40
0.0
  9
$LIMCHECK
 70
     0
  9
$BLIPMODE
 70
     0
  9
$CHAMFERA
 40
0.0
  9
$CHAMFERB
 40
0.0
  9
$SKPOLY
 70
     0
  9
$TDCREATE
 40
2458060.468368056230247
  9
$TDUPDATE
 40
2459562.5676967590115964
  9
$TDINDWG
 40
1.4981334954000001
  9
$TDUSRTIMER
 40
1.4981334954000001
  9
$USRTIMER
 70
     1
  9
$ANGBASE
 50
0.0
  9
$ANGDIR
 70
     0
  9
$PDMODE
 70
     0
  9
$PDSIZE
 40
0.3125
  9
$PLINEWID
 40
0.0
  9
$COORDS
 70
     1
  9
$SPLFRAME
 70
     0
  9
$SPLINETYPE
 70
     6
  9
$SPLINESEGS
 70
     8
  9
$ATTDIA
 70
     1
  9
$ATTREQ
 70
     1
  9
$HANDLING
 70
     1
  9
$HANDSEED
  5
1C8DF
  9
$SURFTAB1
 70
     6
  9
$SURFTAB2
 70
     6
  9
$SURFTYPE
 70
     6
  9
$SURFU
 70
     6
  9
$SURFV
 70
     6
  9
$UCSNAME
  2

  9
$UCSORG
 10
0.0
 20
0.0
 30
0.0
  9
$UCSXDIR
 10
1.0
 20
0.0
 30
0.0
  9
$UCSYDIR
 10
0.0
 20
1.0
 30
0.0
  9
$PUCSNAME
  2

  9
$PUCSORG
 10
0.0
 20
0.0
 30
0.0
  9
$PUCSXDIR
 10
1.0
 20
0.0
 30
0.0
  9
$PUCSYDIR
 10
0.0
 20
1.0
 30
0.0
  9
$USERI1
 70
     0
  9
$USERI2
 70
     0
  9
$USERI3
 70
     0
  9
$USERI4
 70
     0
  9
$USERI5
 70
     0
  9
$USERR1
 40
0.0
  9
$USERR2
 40
0.0
  9
$USERR3
 40
0.0
  9
$USERR4
 40
0.0
  9
$USERR5
 40
0.0
  9
$WORLDVIEW
 70
     1
  9
$SHADEDGE
 70
     3
  9
$SHADEDIF
 70
    70
  9
$TILEMODE
 70
     1
  9
$MAXACTVP
 70
    64
  9
$PLIMCHECK
 70
     0
  9
$PEXTMIN
 10
1.0000000000000000E+20
 20
1.0000000000000000E+20
 30
1.0000000000000000E+20
  9
$PEXTMAX
 10
-1.0000000000000000E+20
 20
-1.0000000000000000E+20
 30
-1.0000000000000000E+20
  9
$PLIMMIN
 10
0.0
 20
0.0
  9
$PLIMMAX
 10
12.0
 20
9.0
  9
$UNITMODE
 70
     0
  9
$VISRETAIN
 70
     1
  9
$PLINEGEN
 70
     0
  9
$PSLTSCALE
 70
     1
  0
ENDSEC
  0
SECTION
  2
TABLES
  0
TABLE
  2
VPORT
 70
     1
  0
VPORT
  2
*ACTIVE
 70
     0
 10
0.0
 20
0.0
 11
1.0
 21
1.0
 12
766.7879437573201358
 22
370.877755991639674
 13
0.0
 23
0.0
 14
1.0
 24
1.0
 15
0.0
 25
0.0
 16
0.0
 26
0.0
 36
60.4960186965801583
 17
3911.3653564453120453
 27
132.5796051025390057
 37
0.0
 40
17.7612726848294784
 41
1.8876941457586609
 42
50.0
 43
0.0
 44
0.0
 50
0.0
 51
0.0
 71
     0
 72
   100
 73
     1
 74
     1
 75
     0
 76
     0
 77
     0
 78
     0
  0
ENDTAB
  0
TABLE
  2
LTYPE
 70
     2
  0
LTYPE
  2
CONTINUOUS
 70
     0
  3
Solid line
 72
    65
 73
     0
 40
0.0
  0
LTYPE
  2
PHANTOM2
 70
     0
  3
___ _ _ ___ _ _ ___ _ _ ___ _ _
 72
    65
 73
     6
 40
1.25
 49
0.625
 49
-0.125
 49
0.125
 49
-0.125
 49
0.125
 49
-0.125
  0
ENDTAB
  0
TABLE
  2
LAYER
 70
     2
  0
LAYER
  2
0
 70
     0
 62
   255
  6
CONTINUOUS
  0
LAYER
  2
DEFPOINTS
 70
     0
 62
     7
  6
CONTINUOUS
  0
ENDTAB
  0
TABLE
  2
STYLE
 70
     1
  0
STYLE
  2
STANDARD
 70
     0
 40
0.0
 41
0.8
 50
0.0
 71
     0
 42
0.2
  3
txt
  4

  0
ENDTAB
  0
TABLE
  2
VIEW
 70
     0
  0
ENDTAB
  0
TABLE
  2
UCS
 70
     0
  0
ENDTAB
  0
TABLE
  2
APPID
 70
    11
  0
APPID
  2
ACAD
 70
     0
  0
APPID
  2
ACAD_MLEADERVER
 70
     0
  0
APPID
  2
ACAD_EXEMPT_FROM_CAD_STANDARDS
 70
     0
  0
APPID
  2
ACAD_NAV_VCDISPLAY
 70
     0
  0
APPID
  2
ACAECLAYERSTANDARD
 70
     0
  0
APPID
  2
ACCMTRANSPARENCY
 70
     0
  0
APPID
  2
ACAD_DSTYLE_DIMJAG
 70
     0
  0
APPID
  2
ACAD_DSTYLE_DIMTALN
 70
     0
  0
APPID
  2
ACDBATTR
 70
     0
  0
APPID
  2
ACADANNOTATIVE
 70
     0
  0
APPID
  2
DCO15
 70
     0
  0
ENDTAB
  0
TABLE
  2
DIMSTYLE
 70
     1
  0
DIMSTYLE
  2
STANDARD
 70
     0
  3

  4

  5

  6

  7

 40
1.0
 41
0.1875
 42
0.0625
 43
0.38
 44
0.125
 45
0.0
 46
0.0
 47
0.01
 48
0.01
140
0.15625
141
0.09
142
0.0
143
25.3999999999999986
144
1.0
145
0.0
146
1.0
147
0.09
 71
     1
 72
     0
 73
     1
 74
     1
 75
     0
 76
     0
 77
     0
 78
     4
170
     0
171
     2
172
     0
173
     0
174
     0
175
     0
176
     0
177
     0
178
     0
  0
ENDTAB
  0
ENDSEC
  0
SECTION
  2
BLOCKS
  0
BLOCK
  8
0
  2
$MODEL_SPACE
 70
     0
 10
0.0
 20
0.0
 30
0.0
  3
$MODEL_SPACE
  1

  0
ENDBLK
  5
21
  8
0
  0
BLOCK
 67
     1
  8
0
  2
$PAPER_SPACE
 70
     0
 10
0.0
 20
0.0
 30
0.0
  3
$PAPER_SPACE
  1

  0
ENDBLK
  5
1D
 67
     1
  8
0
  0
ENDSEC
  0
SECTION
  2
ENTITIES
  0
ATTDEF
  5
159BF
  8
DEFPOINTS
 10
4678.3033901604112543
 20
507.1141964122796253
 30
0.0
 40
0.001
  1
K-2886X-1
  3

  2
MODELNUMBER
 70
     0
1001
ACDBATTR
1070
     0
1070
     1
  0
ATTDEF
  5
159C0
  8
DEFPOINTS
 10
4678.3033901604112543
 20
507.1125295719004953
 30
0.0
 40
0.001
  1
ELLIPSE
  3

  2
TRADENAME
 70
     0
1001
ACDBATTR
1070
     0
1070
     1
  0
ATTDEF
  5
159C1
  8
DEFPOINTS
 10
4678.3033901604112543
 20
507.110863078946295
 30
0.0
 40
0.001
  1
BATHROOM SINK
  3

  2
PRODUCT
 70
     0
1001
ACDBATTR
1070
     0
1070
     1
  0
LINE
  5
1C7FD
  8
0
 10
4694.263706711548366
 20
507.6102426969893031
 30
0.0
 11
4662.34517920408598
 21
507.6102426969893031
 31
0.0
  0
LINE
  5
1C7FE
  8
0
 10
4677.1871912336337118
 20
499.2988604165893207
 30
0.0
 11
4679.4195880014276554
 21
499.2988604165893207
 31
0.0
  0
LINE
  5
1C7FF
  8
0
 10
4661.8033944828803214
 20
507.1108604165892757
 30
0.0
 11
4694.8033847521810458
 21
507.1108604165892757
 31
0.0
  0
ARC
  5
1C800
  8
0
 10
4662.3651441714200701
 20
507.0449975964040732
 30
0.0
 40
0.5655975810205617
 50
92.0228977136427062
 51
173.3128379486805102
  0
ARC
  5
1C801
  8
0
 10
4694.2420102716268957
 20
507.0454917476387777
 30
0.0
 40
0.5651675594879086
 50
6.6418360592109131
 51
87.7999091441532755
  0
LINE
  5
1C802
  8
0
 10
4677.4434758774941656
 20
500.5775099735568006
 30
0.0
 11
4677.4434758774941656
 21
506.0264363930165246
 31
0.0
  0
ARC
  5
1C803
  8
0
 10
4677.1871912336018795
 20
499.4188604166459982
 30
0.0
 40
0.1200000000565897
 50
188.2796312018815001
 51
270.0000000153203814
  0
LINE
  5
1C804
  8
0
 10
4677.0684419880808491
 20
499.4015798870893263
 30
0.0
 11
4676.9288771954797994
 21
500.3606669340894086
 31
0.0
  0
ARC
  5
1C805
  8
0
 10
4676.187956743155155
 20
500.2523993825897719
 30
0.0
 40
0.7487890085880867
 50
8.3135492266194309
 51
73.9703623344965138
  0
ARC
  5
1C806
  8
0
 10
4674.7633274141217044
 20
515.5099453583579816
 30
0.0
 40
14.2065596952844206
 50
216.2433712507250902
 51
242.9288376467071942
  0
ARC
  5
1C807
  8
0
 10
4674.7470237766710852
 20
515.4949782036703709
 30
0.0
 40
14.1858146723743506
 50
242.9599615414064999
 51
256.9564311657341023
  0
ARC
  5
1C808
  8
0
 10
4678.2675388442139592
 20
530.9635470413556959
 30
0.0
 40
30.0498893582007405
 50
257.0735966802852204
 51
266.4268082732879179
  0
ARC
  5
1C809
  8
0
 10
4678.3033896175311384
 20
500.3993608091673195
 30
0.0
 40
0.8747001451013438
 50
239.0563878419634989
 51
300.9436121580363874
  0
ARC
  5
1C80A
  8
0
 10
4679.9171465892140986
 20
500.6373640299389081
 30
0.0
 40
2.474394733684611
 50
181.3860841585739081
 51
187.8529494900926125
  0
ARC
  5
1C80B
  8
0
 10
4678.4627409232061837
 20
500.4367657626190748
 30
0.0
 40
1.0062205252992391
 50
187.8529494900926125
 51
223.5124500458701107
  0
ARC
  5
1C80C
  8
0
 10
4678.2428807970736671
 20
500.2684648969412251
 30
0.0
 40
0.7314831871601483
 50
225.8096816597073939
 51
237.8493313738869972
  0
ARC
  5
1C80D
  8
0
 10
4773.803657486456359
 20
505.7015757155883762
 30
0.0
 40
96.3607292114990628
 50
179.3627502281034083
 51
179.8068385206593121
  0
ARC
  5
1C80E
  8
0
 10
4684.0764260772339185
 20
506.6995727066666859
 30
0.0
 40
6.627947830566379
 50
176.442307597024211
 51
179.3627502281034083
  0
ARC
  5
1C80F
  8
0
 10
4694.2416350636422067
 20
507.0449975964040732
 30
0.0
 40
0.5655975810205617
 50
6.6871620513195111
 51
87.9771022863572654
  0
LINE
  5
1C810
  8
0
 10
4679.1633033575672016
 20
500.5775099735568006
 30
0.0
 11
4679.1633033575672016
 21
506.0264363930165246
 31
0.0
  0
ARC
  5
1C811
  8
0
 10
4679.4195880014603972
 20
499.4188604166459982
 30
0.0
 40
0.1200000000565886
 50
269.9999999846796186
 51
351.7203687981183862
  0
LINE
  5
1C812
  8
0
 10
4679.5383372469796086
 20
499.4015798870893263
 30
0.0
 11
4679.6779020395806583
 21
500.3606669340894086
 31
0.0
  0
ARC
  5
1C813
  8
0
 10
4680.4188224919062122
 20
500.2523993825897719
 30
0.0
 40
0.7487890085880867
 50
106.0296376655035004
 51
171.6864507733806136
  0
ARC
  5
1C814
  8
0
 10
4681.8434518209396629
 20
515.5099453583579816
 30
0.0
 40
14.2065596952844206
 50
297.0711623532927774
 51
323.7566287492747961
  0
ARC
  5
1C815
  8
0
 10
4681.859755458390282
 20
515.4949782036703709
 30
0.0
 40
14.1858146723743506
 50
283.0435688342657841
 51
297.0400384585934148
  0
ARC
  5
1C816
  8
0
 10
4678.339240390847408
 20
530.9635470413556959
 30
0.0
 40
30.0498893582007405
 50
273.5731917267120821
 51
282.9264033197147796
  0
ARC
  5
1C817
  8
0
 10
4676.6896326458472686
 20
500.6373640299389081
 30
0.0
 40
2.474394733684611
 50
352.1470505099072739
 51
358.6139158414260919
  0
ARC
  5
1C818
  8
0
 10
4678.1440383118551836
 20
500.4367657626190748
 30
0.0
 40
1.0062205252992391
 50
316.4875499541299178
 51
352.1470505099072739
  0
ARC
  5
1C819
  8
0
 10
4678.3638984379877002
 20
500.2684648969412251
 30
0.0
 40
0.7314831871601483
 50
302.1506686261129744
 51
314.1903183402924924
  0
ARC
  5
1C81A
  8
0
 10
4582.8031217486050082
 20
505.7015757155883762
 30
0.0
 40
96.3607292114990628
 50
0.193161479343923
 51
0.6372497718932801
  0
ARC
  5
1C81B
  8
0
 10
4672.5303531578274487
 20
506.6995727066666859
 30
0.0
 40
6.627947830566379
 50
0.6372497718932801
 51
3.557692402975805
  0
ENDSEC
  0
EOF
