  0
SECTION
  2
HEADER
  9
$ACADVER
  1
AC1009
  9
$INSBASE
 10
4462.8394787606712271
 20
466.1430970347590801
 30
0.0
  9
$EXTMIN
 10
4461.6190045580906371
 20
460.8452429245481881
 30
0.0
  9
$EXTMAX
 10
4464.0599512016224253
 20
467.3635712372548028
 30
0.0
  9
$LIMMIN
 10
0.0
 20
0.0
  9
$LIMMAX
 10
11.6929133858000007
 20
8.2677165353999982
  9
$ORTHOMODE
 70
     0
  9
$REGENMODE
 70
     1
  9
$FILLMODE
 70
     1
  9
$QTEXTMODE
 70
     0
  9
$MIRRTEXT
 70
     0
  9
$DRAGMODE
 70
     2
  9
$LTSCALE
 40
0.6431102362
  9
$OSMODE
 70
  4095
  9
$ATTMODE
 70
     1
  9
$TEXTSIZE
 40
0.2
  9
$TRACEWID
 40
0.05
  9
$TEXTSTYLE
  7
STANDARD
  9
$CLAYER
  8
0
  9
$CELTYPE
  6
BYLAYER
  9
$CECOLOR
 62
   256
  9
$DIMSCALE
 40
1.0
  9
$DIMASZ
 40
0.1875
  9
$DIMEXO
 40
0.0625
  9
$DIMDLI
 40
0.4443307087
  9
$DIMRND
 40
0.0
  9
$DIMDLE
 40
0.0
  9
$DIMEXE
 40
0.125
  9
$DIMTP
 40
0.01
  9
$DIMTM
 40
0.01
  9
$DIMTXT
 40
2.0
  9
$DIMCEN
 40
0.1052362205
  9
$DIMTSZ
 40
0.0
  9
$DIMTOL
 70
     1
  9
$DIMLIM
 70
     0
  9
$DIMTIH
 70
     1
  9
$DIMTOH
 70
     1
  9
$DIMSE1
 70
     0
  9
$DIMSE2
 70
     0
  9
$DIMTAD
 70
     0
  9
$DIMZIN
 70
     0
  9
$DIMBLK
  1

  9
$DIMASO
 70
     1
  9
$DIMSHO
 70
     1
  9
$DIMPOST
  1
\X
  9
$DIMAPOST
  1

  9
$DIMALT
 70
     1
  9
$DIMALTD
 70
     2
  9
$DIMALTF
 40
25.3999999999999986
  9
$DIMLFAC
 40
1.0
  9
$DIMTOFL
 70
     0
  9
$DIMTVP
 40
0.0
  9
$DIMTIX
 70
     0
  9
$DIMSOXD
 70
     0
  9
$DIMSAH
 70
     0
  9
$DIMBLK1
  1

  9
$DIMBLK2
  1

  9
$DIMSTYLE
  2
STANDARD
  9
$DIMCLRD
 70
     0
  9
$DIMCLRE
 70
     0
  9
$DIMCLRT
 70
     0
  9
$DIMTFAC
 40
1.0
  9
$DIMGAP
 40
0.09
  9
$LUNITS
 70
     2
  9
$LUPREC
 70
     4
  9
$SKETCHINC
 40
0.1
  9
$FILLETRAD
 40
0.0
  9
$AUNITS
 70
     0
  9
$AUPREC
 70
     0
  9
$MENU
  1
.
  9
$ELEVATION
 40
0.0
  9
$PELEVATION
 40
0.0
  9
$THICKNESS
 40
0.0
  9
$LIMCHECK
 70
     0
  9
$BLIPMODE
 70
     0
  9
$CHAMFERA
 40
0.0
  9
$CHAMFERB
 40
0.0
  9
$SKPOLY
 70
     0
  9
$TDCREATE
 40
2458060.468368056230247
  9
$TDUPDATE
 40
2460136.6159490738064051
  9
$TDINDWG
 40
2.3465272453999999
  9
$TDUSRTIMER
 40
2.3465272453999999
  9
$USRTIMER
 70
     1
  9
$ANGBASE
 50
0.0
  9
$ANGDIR
 70
     0
  9
$PDMODE
 70
     0
  9
$PDSIZE
 40
0.3125
  9
$PLINEWID
 40
0.0
  9
$COORDS
 70
     1
  9
$SPLFRAME
 70
     0
  9
$SPLINETYPE
 70
     6
  9
$SPLINESEGS
 70
     8
  9
$ATTDIA
 70
     1
  9
$ATTREQ
 70
     1
  9
$HANDLING
 70
     1
  9
$HANDSEED
  5
19431
  9
$SURFTAB1
 70
     6
  9
$SURFTAB2
 70
     6
  9
$SURFTYPE
 70
     6
  9
$SURFU
 70
     6
  9
$SURFV
 70
     6
  9
$UCSNAME
  2

  9
$UCSORG
 10
0.0
 20
0.0
 30
0.0
  9
$UCSXDIR
 10
1.0
 20
0.0
 30
0.0
  9
$UCSYDIR
 10
0.0
 20
1.0
 30
0.0
  9
$PUCSNAME
  2

  9
$PUCSORG
 10
0.0
 20
0.0
 30
0.0
  9
$PUCSXDIR
 10
1.0
 20
0.0
 30
0.0
  9
$PUCSYDIR
 10
0.0
 20
1.0
 30
0.0
  9
$USERI1
 70
     0
  9
$USERI2
 70
     0
  9
$USERI3
 70
     0
  9
$USERI4
 70
     0
  9
$USERI5
 70
     0
  9
$USERR1
 40
0.0
  9
$USERR2
 40
0.0
  9
$USERR3
 40
0.0
  9
$USERR4
 40
0.0
  9
$USERR5
 40
0.0
  9
$WORLDVIEW
 70
     1
  9
$SHADEDGE
 70
     3
  9
$SHADEDIF
 70
    70
  9
$TILEMODE
 70
     1
  9
$MAXACTVP
 70
    64
  9
$PLIMCHECK
 70
     0
  9
$PEXTMIN
 10
1.0000000000000000E+20
 20
1.0000000000000000E+20
 30
1.0000000000000000E+20
  9
$PEXTMAX
 10
-1.0000000000000000E+20
 20
-1.0000000000000000E+20
 30
-1.0000000000000000E+20
  9
$PLIMMIN
 10
0.0
 20
0.0
  9
$PLIMMAX
 10
12.0
 20
9.0
  9
$UNITMODE
 70
     0
  9
$VISRETAIN
 70
     1
  9
$PLINEGEN
 70
     0
  9
$PSLTSCALE
 70
     1
  0
ENDSEC
  0
SECTION
  2
TABLES
  0
TABLE
  2
VPORT
 70
     1
  0
VPORT
  2
*ACTIVE
 70
     0
 10
0.0
 20
0.0
 11
1.0
 21
1.0
 12
551.4741214345440312
 22
331.5248019783624045
 13
0.0
 23
0.0
 14
1.0
 24
1.0
 15
0.0
 25
0.0
 16
0.0
 26
0.0
 36
60.4960186965801583
 17
3911.3653564453120453
 27
132.5796051025390057
 37
0.0
 40
6.5684050987197216
 41
1.4307692307692299
 42
50.0
 43
0.0
 44
0.0
 50
0.0
 51
0.0
 71
     0
 72
   100
 73
     1
 74
     1
 75
     0
 76
     0
 77
     0
 78
     0
  0
ENDTAB
  0
TABLE
  2
LTYPE
 70
     2
  0
LTYPE
  2
CONTINUOUS
 70
     0
  3
Solid line
 72
    65
 73
     0
 40
0.0
  0
LTYPE
  2
PHANTOM2
 70
     0
  3
___ _ _ ___ _ _ ___ _ _ ___ _ _
 72
    65
 73
     6
 40
1.25
 49
0.625
 49
-0.125
 49
0.125
 49
-0.125
 49
0.125
 49
-0.125
  0
ENDTAB
  0
TABLE
  2
LAYER
 70
     2
  0
LAYER
  2
0
 70
     0
 62
   255
  6
CONTINUOUS
  0
LAYER
  2
DEFPOINTS
 70
     0
 62
     7
  6
CONTINUOUS
  0
ENDTAB
  0
TABLE
  2
STYLE
 70
     1
  0
STYLE
  2
STANDARD
 70
     0
 40
0.0
 41
0.8
 50
0.0
 71
     0
 42
0.2
  3
txt
  4

  0
ENDTAB
  0
TABLE
  2
VIEW
 70
     0
  0
ENDTAB
  0
TABLE
  2
UCS
 70
     0
  0
ENDTAB
  0
TABLE
  2
APPID
 70
    11
  0
APPID
  2
ACAD
 70
     0
  0
APPID
  2
ACAD_MLEADERVER
 70
     0
  0
APPID
  2
ACAD_EXEMPT_FROM_CAD_STANDARDS
 70
     0
  0
APPID
  2
ACAD_NAV_VCDISPLAY
 70
     0
  0
APPID
  2
ACAECLAYERSTANDARD
 70
     0
  0
APPID
  2
ACCMTRANSPARENCY
 70
     0
  0
APPID
  2
ACAD_DSTYLE_DIMJAG
 70
     0
  0
APPID
  2
ACAD_DSTYLE_DIMTALN
 70
     0
  0
APPID
  2
ACDBATTR
 70
     0
  0
APPID
  2
ACADANNOTATIVE
 70
     0
  0
APPID
  2
DCO15
 70
     0
  0
ENDTAB
  0
TABLE
  2
DIMSTYLE
 70
     1
  0
DIMSTYLE
  2
STANDARD
 70
     0
  3

  4

  5

  6

  7

 40
1.0
 41
0.1875
 42
0.0625
 43
0.38
 44
0.125
 45
0.0
 46
0.0
 47
0.01
 48
0.01
140
0.15625
141
0.09
142
0.0
143
25.3999999999999986
144
1.0
145
0.0
146
1.0
147
0.09
 71
     1
 72
     0
 73
     1
 74
     1
 75
     0
 76
     0
 77
     0
 78
     4
170
     0
171
     2
172
     0
173
     0
174
     0
175
     0
176
     0
177
     0
178
     0
  0
ENDTAB
  0
ENDSEC
  0
SECTION
  2
BLOCKS
  0
BLOCK
  8
0
  2
$MODEL_SPACE
 70
     0
 10
0.0
 20
0.0
 30
0.0
  3
$MODEL_SPACE
  1

  0
ENDBLK
  5
21
  8
0
  0
BLOCK
 67
     1
  8
0
  2
$PAPER_SPACE
 70
     0
 10
0.0
 20
0.0
 30
0.0
  3
$PAPER_SPACE
  1

  0
ENDBLK
  5
1D
 67
     1
  8
0
  0
ENDSEC
  0
SECTION
  2
ENTITIES
  0
ATTDEF
  5
159BF
  8
DEFPOINTS
 10
4462.8333866561233663
 20
466.1412997405437864
 30
0.0
 40
0.001
  1
K-28577T
  3

  2
MODELNUMBER
 70
     0
1001
ACDBATTR
1070
     0
1070
     1
  0
ATTDEF
  5
159C0
  8
DEFPOINTS
 10
4462.8333866561233663
 20
466.1396329001645995
 30
0.0
 40
0.001
  1
LOURE
  3

  2
TRADENAME
 70
     0
1001
ACDBATTR
1070
     0
1070
     1
  0
ATTDEF
  5
159C1
  8
DEFPOINTS
 10
4462.8333866561233663
 20
466.1379664072105129
 30
0.0
 40
0.001
  1
BATHROOM SINK FAUCET
  3

  2
PRODUCT
 70
     0
1001
ACDBATTR
1070
     0
1070
     1
  0
LINE
  5
19387
  8
0
 10
4462.0717622252213914
 20
460.862045165723714
 30
0.0
 11
4462.0717622252213914
 21
466.4383726252236784
 31
0.0
  0
LINE
  5
19388
  8
0
 10
4463.6071952961210627
 20
460.8620451657238277
 30
0.0
 11
4463.6071952961210627
 21
466.4383726252236784
 31
0.0
  0
LINE
  5
19389
  8
0
 10
4461.6190063197209383
 20
467.3241993969236887
 30
0.0
 11
4461.6190063197209383
 21
464.9619946725945283
 31
0.0
  0
LINE
  5
1938A
  8
0
 10
4464.0599512016224253
 20
467.3241993969236887
 30
0.0
 11
4464.0599512016224253
 21
464.9619946725945283
 31
0.0
  0
LINE
  5
1938B
  8
0
 10
4464.0205811229197934
 20
467.3635694756237058
 30
0.0
 11
4461.6583763984199322
 21
467.3635694756237058
 31
0.0
  0
LINE
  5
1938C
  8
0
 10
4463.5875102567206341
 20
466.4580576646237091
 30
0.0
 11
4462.0914472646209106
 21
466.4580576646237091
 31
0.0
  0
LINE
  5
1938D
  8
0
 10
4462.0717622252213914
 20
464.9226245937236968
 30
0.0
 11
4461.6583763818653097
 21
464.9226245937236968
 31
0.0
  0
LINE
  5
1938E
  8
0
 10
4463.6071952961210627
 20
464.9226245937236968
 30
0.0
 11
4464.0205811227506274
 21
464.9226245937236968
 31
0.0
  0
ARC
  5
1938F
  8
0
 10
4461.6581934854866631
 20
464.9618117595668991
 30
0.0
 40
0.0391875926525395
 50
179.732563860330913
 51
270.2674118977427042
  0
ARC
  5
19390
  8
0
 10
4461.6580057124228915
 20
467.3245700829235147
 30
0.0
 40
0.0390011543312771
 50
89.4554246130718411
 51
180.5445752428337869
  0
LINE
  5
19391
  8
0
 10
4463.5876221270964379
 20
460.8452429336239788
 30
0.0
 11
4462.0913353942469257
 21
460.8452429336239788
 31
0.0
  0
ARC
  5
19392
  8
0
 10
4462.0875231789832469
 20
460.8622487292298047
 30
0.0
 40
0.0157622682887142
 50
180.7399730664895969
 51
233.0103500609527885
  0
ARC
  5
19393
  8
0
 10
4462.0913153363571837
 20
460.8674074392232001
 30
0.0
 40
0.0221645146749345
 50
233.2039198985104065
 51
270.0518501105751739
  0
LINE
  5
19394
  8
0
 10
4462.0914472646209106
 20
463.9713273140237106
 30
0.0
 11
4463.5875102567206341
 21
463.9713273140237106
 31
0.0
  0
ARC
  5
19395
  8
0
 10
4462.0849923360374305
 20
463.9863260388800086
 30
0.0
 40
0.0132740619483041
 50
184.6638078234655893
 51
241.8499909119971107
  0
ARC
  5
19396
  8
0
 10
4462.0911620249298721
 20
463.9964173836776808
 30
0.0
 40
0.0250916909937644
 50
240.2993379799954994
 51
270.6513463954884742
  0
ARC
  5
19397
  8
0
 10
4463.5942913862527348
 20
463.9861121160087123
 30
0.0
 40
0.0129328947790449
 50
297.3228934883072156
 51
356.1633083875482271
  0
ARC
  5
19398
  8
0
 10
4463.5875921786064282
 20
463.9972021618411873
 30
0.0
 40
0.0258749775028188
 50
269.8185974829124234
 51
299.2307185182303897
  0
ARC
  5
19399
  8
0
 10
4462.0914472646209106
 20
466.4383726252236784
 30
0.0
 40
0.019685039399997
 50
90.0
 51
180.0000000000194973
  0
ARC
  5
1939A
  8
0
 10
4463.5875102567206341
 20
466.4383726252236784
 30
0.0
 40
0.0196850394000023
 50
0.0000000000097707
 51
90.0
  0
ARC
  5
1939B
  8
0
 10
4464.0205811229197934
 20
467.3241993969236887
 30
0.0
 40
0.0393700786999958
 50
359.9999998544660116
 51
90.0
  0
ARC
  5
1939C
  8
0
 10
4464.0205811227506274
 20
464.9619946725945283
 30
0.0
 40
0.0393700788707072
 50
270.0000002484613901
 51
359.9999998971018726
  0
ARC
  5
1939D
  8
0
 10
4463.5914343423582977
 20
460.8622487292298047
 30
0.0
 40
0.0157622682887142
 50
306.9896499390471831
 51
359.2600269335104031
  0
ARC
  5
1939E
  8
0
 10
4463.5876354608853944
 20
460.867427685503003
 30
0.0
 40
0.0221847558860313
 50
269.9655632924635142
 51
306.7786666984786734
  0
LINE
  5
1939F
  8
0
 10
4462.8690063197209383
 20
461.2030710739236952
 30
0.0
 11
4462.8099512016206063
 21
461.2030710739236952
 31
0.0
  0
LINE
  5
193A0
  8
0
 10
4462.8099512016206063
 20
461.2030710739236952
 30
0.0
 11
4462.8099512016206063
 21
461.1613127994236834
 31
0.0
  0
LINE
  5
193A1
  8
0
 10
4462.8099512016206063
 20
461.1613127994236834
 30
0.0
 11
4462.8690063197209383
 21
461.1613127994236834
 31
0.0
  0
LINE
  5
193A2
  8
0
 10
4462.8099512016206063
 20
461.1683838672237243
 30
0.0
 11
4462.8690063197209383
 21
461.1683838672237243
 31
0.0
  0
LINE
  5
193A3
  8
0
 10
4462.7926339011210075
 20
461.1464676898236803
 30
0.0
 11
4462.7675551610327602
 21
461.1249691517165274
 31
0.0
  0
LINE
  5
193A4
  8
0
 10
4462.7424907100403288
 20
461.1034828628135074
 30
0.0
 11
4462.7174315166221277
 21
461.0820010809237033
 31
0.0
  0
LINE
  5
193A5
  8
0
 10
4462.8863236203205815
 20
461.1464676898236803
 30
0.0
 11
4462.9114023604088288
 21
461.1249691517165274
 31
0.0
  0
LINE
  5
193A6
  8
0
 10
4462.9364668114021697
 20
461.1034828628135074
 30
0.0
 11
4462.9615260048203709
 21
461.0820010809237033
 31
0.0
  0
ARC
  5
193A7
  8
0
 10
4462.8394787607212493
 20
461.2984057041164192
 30
0.0
 40
0.2484481650798898
 50
240.5779987086982032
 51
299.4220012913017968
  0
ARC
  5
193A8
  8
0
 10
4462.8394787606712271
 20
461.3069148617032056
 30
0.0
 40
0.2498862548283591
 50
242.0411754348340878
 51
297.9588245812128093
  0
ARC
  5
193A9
  8
0
 10
4462.8394787607212493
 20
461.273744721930882
 30
0.0
 40
0.1959484183279943
 50
240.3324089014946878
 51
299.6675910985052838
  0
ARC
  5
193AA
  8
0
 10
4462.8394787607212493
 20
461.2490833179487026
 30
0.0
 40
0.1434480060911861
 50
239.9079015181241061
 51
300.0920984818760076
  0
ARC
  5
193AB
  8
0
 10
4462.8394787607212493
 20
461.2575967963720132
 30
0.0
 40
0.1448904167038863
 50
242.4367128712962938
 51
297.5632871287036778
  0
ARC
  5
193AC
  8
0
 10
4462.8394787607212493
 20
461.2244141108186
 30
0.0
 40
0.0909400099893868
 50
238.9946401047245956
 51
301.0053598952754896
  0
LINE
  5
193AD
  8
0
 10
4462.8690063197209383
 20
461.2030710739236952
 30
0.0
 11
4462.8690063197209383
 21
461.1613127994236834
 31
0.0
  0
ENDSEC
  0
EOF
