  0
SECTION
  2
HEADER
  9
$ACADVER
  1
AC1009
  9
$INSBASE
 10
3446.7123094255921387
 20
198.9227426317557956
 30
0.0
  9
$EXTMIN
 10
3443.1543846235749697
 20
197.3589217445154986
 30
-0.0000000349181948
  9
$EXTMAX
 10
3450.261483352192954
 20
202.2028044881137134
 30
0.0000000814935746
  9
$LIMMIN
 10
0.0
 20
0.0
  9
$LIMMAX
 10
11.6929133858000007
 20
8.2677165353999982
  9
$ORTHOMODE
 70
     1
  9
$REGENMODE
 70
     1
  9
$FILLMODE
 70
     1
  9
$QTEXTMODE
 70
     0
  9
$MIRRTEXT
 70
     0
  9
$DRAGMODE
 70
     2
  9
$LTSCALE
 40
0.6431102362
  9
$OSMODE
 70
  2047
  9
$ATTMODE
 70
     1
  9
$TEXTSIZE
 40
0.2
  9
$TRACEWID
 40
0.05
  9
$TEXTSTYLE
  7
STANDARD
  9
$CLAYER
  8
0
  9
$CELTYPE
  6
BYLAYER
  9
$CECOLOR
 62
   256
  9
$DIMSCALE
 40
1.0
  9
$DIMASZ
 40
0.1875
  9
$DIMEXO
 40
0.0625
  9
$DIMDLI
 40
0.4443307087
  9
$DIMRND
 40
0.0
  9
$DIMDLE
 40
0.0
  9
$DIMEXE
 40
0.125
  9
$DIMTP
 40
0.01
  9
$DIMTM
 40
0.01
  9
$DIMTXT
 40
2.0
  9
$DIMCEN
 40
0.1052362205
  9
$DIMTSZ
 40
0.0
  9
$DIMTOL
 70
     1
  9
$DIMLIM
 70
     0
  9
$DIMTIH
 70
     1
  9
$DIMTOH
 70
     1
  9
$DIMSE1
 70
     0
  9
$DIMSE2
 70
     0
  9
$DIMTAD
 70
     0
  9
$DIMZIN
 70
     0
  9
$DIMBLK
  1

  9
$DIMASO
 70
     1
  9
$DIMSHO
 70
     1
  9
$DIMPOST
  1
\X
  9
$DIMAPOST
  1

  9
$DIMALT
 70
     1
  9
$DIMALTD
 70
     2
  9
$DIMALTF
 40
25.3999999999999986
  9
$DIMLFAC
 40
1.0
  9
$DIMTOFL
 70
     0
  9
$DIMTVP
 40
0.0
  9
$DIMTIX
 70
     0
  9
$DIMSOXD
 70
     0
  9
$DIMSAH
 70
     0
  9
$DIMBLK1
  1

  9
$DIMBLK2
  1

  9
$DIMSTYLE
  2
STANDARD
  9
$DIMCLRD
 70
     0
  9
$DIMCLRE
 70
     0
  9
$DIMCLRT
 70
     0
  9
$DIMTFAC
 40
1.0
  9
$DIMGAP
 40
0.09
  9
$LUNITS
 70
     2
  9
$LUPREC
 70
     4
  9
$SKETCHINC
 40
0.1
  9
$FILLETRAD
 40
0.0
  9
$AUNITS
 70
     0
  9
$AUPREC
 70
     0
  9
$MENU
  1
.
  9
$ELEVATION
 40
0.0
  9
$PELEVATION
 40
0.0
  9
$THICKNESS
 40
0.0
  9
$LIMCHECK
 70
     0
  9
$BLIPMODE
 70
     0
  9
$CHAMFERA
 40
0.0
  9
$CHAMFERB
 40
0.0
  9
$SKPOLY
 70
     0
  9
$TDCREATE
 40
2458060.468368056230247
  9
$TDUPDATE
 40
2459040.3454282409511507
  9
$TDINDWG
 40
0.5121482639
  9
$TDUSRTIMER
 40
0.5121482639
  9
$USRTIMER
 70
     1
  9
$ANGBASE
 50
0.0
  9
$ANGDIR
 70
     0
  9
$PDMODE
 70
     0
  9
$PDSIZE
 40
0.3125
  9
$PLINEWID
 40
0.0
  9
$COORDS
 70
     1
  9
$SPLFRAME
 70
     0
  9
$SPLINETYPE
 70
     6
  9
$SPLINESEGS
 70
     8
  9
$ATTDIA
 70
     1
  9
$ATTREQ
 70
     1
  9
$HANDLING
 70
     1
  9
$HANDSEED
  5
A1A4
  9
$SURFTAB1
 70
     6
  9
$SURFTAB2
 70
     6
  9
$SURFTYPE
 70
     6
  9
$SURFU
 70
     6
  9
$SURFV
 70
     6
  9
$UCSNAME
  2

  9
$UCSORG
 10
0.0
 20
0.0
 30
0.0
  9
$UCSXDIR
 10
1.0
 20
0.0
 30
0.0
  9
$UCSYDIR
 10
0.0
 20
1.0
 30
0.0
  9
$PUCSNAME
  2

  9
$PUCSORG
 10
0.0
 20
0.0
 30
0.0
  9
$PUCSXDIR
 10
1.0
 20
0.0
 30
0.0
  9
$PUCSYDIR
 10
0.0
 20
1.0
 30
0.0
  9
$USERI1
 70
     0
  9
$USERI2
 70
     0
  9
$USERI3
 70
     0
  9
$USERI4
 70
     0
  9
$USERI5
 70
     0
  9
$USERR1
 40
0.0
  9
$USERR2
 40
0.0
  9
$USERR3
 40
0.0
  9
$USERR4
 40
0.0
  9
$USERR5
 40
0.0
  9
$WORLDVIEW
 70
     1
  9
$SHADEDGE
 70
     3
  9
$SHADEDIF
 70
    70
  9
$TILEMODE
 70
     1
  9
$MAXACTVP
 70
    64
  9
$PLIMCHECK
 70
     0
  9
$PEXTMIN
 10
1.0000000000000000E+20
 20
1.0000000000000000E+20
 30
1.0000000000000000E+20
  9
$PEXTMAX
 10
-1.0000000000000000E+20
 20
-1.0000000000000000E+20
 30
-1.0000000000000000E+20
  9
$PLIMMIN
 10
0.0
 20
0.0
  9
$PLIMMAX
 10
12.0
 20
9.0
  9
$UNITMODE
 70
     0
  9
$VISRETAIN
 70
     1
  9
$PLINEGEN
 70
     0
  9
$PSLTSCALE
 70
     1
  0
ENDSEC
  0
SECTION
  2
TABLES
  0
TABLE
  2
VPORT
 70
     1
  0
VPORT
  2
*ACTIVE
 70
     0
 10
0.0
 20
0.0
 11
1.0
 21
1.0
 12
143.0148187535087061
 22
4.5193515404268387
 13
0.0
 23
0.0
 14
1.0
 24
1.0
 15
0.0
 25
0.0
 16
0.0
 26
0.0
 36
96.5995694866707311
 17
3303.693115234375
 27
195.2615115758877096
 37
0.0
 40
4.8873256381595178
 41
2.8398203592814371
 42
50.0
 43
0.0
 44
0.0
 50
0.0
 51
0.0
 71
     0
 72
   100
 73
     1
 74
     1
 75
     0
 76
     0
 77
     0
 78
     0
  0
ENDTAB
  0
TABLE
  2
LTYPE
 70
     2
  0
LTYPE
  2
CONTINUOUS
 70
     0
  3
Solid line
 72
    65
 73
     0
 40
0.0
  0
LTYPE
  2
PHANTOM2
 70
     0
  3
___ _ _ ___ _ _ ___ _ _ ___ _ _
 72
    65
 73
     6
 40
1.25
 49
0.625
 49
-0.125
 49
0.125
 49
-0.125
 49
0.125
 49
-0.125
  0
ENDTAB
  0
TABLE
  2
LAYER
 70
     2
  0
LAYER
  2
0
 70
     0
 62
   255
  6
CONTINUOUS
  0
LAYER
  2
DEFPOINTS
 70
     0
 62
     7
  6
CONTINUOUS
  0
ENDTAB
  0
TABLE
  2
STYLE
 70
     1
  0
STYLE
  2
STANDARD
 70
     0
 40
0.0
 41
0.8
 50
0.0
 71
     0
 42
0.2
  3
txt
  4

  0
ENDTAB
  0
TABLE
  2
VIEW
 70
     0
  0
ENDTAB
  0
TABLE
  2
UCS
 70
     0
  0
ENDTAB
  0
TABLE
  2
APPID
 70
     9
  0
APPID
  2
ACAD
 70
     0
  0
APPID
  2
ACAD_MLEADERVER
 70
     0
  0
APPID
  2
ACAD_EXEMPT_FROM_CAD_STANDARDS
 70
     0
  0
APPID
  2
ACAD_NAV_VCDISPLAY
 70
     0
  0
APPID
  2
ACAECLAYERSTANDARD
 70
     0
  0
APPID
  2
ACCMTRANSPARENCY
 70
     0
  0
APPID
  2
ACAD_DSTYLE_DIMJAG
 70
     0
  0
APPID
  2
ACAD_DSTYLE_DIMTALN
 70
     0
  0
APPID
  2
ACDBATTR
 70
     0
  0
ENDTAB
  0
TABLE
  2
DIMSTYLE
 70
     1
  0
DIMSTYLE
  2
STANDARD
 70
     0
  3

  4

  5

  6

  7

 40
1.0
 41
0.1875
 42
0.0625
 43
0.38
 44
0.125
 45
0.0
 46
0.0
 47
0.01
 48
0.01
140
0.15625
141
0.09
142
0.0
143
25.3999999999999986
144
1.0
145
0.0
146
1.0
147
0.09
 71
     1
 72
     0
 73
     1
 74
     1
 75
     0
 76
     0
 77
     0
 78
     4
170
     0
171
     2
172
     0
173
     0
174
     0
175
     0
176
     0
177
     0
178
     0
  0
ENDTAB
  0
ENDSEC
  0
SECTION
  2
BLOCKS
  0
BLOCK
  8
0
  2
$MODEL_SPACE
 70
     0
 10
0.0
 20
0.0
 30
0.0
  3
$MODEL_SPACE
  1

  0
ENDBLK
  5
21
  8
0
  0
BLOCK
 67
     1
  8
0
  2
$PAPER_SPACE
 70
     0
 10
0.0
 20
0.0
 30
0.0
  3
$PAPER_SPACE
  1

  0
ENDBLK
  5
1D
 67
     1
  8
0
  0
ENDSEC
  0
SECTION
  2
ENTITIES
  0
ATTDEF
  5
3930
  8
DEFPOINTS
 10
3446.7134682532168881
 20
198.926123592200895
 30
0.0
 40
0.001
  1
K-28138T-DR
  3

  2
MODELNUMBER
 70
     0
1001
ACDBATTR
1070
     0
1070
     1
  0
ATTDEF
  5
3931
  8
DEFPOINTS
 10
3446.7134682532168881
 20
198.9244569255342014
 30
0.0
 40
0.001
  1
COMPONENTS
  3

  2
TRADENAME
 70
     0
1001
ACDBATTR
1070
     0
1070
     1
  0
ATTDEF
  5
3932
  8
DEFPOINTS
 10
3446.7134682532168881
 20
198.9227902588675079
 30
0.0
 40
0.001
  1
BATHROOM FAUCET VALVE
  3

  2
PRODUCT
 70
     0
1001
ACDBATTR
1070
     0
1070
     1
  0
LINE
  5
9DC7
  8
0
 10
3448.3186072613070792
 20
197.5211620904815959
 30
0.0
 11
3448.3166987975068878
 21
197.5211620904815959
 31
0.0
  0
LINE
  5
9DC8
  8
0
 10
3449.5784497810068387
 20
200.2219494919816043
 30
0.0
 11
3447.0587647416068648
 21
200.2219494919816043
 31
0.0
  0
ARC
  5
9DC9
  8
0
 10
3447.0587647416068648
 20
200.2416345313816066
 30
0.0
 40
0.0196850394000006
 50
180.0
 51
270.0
  0
LINE
  5
9DCA
  8
0
 10
3447.0390797022068909
 20
200.2416345313816066
 30
0.0
 11
3447.0390797022068909
 21
200.3400597281815863
 31
0.0
  0
ARC
  5
9DCB
  8
0
 10
3447.0587647416068648
 20
200.3400597281815863
 30
0.0
 40
0.0196850393999979
 50
90.0
 51
179.9999999999967031
  0
LINE
  5
9DCC
  8
0
 10
3449.6162289855069503
 20
200.3597447675815886
 30
0.0
 11
3447.0209855371072081
 21
200.3597447675815886
 31
0.0
  0
LINE
  5
9DCD
  8
0
 10
3447.0209855371072081
 20
200.3597447675815886
 30
0.0
 11
3447.019394662907871
 21
200.3754927990815986
 31
0.0
  0
LINE
  5
9DCE
  8
0
 10
3447.019394662907871
 20
200.3754927990815986
 30
0.0
 11
3447.019394662907871
 21
200.4974905071815954
 31
0.0
  0
ARC
  5
9DCF
  8
0
 10
3447.0981843575877974
 20
200.4974905071815954
 30
0.0
 40
0.0787896946808449
 50
90.009919706338664
 51
180.0
  0
LINE
  5
9DD0
  8
0
 10
3447.0981707166070009
 20
200.5762802006815946
 30
0.0
 11
3447.294985214101871
 21
200.5762871479782916
 31
0.0
  0
LINE
  5
9DD1
  8
0
 10
3447.1375048985169087
 20
200.5762870106690059
 30
0.0
 11
3447.1375048991071708
 21
200.6845476908812884
 31
0.0
  0
LINE
  5
9DD2
  8
0
 10
3447.1375048991071708
 20
200.6845476908812884
 30
0.0
 11
3447.1473476167070658
 21
200.694390436881605
 31
0.0
  0
LINE
  5
9DD3
  8
0
 10
3447.1473476167070658
 20
200.694390436881605
 30
0.0
 11
3447.2851425790067879
 21
200.694390436881605
 31
0.0
  0
LINE
  5
9DD4
  8
0
 10
3447.2851425790067879
 20
200.694390436881605
 30
0.0
 11
3447.2949851197067801
 21
200.6845477852816089
 31
0.0
  0
LINE
  5
9DD5
  8
0
 10
3447.2949851197067801
 20
200.6845477852816089
 30
0.0
 11
3447.2949852141068732
 21
200.5762801973816067
 31
0.0
  0
LINE
  5
9DD6
  8
0
 10
3447.2949852141068732
 20
200.5762801973816067
 30
0.0
 11
3447.6472300761770384
 21
200.5762866997943092
 31
0.0
  0
ARC
  5
9DD7
  8
0
 10
3447.647228697052924
 20
200.6509957641941924
 30
0.0
 40
0.074709064412584
 50
270.0010576756266119
 51
25.0101795018045614
  0
LINE
  5
9DD8
  8
0
 10
3447.7149324933070602
 20
200.6825812082817038
 30
0.0
 11
3447.5103137976070684
 21
201.121387312881609
 31
0.0
  0
ARC
  5
9DD9
  8
0
 10
3447.438965006735998
 20
201.0880993320195103
 30
0.0
 40
0.0787320749270269
 50
25.0113898981187717
 51
89.9544639888569151
  0
LINE
  5
9DDA
  8
0
 10
3447.4390275793070941
 20
201.1668313820815968
 30
0.0
 11
3444.9386868589472215
 21
201.1668313817814919
 31
0.0
  0
ARC
  5
9DDB
  8
0
 10
3444.9386902928081327
 20
201.0487168541814924
 30
0.0
 40
0.1181145276780878
 50
90.0020816523639553
 51
179.9979182991231141
  0
LINE
  5
9DDC
  8
0
 10
3444.8205757652071952
 20
201.0487211455815952
 30
0.0
 11
3444.8205757652071952
 21
199.9069888620815902
 31
0.0
  0
LINE
  5
9DDD
  8
0
 10
3444.9682002850067875
 20
199.9069888620815902
 30
0.0
 11
3443.6690142376069161
 21
199.9069888620815902
 31
0.0
  0
ARC
  5
9DDE
  8
0
 10
3443.6690142376069161
 20
199.8971330579286132
 30
0.0
 40
0.0098558041529344
 50
90.0
 51
179.9227720736963079
  0
ARC
  5
9DDF
  8
0
 10
3443.6689427996029735
 20
199.8774031406823042
 30
0.0
 40
0.00978453017086
 50
179.6593087107470978
 51
270.3405871952879238
  0
LINE
  5
9DE0
  8
0
 10
3443.6690009621079298
 20
199.8676187833816016
 30
0.0
 11
3444.968213560507138
 21
199.8676187833816016
 31
0.0
  0
LINE
  5
9DE1
  8
0
 10
3444.9050815373070691
 20
199.6510833502815956
 30
0.0
 11
3443.7321329853070893
 21
199.6510833502815956
 31
0.0
  0
ARC
  5
9DE2
  8
0
 10
3443.7321329853070893
 20
199.660925869981611
 30
0.0
 40
0.0098425196999994
 50
225.0000000012055921
 51
270.0
  0
LINE
  5
9DE3
  8
0
 10
3443.7251732728827847
 20
199.6539661575575906
 30
0.0
 11
3443.6915688086828595
 21
199.6875706217570894
 31
0.0
  0
ARC
  5
9DE4
  8
0
 10
3443.6985285211048904
 20
199.6945303341790066
 30
0.0
 40
0.0098425196971027
 50
179.9999999848309926
 51
225.0000000012055921
  0
LINE
  5
9DE5
  8
0
 10
3443.6886860014069498
 20
199.6945303341815929
 30
0.0
 11
3443.6886860014510603
 21
199.8577762636815862
 31
0.0
  0
ARC
  5
9DE6
  8
0
 10
3443.6788434817531197
 20
199.857776263684201
 30
0.0
 40
0.0098425196973913
 50
359.9999999848196239
 51
89.942432347613817
  0
LINE
  5
9DE7
  8
0
 10
3443.8166387574069631
 20
199.9069888620815902
 30
0.0
 11
3443.8166387574069631
 21
201.0585636750815866
 31
0.0
  0
ARC
  5
9DE8
  8
0
 10
3443.7378685650151056
 20
201.058533630312013
 30
0.0
 40
0.07877019809575
 50
0.0218039608814008
 51
89.9781532529349874
  0
LINE
  5
9DE9
  8
0
 10
3443.7378985999080214
 20
201.1373038226817016
 30
0.0
 11
3443.4524655290069859
 21
201.1373038226826111
 31
0.0
  0
LINE
  5
9DEA
  8
0
 10
3443.4524655290069859
 20
201.1373038226826111
 30
0.0
 11
3443.4524655290069859
 21
202.141249930781612
 31
0.0
  0
LINE
  5
9DEB
  8
0
 10
3443.7379014194780211
 20
202.1412408305816086
 30
0.0
 11
3443.4524652993959535
 21
202.1412408305816086
 31
0.0
  0
LINE
  5
9DEC
  8
0
 10
3443.4524655290069859
 20
202.1117132000815957
 30
0.0
 11
3443.4327804355070839
 21
202.1313982905815863
 31
0.0
  0
LINE
  5
9DED
  8
0
 10
3443.4327804355070839
 20
202.1313982905815863
 30
0.0
 11
3443.3934104736072186
 21
202.1313982897817141
 31
0.0
  0
LINE
  5
9DEE
  8
0
 10
3443.3934104736072186
 20
202.1313982897817141
 30
0.0
 11
3443.3737253715071347
 21
202.1117132113816979
 31
0.0
  0
LINE
  5
9DEF
  8
0
 10
3443.3737253715071347
 20
202.1117132113816979
 30
0.0
 11
3443.3737253715071347
 21
201.1668314419815999
 31
0.0
  0
LINE
  5
9DF0
  8
0
 10
3443.3737253715071347
 20
201.1668314419815999
 30
0.0
 11
3443.3934104736072186
 21
201.1471463635816121
 31
0.0
  0
LINE
  5
9DF1
  8
0
 10
3443.3934104736072186
 20
201.1471463635816121
 30
0.0
 11
3443.4327804152071622
 21
201.1471463423816033
 31
0.0
  0
LINE
  5
9DF2
  8
0
 10
3443.4327804152071622
 20
201.1471463423816033
 30
0.0
 11
3443.4524655290069859
 21
201.1668314531816009
 31
0.0
  0
ARC
  5
9DF3
  8
0
 10
3443.7377273047181916
 20
202.2202372099397962
 30
0.0
 40
0.078996571239891
 50
270.1262845821827909
 51
337.8503971040930196
  0
LINE
  5
9DF4
  8
0
 10
3443.8108941323071122
 20
202.1904534289816127
 30
0.0
 11
3444.8273320983589656
 21
202.1904539579630864
 31
0.0
  0
ARC
  5
9DF5
  8
0
 10
3444.9387070610928276
 20
202.2298529762967121
 30
0.0
 40
0.1181399161544304
 50
199.4812904925562975
 51
269.989688865405526
  0
LINE
  5
9DF6
  8
0
 10
3444.9386858002499139
 20
202.1117130620552871
 30
0.0
 11
3447.8033143682141599
 21
202.1117015352079136
 31
0.0
  0
ARC
  5
9DF7
  8
0
 10
3447.7972776748952128
 20
202.2329460876777887
 30
0.0
 40
0.121394424003246
 50
272.8473612113680815
 51
293.2952817692897725
  0
ARC
  5
9DF8
  8
0
 10
3448.0444067834100679
 20
201.6354516956909038
 30
0.0
 40
0.5252062041632221
 50
74.9344110570127384
 51
112.2797848099117033
  0
LINE
  5
9DF9
  8
0
 10
3448.1809208023069004
 20
202.1426059912816129
 30
0.0
 11
3449.2038408666398936
 21
202.1426060552427089
 31
0.0
  0
ARC
  5
9DFA
  8
0
 10
3449.203517892122818
 20
202.2054284358503082
 30
0.0
 40
0.0628230626885753
 50
270.2798601903169242
 51
346.2184045378372161
  0
LINE
  5
9DFB
  8
0
 10
3449.264532332329054
 20
202.1904626317642908
 30
0.0
 11
3449.9706906842070566
 21
202.1904534313815986
 31
0.0
  0
ARC
  5
9DFC
  8
0
 10
3450.0285233631648225
 20
202.201479670573292
 30
0.0
 40
0.0588744146993489
 50
190.7943270748324096
 51
269.6980258067807767
  0
LINE
  5
9DFD
  8
0
 10
3450.0282130703121766
 20
202.1426060735662986
 30
0.0
 11
3450.0508896776718757
 21
202.1426060735662986
 31
0.0
  0
LINE
  5
9DFE
  8
0
 10
3450.0508896776718757
 20
201.1359390251205923
 30
0.0
 11
3448.9561522351368694
 21
201.1359386327366963
 31
0.0
  0
ARC
  5
9DFF
  8
0
 10
3448.9563646997039541
 20
201.0572050754342115
 30
0.0
 40
0.0787338439725985
 50
90.1546137863340959
 51
180.0132012476283023
  0
LINE
  5
9E00
  8
0
 10
3448.8776308578221688
 20
201.0571869347444078
 30
0.0
 11
3448.8777244314569543
 21
200.6510606047392002
 31
0.0
  0
ARC
  5
9E01
  8
0
 10
3448.95252213174399
 20
200.651077838521303
 30
0.0
 40
0.0747977022737555
 50
180.0132012476283023
 51
269.9314498067371915
  0
LINE
  5
9E02
  8
0
 10
3447.0784497810068387
 20
200.2219494919816043
 30
0.0
 11
3447.0784497810068387
 21
200.0853353187816026
 31
0.0
  0
LINE
  5
9E03
  8
0
 10
3447.3540403321080703
 20
200.0853353187816026
 30
0.0
 11
3447.3540403321080703
 21
200.2219494919816043
 31
0.0
  0
ARC
  5
9E04
  8
0
 10
3447.0993159227068645
 20
200.0853353187816026
 30
0.0
 40
0.0208661417
 50
180.0000000000048885
 51
270.0
  0
LINE
  5
9E05
  8
0
 10
3447.0993159227068645
 20
200.0644691770816053
 30
0.0
 11
3447.333174190407135
 21
200.0644691770816053
 31
0.0
  0
ARC
  5
9E06
  8
0
 10
3447.333174190407135
 20
200.0853353188817039
 30
0.0
 40
0.0208661418000009
 50
270.0
 51
359.9999997253548258
  0
ARC
  5
9E07
  8
0
 10
3448.3186072749258528
 20
199.2973759945097072
 30
0.0
 40
1.9685038928222831
 50
281.3207523279104976
 51
293.7414716581016023
  0
ARC
  5
9E08
  8
0
 10
3449.1079773397350436
 20
197.5026714464626139
 30
0.0
 40
0.0078740159723036
 50
293.741466328450997
 51
359.9999994106872805
  0
LINE
  5
9E09
  8
0
 10
3449.1158513557079459
 20
197.502671446381612
 30
0.0
 11
3449.1158513558070808
 21
197.5211620904815959
 31
0.0
  0
LINE
  5
9E0A
  8
0
 10
3447.509672036766915
 20
197.5211620904802032
 30
0.0
 11
3449.1237253715071347
 21
197.5211620904815959
 31
0.0
  0
ARC
  5
9E0B
  8
0
 10
3449.1237253714389226
 20
197.5329731142502112
 30
0.0
 40
0.0118110237686207
 50
270.0000003328800062
 51
359.9999991820146761
  0
ARC
  5
9E0C
  8
0
 10
3449.1552214344351341
 20
200.2022644528535977
 30
0.0
 40
0.0196850392280421
 50
89.9999997905430149
 51
180.0000005005070989
  0
ARC
  5
9E0D
  8
0
 10
3449.5784497810068387
 20
200.2416345313816066
 30
0.0
 40
0.0196850394000006
 50
270.0
 51
0.0
  0
LINE
  5
9E0E
  8
0
 10
3449.5981348204068127
 20
200.2416345313816066
 30
0.0
 11
3449.5981348204068127
 21
200.3400597281815863
 31
0.0
  0
ARC
  5
9E0F
  8
0
 10
3449.5784497810068387
 20
200.3400597281815863
 30
0.0
 40
0.0196850393999979
 50
0.0000000000032569
 51
90.0
  0
LINE
  5
9E10
  8
0
 10
3449.6162289855069503
 20
200.3597447675815886
 30
0.0
 11
3449.6178198597071969
 21
200.3754927990815986
 31
0.0
  0
LINE
  5
9E11
  8
0
 10
3449.6178198597071969
 20
200.3754927990815986
 30
0.0
 11
3449.6178198597071969
 21
200.4974905071815954
 31
0.0
  0
ARC
  5
9E12
  8
0
 10
3449.5390301650259062
 20
200.4974905071815954
 30
0.0
 40
0.0787896946808449
 50
0.0
 51
89.9900802936613644
  0
LINE
  5
9E13
  8
0
 10
3449.5390438060071574
 20
200.5762802006815946
 30
0.0
 11
3449.3422293085068304
 21
200.5762801973816067
 31
0.0
  0
LINE
  5
9E14
  8
0
 10
3449.4997096240967949
 20
200.5762870106690059
 30
0.0
 11
3449.4997096235069876
 21
200.6845476908812884
 31
0.0
  0
LINE
  5
9E15
  8
0
 10
3449.4997096235069876
 20
200.6845476908812884
 30
0.0
 11
3449.4898669059070926
 21
200.694390436881605
 31
0.0
  0
LINE
  5
9E16
  8
0
 10
3449.4898669059070926
 20
200.694390436881605
 30
0.0
 11
3449.3520719436069157
 21
200.694390436881605
 31
0.0
  0
LINE
  5
9E17
  8
0
 10
3449.3520719436069157
 20
200.694390436881605
 30
0.0
 11
3449.3422294029069235
 21
200.6845477852816089
 31
0.0
  0
LINE
  5
9E18
  8
0
 10
3449.3422294029069235
 20
200.6845477852816089
 30
0.0
 11
3449.3422293085068304
 21
200.5762801973816067
 31
0.0
  0
LINE
  5
9E19
  8
0
 10
3449.3422293085068304
 20
200.5762801973816067
 30
0.0
 11
3448.9524326418068085
 21
200.5762801897816132
 31
0.0
  0
LINE
  5
9E1A
  8
0
 10
3449.5587647416068648
 20
200.2219494919816043
 30
0.0
 11
3449.5587647416068648
 21
200.0853353187816026
 31
0.0
  0
LINE
  5
9E1B
  8
0
 10
3449.2831741905069975
 20
200.0853353187816026
 30
0.0
 11
3449.2831741905069975
 21
200.2219494919816043
 31
0.0
  0
ARC
  5
9E1C
  8
0
 10
3449.5378985999068391
 20
200.0853353187816026
 30
0.0
 40
0.0208661417
 50
270.0
 51
359.9999999999951115
  0
LINE
  5
9E1D
  8
0
 10
3449.5378985999068391
 20
200.0644691770816053
 30
0.0
 11
3449.3040403322070233
 21
200.0644691770816053
 31
0.0
  0
ARC
  5
9E1E
  8
0
 10
3449.3040403322070233
 20
200.0853353188817039
 30
0.0
 40
0.0208661418000009
 50
180.0000002746452026
 51
270.0
  0
LINE
  5
9E1F
  8
0
 10
3448.1808119858069404
 20
200.2219494919816043
 30
0.0
 11
3448.1808119858069404
 21
200.0853353187816026
 31
0.0
  0
LINE
  5
9E20
  8
0
 10
3448.4564025369068077
 20
200.0853353187816026
 30
0.0
 11
3448.4564025369068077
 21
200.2219494919816043
 31
0.0
  0
ARC
  5
9E21
  8
0
 10
3448.2016781275069661
 20
200.0853353187816026
 30
0.0
 40
0.0208661417
 50
180.0000000000048885
 51
270.0
  0
LINE
  5
9E22
  8
0
 10
3448.2016781275069661
 20
200.0644691770816053
 30
0.0
 11
3448.4355363952067819
 21
200.0644691770816053
 31
0.0
  0
ARC
  5
9E23
  8
0
 10
3448.4355363952067819
 20
200.0853353188817039
 30
0.0
 40
0.0208661418000009
 50
270.0
 51
359.9999997253548258
  0
LINE
  5
9E24
  8
0
 10
3446.5459807820079732
 20
201.2786872251816135
 30
0.0
 11
3446.0912337914069212
 21
201.2786872251816135
 31
0.0
  0
ARC
  5
9E25
  8
0
 10
3446.2361736166471928
 20
201.5993489574690045
 30
0.0
 40
0.0002455145882622
 50
109.6412135598855002
 51
167.4859132167813129
  0
ARC
  5
9E26
  8
0
 10
3446.3197969479838321
 20
200.3086429453846051
 30
0.0
 40
1.2936481871620999
 50
86.4173945282507958
 51
93.7099307643820083
  0
ARC
  5
9E27
  8
0
 10
3446.4004479885870751
 20
201.5986174919025871
 30
0.0
 40
0.0011604976547346
 50
44.4303256814228575
 51
80.7855106563308567
  0
ARC
  5
9E28
  8
0
 10
3446.2361736166471928
 20
201.5995108191436884
 30
0.0
 40
0.0002455145882622
 50
192.5140867832186018
 51
250.3587864401143861
  0
ARC
  5
9E29
  8
0
 10
3446.3197969479838321
 20
202.8902168312280878
 30
0.0
 40
1.2936481871620999
 50
266.2900692356179775
 51
273.5826054717492184
  0
ARC
  5
9E2A
  8
0
 10
3446.4004479885870751
 20
201.6002422847101059
 30
0.0
 40
0.0011604976547346
 50
279.2144893436691859
 51
315.5696743185770856
  0
LINE
  5
9E2B
  8
0
 10
3444.5467185592638089
 20
201.9334248925356974
 30
0.0
 11
3444.0908569213070223
 21
201.9335958149484895
 31
0.0
  0
ARC
  5
9E2C
  8
0
 10
3444.0926094270757858
 20
202.0215633569264924
 30
0.0
 40
0.0879849971194357
 50
188.2701139263797927
 51
268.8586937765696234
  0
LINE
  5
9E2D
  8
0
 10
3444.0055393940069735
 20
202.0089076719816035
 30
0.0
 11
3444.0041133393710879
 21
202.0323143467018951
 31
0.0
  0
LINE
  5
9E2E
  8
0
 10
3444.0041133393710879
 20
202.0323143467018951
 30
0.0
 11
3444.0041133138079203
 21
202.1758610756816097
 31
0.0
  0
ARC
  5
9E2F
  8
0
 10
3444.0809830099501596
 20
202.1758610893714945
 30
0.0
 40
0.0768696961437819
 50
169.0570112299724883
 51
180.0000102039358865
  0
ARC
  5
9E30
  8
0
 10
3444.5523148422248596
 20
202.0094703582539921
 30
0.0
 40
0.0762511064791178
 50
265.7911174372109144
 51
304.019810295689922
  0
ARC
  5
9E31
  8
0
 10
3444.5468833539971456
 20
202.020836157815495
 30
0.0
 40
0.0887298256714899
 50
302.8205483078195925
 51
329.5060337435153883
  0
ARC
  5
9E32
  8
0
 10
3444.5663611279192082
 20
202.0107126884745981
 30
0.0
 40
0.0668191187250695
 50
328.5106834762588051
 51
2.7868571661567172
  0
LINE
  5
9E33
  8
0
 10
3444.633101220773824
 20
202.0139614779033934
 30
0.0
 11
3444.6331012198070312
 21
202.1758610678816126
 31
0.0
  0
ARC
  5
9E34
  8
0
 10
3444.5540948392072096
 20
202.1756563684816115
 30
0.0
 40
0.0790066455999856
 50
0.1483982832067241
 51
10.7946042527392301
  0
LINE
  5
9E35
  8
0
 10
3444.0520805690071029
 20
201.9739179959815942
 30
0.0
 11
3444.5851339536070554
 21
201.9739179959815942
 31
0.0
  0
ARC
  5
9E36
  8
0
 10
3444.5263524460669942
 20
202.0119678001763077
 30
0.0
 40
0.0700218053753152
 50
272.5737598597543183
 51
327.0846508073731798
  0
LINE
  5
9E37
  8
0
 10
3444.529496808706881
 20
201.9420166299815946
 30
0.0
 11
3444.1077177945080621
 21
201.9420166227816935
 31
0.0
  0
ARC
  5
9E38
  8
0
 10
3444.1108619424089738
 20
202.0119676593625115
 30
0.0
 40
0.0700216162512746
 50
212.9153121102993111
 51
267.4272483586811973
  0
LINE
  5
9E39
  8
0
 10
3446.0745532984069541
 20
201.3636817754816093
 30
0.0
 11
3446.5626611474071979
 21
201.3636817754816093
 31
0.0
  0
ARC
  5
9E3A
  8
0
 10
3446.4942219657291389
 20
201.3897805476435963
 30
0.0
 40
0.0732466210631603
 50
272.6100581334517869
 51
339.1260224953185229
  0
ARC
  5
9E3B
  8
0
 10
3446.3186072298740328
 20
208.9062822654522051
 30
0.0
 40
7.591781715194247
 50
268.6493242476931869
 51
271.3506769690011993
  0
ARC
  5
9E3C
  8
0
 10
3446.1429915668350077
 20
201.3897791795978947
 30
0.0
 40
0.0732452085455071
 50
200.8732535458441077
 51
267.3906601086993078
  0
LINE
  5
9E3D
  8
0
 10
3446.5459807344068395
 20
201.2972819009816021
 30
0.0
 11
3446.0912337936078984
 21
201.297281898781705
 31
0.0
  0
ARC
  5
9E3E
  8
0
 10
3446.0912337932732044
 20
201.3664237154690966
 30
0.0
 40
0.0691418166874858
 50
168.4733112307957867
 51
270.0000002772001721
  0
LINE
  5
9E3F
  8
0
 10
3446.023486447319101
 20
201.3802399353226065
 30
0.0
 11
3446.0283845698559162
 21
201.5420854714280097
 31
0.0
  0
ARC
  5
9E40
  8
0
 10
3446.1082153409261082
 20
201.540385054906011
 30
0.0
 40
0.0798488786768399
 50
90.1433753033529541
 51
178.7797692715832056
  0
LINE
  5
9E41
  8
0
 10
3446.1080155296072007
 20
201.6202336835816027
 30
0.0
 11
3446.529197681711139
 21
201.62023368048159
 31
0.0
  0
ARC
  5
9E42
  8
0
 10
3446.5290359226778492
 20
201.5404217834629037
 30
0.0
 40
0.0798120609414036
 50
1.1458083096905429
 51
89.8838757486721533
  0
LINE
  5
9E43
  8
0
 10
3446.6088320247281445
 20
201.5420177688573915
 30
0.0
 11
3446.6137332862072071
 21
201.380240371581607
 31
0.0
  0
ARC
  5
9E44
  8
0
 10
3446.5439225476629872
 20
201.3681089716997121
 30
0.0
 40
0.0708569691645215
 50
271.6645081561733832
 51
9.8581605594288622
  0
LINE
  5
9E45
  8
0
 10
3446.0912337936078984
 20
201.297281898781705
 30
0.0
 11
3446.0912337956069678
 21
201.2786872251816135
 31
0.0
  0
LINE
  5
9E46
  8
0
 10
3446.5459807907068353
 20
201.2972819009816021
 30
0.0
 11
3446.5459810216261758
 21
201.2786872251845125
 31
0.0
  0
LINE
  5
9E47
  8
0
 10
3448.1517286691068875
 20
201.1082382632816916
 30
0.0
 11
3448.3280414800069593
 21
200.694390436881605
 31
0.0
  0
LINE
  5
9E48
  8
0
 10
3448.3875047012070354
 20
200.694390436881605
 30
0.0
 11
3448.2497098214071229
 21
200.694390436881605
 31
0.0
  0
LINE
  5
9E49
  8
0
 10
3448.2497098214071229
 20
200.694390436881605
 30
0.0
 11
3448.2398671038067732
 21
200.6845477852816089
 31
0.0
  0
LINE
  5
9E4A
  8
0
 10
3448.2398671038067732
 20
200.6845477852816089
 30
0.0
 11
3448.3973474188069304
 21
200.6845477852816089
 31
0.0
  0
LINE
  5
9E4B
  8
0
 10
3448.3973474188069304
 20
200.6845477852816089
 30
0.0
 11
3448.3875047838068895
 21
200.6943903542816088
 31
0.0
  0
LINE
  5
9E4C
  8
0
 10
3448.2398671982068663
 20
200.6845477852816089
 30
0.0
 11
3448.2398671982068663
 21
200.5739845419952871
 31
0.0
  0
LINE
  5
9E4D
  8
0
 10
3448.3973474188069304
 20
200.6845477852816089
 30
0.0
 11
3448.3973474188069304
 21
200.5739845453637997
 31
0.0
  0
ARC
  5
9E4E
  8
0
 10
3448.3155446391560872
 20
202.4463991655966026
 30
0.0
 40
1.8734668783429509
 50
266.5309494329957261
 51
273.7033829584007094
  0
ARC
  5
9E4F
  8
0
 10
3448.4413345231128005
 20
200.5029896256112067
 30
0.0
 40
0.0740093692689359
 50
356.2513523540662845
 51
93.7033829584007947
  0
LINE
  5
9E50
  8
0
 10
3448.5151855468698159
 20
200.4981509243752953
 30
0.0
 11
3448.5151878784067776
 21
200.375754984533188
 31
0.0
  0
ARC
  5
9E51
  8
0
 10
3448.436344284507868
 20
200.3754925528816102
 30
0.0
 40
0.0788435939000376
 50
348.4785666350985025
 51
359.9999999999968168
  0
ARC
  5
9E52
  8
0
 10
3448.2008702381071998
 20
200.3754925528816102
 30
0.0
 40
0.0788435938999801
 50
179.9999999999984084
 51
191.5214333742977999
  0
LINE
  5
9E53
  8
0
 10
3448.122026644206926
 20
200.3754925528816102
 30
0.0
 11
3448.122026644206926
 21
200.4981509273235076
 31
0.0
  0
ARC
  5
9E54
  8
0
 10
3448.1999533532361966
 20
200.4984696967904085
 30
0.0
 40
0.0779273610103481
 50
88.3609220471490744
 51
180.2343746251565051
  0
ARC
  5
9E55
  8
0
 10
3448.8362190095758706
 20
201.9553127849711984
 30
0.0
 40
1.383920694015188
 50
269.109069918411592
 51
274.8167371966490009
  0
LINE
  5
9E56
  8
0
 10
3448.8147003759067957
 20
200.5715593980816038
 30
0.0
 11
3448.5919451682689214
 21
200.5715594474756074
 31
0.0
  0
ARC
  5
9E57
  8
0
 10
3448.5920716200071183
 20
200.6502904917896046
 30
0.0
 40
0.0787311458624118
 50
228.5131894896217091
 51
269.9079760122677953
  0
ARC
  5
9E58
  8
0
 10
3448.4879415125737978
 20
200.5322318159304871
 30
0.0
 40
0.0786885842794993
 50
48.6609773154372292
 51
83.3675444359418236
  0
ARC
  5
9E59
  8
0
 10
3448.4886429545140345
 20
200.5385306123837097
 30
0.0
 40
0.0723509326376798
 50
83.3431832262319432
 51
90.8034118533240644
  0
ARC
  5
9E5A
  8
0
 10
3448.4810066150421335
 20
199.7988916131189114
 30
0.0
 40
0.8120098198551552
 50
89.5327537590495837
 51
94.6178930328293575
  0
ARC
  5
9E5B
  8
0
 10
3448.3915707070200369
 20
200.6971550524685881
 30
0.0
 40
0.0920884394437207
 50
273.6103464154004996
 51
285.1460018967659948
  0
ARC
  5
9E5C
  8
0
 10
3448.0695364985699598
 20
209.2091981490723924
 30
0.0
 40
8.6120400165598205
 50
270.663763971278911
 51
271.1335563972809837
  0
ARC
  5
9E5D
  8
0
 10
3448.1702086027480618
 20
200.5196203956500938
 30
0.0
 40
0.0781208798408865
 50
90.663763971278911
 51
152.4383146567226106
  0
ARC
  5
9E5E
  8
0
 10
3448.0326402381710977
 20
200.5914223026190086
 30
0.0
 40
0.0770582707449307
 50
269.3335828252252213
 51
332.4383146567225822
  0
ARC
  5
9E5F
  8
0
 10
3449.4005002648109439
 20
202.0060189352905979
 30
0.0
 40
0.0678446316025595
 50
208.2392063483694074
 51
267.0932282468045855
  0
ARC
  5
9E60
  8
0
 10
3449.6178198597572191
 20
208.9719713576693891
 30
0.0
 40
7.0371732987452784
 50
268.2023044109997159
 51
271.7976955890002841
  0
ARC
  5
9E61
  8
0
 10
3449.8351395902691365
 20
202.0060162654264957
 30
0.0
 40
0.0678419582988373
 50
272.9067717531954145
 51
331.7621405221547093
  0
LINE
  5
9E62
  8
0
 10
3449.8949077457068597
 20
201.9739179959815942
 30
0.0
 11
3449.8591843434069233
 21
201.9739179959815942
 31
0.0
  0
ARC
  5
9E63
  8
0
 10
3449.8251577433070452
 20
202.1020758464414939
 30
0.0
 40
0.1325975782731477
 50
255.1314952846290112
 51
284.8685047153708751
  0
LINE
  5
9E64
  8
0
 10
3449.7911330004058073
 20
201.9739179959815942
 30
0.0
 11
3449.4445075353069114
 21
201.9739179959815942
 31
0.0
  0
ARC
  5
9E65
  8
0
 10
3449.4104818939072175
 20
202.1020728512635003
 30
0.0
 40
0.1325945804082549
 50
255.1313307777105877
 51
284.8686692222893839
  0
LINE
  5
9E66
  8
0
 10
3449.3764575523068743
 20
201.9739179959815942
 30
0.0
 11
3449.3407305088071553
 21
201.9739179959815942
 31
0.0
  0
LINE
  5
9E67
  8
0
 10
3449.2717463903932185
 20
202.1904534289816127
 30
0.0
 11
3449.2727126762088119
 21
202.1874468365448934
 31
0.0
  0
ARC
  5
9E68
  8
0
 10
3448.6856961469338785
 20
202.0951232509983981
 30
0.0
 40
0.5942323199640813
 50
3.362548429515996
 51
8.9380321468938302
  0
ARC
  5
9E69
  8
0
 10
3449.7871653215529477
 20
202.1235137766593084
 30
0.0
 40
0.5083009927709077
 50
179.2714143115474883
 51
193.4248278871683056
  0
ARC
  5
9E6A
  8
0
 10
3449.3545870437101257
 20
202.1351344315997949
 30
0.0
 40
0.6024122816060303
 50
347.5733784385157037
 51
359.2632580480013758
  0
ARC
  5
9E6B
  8
0
 10
3450.4834561251091145
 20
202.0982838104108907
 30
0.0
 40
0.527310424019598
 50
170.2221370656623094
 51
176.8359761571473996
  0
ARC
  5
9E6C
  8
0
 10
3517.2332802533069298
 20
177.6632946832795028
 30
0.0
 40
71.6005262337748434
 50
159.9673504126340902
 51
159.9695795083875112
  0
ARC
  5
9E6D
  8
0
 10
3449.8640306284892176
 20
202.0056647699886128
 30
0.0
 40
0.078855790865651
 50
270.2603103236534139
 51
359.8816424983727984
  0
LINE
  5
9E6E
  8
0
 10
3449.8643888905808126
 20
201.9268097929655141
 30
0.0
 11
3449.3712508557027832
 21
201.9268097928919019
 31
0.0
  0
ARC
  5
9E6F
  8
0
 10
3449.3716777707509209
 20
202.0058626458547053
 30
0.0
 40
0.079054005486552
 50
180.3090440127014062
 51
269.6906136330430854
  0
ARC
  5
9E70
  8
0
 10
3443.6895934083540851
 20
199.8592009844585959
 30
0.0
 40
0.0084597007949879
 50
16.0263119427531286
 51
95.7050080746144403
  0
ARC
  5
9E71
  8
0
 10
3443.6883584762967985
 20
199.8577500260365127
 30
0.0
 40
0.0101023107817655
 50
0.1488083329838203
 51
22.0129071347483816
  0
ARC
  5
9E72
  8
0
 10
3443.8313332107741189
 20
199.8772151278280944
 30
0.0
 40
0.225895638746278
 50
233.9704184970462109
 51
253.2307050393723102
  0
LINE
  5
9E73
  8
0
 10
3443.6984607488598158
 20
199.6945302941136902
 30
0.0
 11
3443.698460753506879
 21
199.8577762636815862
 31
0.0
  0
LINE
  5
9E74
  8
0
 10
3443.7661580893068276
 20
199.6609258697816074
 30
0.0
 11
3443.8481927608067963
 21
199.660924992581613
 31
0.0
  0
ARC
  5
9E75
  8
0
 10
3443.7830281746960281
 20
199.877184147647398
 30
0.0
 40
0.2258637762743539
 50
286.7689392948466889
 51
306.0318481256928749
  0
LINE
  5
9E76
  8
0
 10
3443.9158891209071953
 20
199.6945303373815932
 30
0.0
 11
3444.1011788977070864
 21
199.6945303437780126
 31
0.0
  0
ARC
  5
9E77
  8
0
 10
3444.3379479706568418
 20
200.3589296256637908
 30
0.0
 40
0.7053268834805154
 50
250.385679894138292
 51
261.7364398167360946
  0
LINE
  5
9E78
  8
0
 10
3444.2365735675080032
 20
199.660925869981611
 30
0.0
 11
3444.4006409551079742
 21
199.660925869981611
 31
0.0
  0
LINE
  5
9E79
  8
0
 10
3444.1011788704981882
 20
199.6945303437780126
 30
0.0
 11
3444.1011788704981882
 21
199.8676187833816016
 31
0.0
  0
LINE
  5
9E7A
  8
0
 10
3443.9158891222068632
 20
199.6945303383272119
 30
0.0
 11
3443.9158891222068632
 21
199.8577762636815862
 31
0.0
  0
ARC
  5
9E7B
  8
0
 10
3443.9066116248309299
 20
199.8583539198008054
 30
0.0
 40
0.0092954636333469
 50
356.4371225701166281
 51
85.3496847078414476
  0
ARC
  5
9E7C
  8
0
 10
3448.7034807806398931
 20
197.3748975689696863
 30
0.0
 40
0.0078787599019279
 50
269.8039689706980084
 51
281.3190425686257754
  0
ARC
  5
9E7D
  8
0
 10
3448.3044393655818567
 20
224.7836039023517003
 30
0.0
 40
27.3610144318925208
 50
270.0256720646617055
 51
270.8096203841561191
  0
ARC
  5
9E7E
  8
0
 10
3448.7226622777779994
 20
196.4100443498631989
 30
0.0
 40
1.0157686463967961
 50
85.6753537419417484
 51
91.7832824233993563
  0
LINE
  5
9E7F
  8
0
 10
3447.1375048991071708
 20
200.6845476908812884
 30
0.0
 11
3447.2949851197067801
 21
200.6845476908812884
 31
0.0
  0
LINE
  5
9E80
  8
0
 10
3448.2398671982068663
 20
200.6845476908812884
 30
0.0
 11
3448.3973474188069304
 21
200.6845476908812884
 31
0.0
  0
LINE
  5
9E81
  8
0
 10
3449.3422293085068304
 20
200.6845476908812884
 30
0.0
 11
3449.499709623607032
 21
200.6845476908812884
 31
0.0
  0
LINE
  5
9E82
  8
0
 10
3443.3934104736072186
 20
202.1313982897817141
 30
0.0
 11
3443.3934104736072186
 21
201.1471463635816121
 31
0.0
  0
LINE
  5
9E83
  8
0
 10
3443.4327804355070839
 20
202.1313982905815863
 30
0.0
 11
3443.4327804355070839
 21
201.1471463626816103
 31
0.0
  0
ARC
  5
9E84
  8
0
 10
3447.6562508060660548
 20
201.540711447008988
 30
0.0
 40
0.6605951708443762
 50
327.929010499086985
 51
58.8793439587896472
  0
ARC
  5
9E85
  8
0
 10
3448.0451785210598246
 20
207.3058330722903975
 30
0.0
 40
5.1998157754706771
 50
267.3207110744752981
 51
269.4765508921258856
  0
ARC
  5
9E86
  8
0
 10
3447.9937090260068544
 20
202.2548542759816996
 30
0.0
 40
0.1486728637999971
 50
271.5282594903719087
 51
299.5897024102598039
  0
ARC
  5
9E87
  8
0
 10
3448.1437942697170911
 20
201.9905458727403129
 30
0.0
 40
0.1552753429774227
 50
104.3658641706035013
 51
119.5897024102597044
  0
ARC
  5
9E88
  8
0
 10
3448.3225459785539897
 20
193.8640750486428033
 30
0.0
 40
8.2797422821471667
 50
90.9800933822707663
 51
91.5037319888146641
  0
ARC
  5
9E89
  8
0
 10
3447.8342924850298914
 20
201.2158662479139934
 30
0.0
 40
0.3374172664562167
 50
163.2782739387409094
 51
196.3202588364096925
  0
ARC
  5
9E8A
  8
0
 10
3448.1878607211788221
 20
201.1771200230697048
 30
0.0
 40
0.6902143575689733
 50
151.3789217141147958
 51
168.650531002161614
  0
ARC
  5
9E8B
  8
0
 10
3447.6563267559781707
 20
201.4522604424797123
 30
0.0
 40
0.0927624705081372
 50
61.8742439622034794
 51
143.2650916429529104
  0
ARC
  5
9E8C
  8
0
 10
3448.2712742592811992
 20
201.080325801937505
 30
0.0
 40
0.1227609612550605
 50
116.7430048998999013
 51
166.857573581233396
  0
ARC
  5
9E8D
  8
0
 10
3446.6217262837299131
 20
199.2895626399026128
 30
0.0
 40
2.4901011095017069
 50
55.8549552228595303
 51
64.3389477263826706
  0
ARC
  5
9E8E
  8
0
 10
3446.0456304775511853
 20
198.7309633538706919
 30
0.0
 40
3.2798307934286131
 50
48.5671166579816784
 51
53.0019078371600969
  0
ARC
  5
9E8F
  8
0
 10
3448.3071431898620176
 20
201.3330194709973
 30
0.0
 40
0.1696196363161396
 50
237.5075733797928024
 51
271.9213548986995193
  0
LINE
  5
9E90
  8
0
 10
3448.312830143507199
 20
201.1634951966815947
 30
0.0
 11
3448.8146794164590574
 21
201.1634951968183884
 31
0.0
  0
ARC
  5
9E91
  8
0
 10
3448.8035399247050918
 20
200.7293737081537017
 30
0.0
 40
0.4342643839839306
 50
69.425366947335732
 51
88.5301215079474701
  0
LINE
  5
9E92
  8
0
 10
3448.0326402381710977
 20
200.514364031874095
 30
0.0
 11
3447.7155087875071331
 21
200.681314600881592
 31
0.0
  0
LINE
  5
9E93
  8
0
 10
3443.659158442406806
 20
199.8971463423810064
 30
0.0
 11
3443.659158442406806
 21
199.8773449604011887
 31
0.0
  0
ARC
  5
9E94
  8
0
 10
3444.9682002850067875
 20
199.8971330579286132
 30
0.0
 40
0.0098558041529344
 50
0.0772279263036472
 51
90.0
  0
ARC
  5
9E95
  8
0
 10
3444.9682717230130038
 20
199.8774031406823042
 30
0.0
 40
0.00978453017086
 50
269.6594128047120762
 51
0.3406912892528802
  0
ARC
  5
9E96
  8
0
 10
3444.9050815373070691
 20
199.660925869981611
 30
0.0
 40
0.0098425196999994
 50
270.0
 51
314.9999999987944079
  0
LINE
  5
9E97
  8
0
 10
3444.9120412497309189
 20
199.6539661575575906
 30
0.0
 11
3444.9456457139308441
 21
199.6875706217570894
 31
0.0
  0
ARC
  5
9E98
  8
0
 10
3444.9386860015101774
 20
199.6945303341790066
 30
0.0
 40
0.0098425196971027
 50
314.9999999987944079
 51
0.0000000151689558
  0
LINE
  5
9E99
  8
0
 10
3444.9485285212072085
 20
199.6945303341815929
 30
0.0
 11
3444.9485285211640075
 21
199.8577762636815862
 31
0.0
  0
ARC
  5
9E9A
  8
0
 10
3444.9583710408610386
 20
199.857776263684201
 30
0.0
 40
0.0098425196973913
 50
90.057567652386183
 51
180.0000000151802908
  0
ARC
  5
9E9B
  8
0
 10
3444.9476211142600732
 20
199.8592009844585959
 30
0.0
 40
0.0084597007949879
 50
84.2949919253855455
 51
163.9736880572469033
  0
ARC
  5
9E9C
  8
0
 10
3444.9488560463169051
 20
199.8577500260365127
 30
0.0
 40
0.0101023107817655
 50
157.9870928652516113
 51
179.8511916670161952
  0
ARC
  5
9E9D
  8
0
 10
3444.8058813118400394
 20
199.8772151278280944
 30
0.0
 40
0.225895638746278
 50
286.7692949606276898
 51
306.0295815029538176
  0
LINE
  5
9E9E
  8
0
 10
3444.9387537737547973
 20
199.6945302941136902
 30
0.0
 11
3444.9387537691068246
 21
199.8577762636815862
 31
0.0
  0
LINE
  5
9E9F
  8
0
 10
3444.871056433306876
 20
199.6609258697816074
 30
0.0
 11
3444.7890217618069073
 21
199.660924992581613
 31
0.0
  0
ARC
  5
9EA0
  8
0
 10
3444.8541863479190397
 20
199.877184147647398
 30
0.0
 40
0.2258637762743539
 50
233.9681518743072104
 51
253.2310607051533111
  0
LINE
  5
9EA1
  8
0
 10
3444.721325401706963
 20
199.6945303373815932
 30
0.0
 11
3444.5360356249070719
 21
199.6945303437780126
 31
0.0
  0
ARC
  5
9EA2
  8
0
 10
3444.299266551958226
 20
200.3589296256637908
 30
0.0
 40
0.7053268834805154
 50
278.2635601832639054
 51
289.6143201058616796
  0
LINE
  5
9EA3
  8
0
 10
3444.5360356521168796
 20
199.6945303437780126
 30
0.0
 11
3444.5360356521168796
 21
199.8676187833816016
 31
0.0
  0
LINE
  5
9EA4
  8
0
 10
3444.7213254004068403
 20
199.6945303383272119
 30
0.0
 11
3444.7213254004068403
 21
199.8577762636815862
 31
0.0
  0
ARC
  5
9EA5
  8
0
 10
3444.7306028977827737
 20
199.8583539198008054
 30
0.0
 40
0.0092954636333469
 50
94.6503152921585382
 51
183.5628774298834003
  0
LINE
  5
9EA6
  8
0
 10
3444.9780560802068976
 20
199.8971463423810064
 30
0.0
 11
3444.9780560802068976
 21
199.8773449604011887
 31
0.0
  0
LINE
  5
9EA7
  8
0
 10
3448.3147903337071511
 20
197.5211620904815959
 30
0.0
 11
3448.3166987975068878
 21
197.5211620904815959
 31
0.0
  0
ARC
  5
9EA8
  8
0
 10
3448.3147903200879227
 20
199.2973759945097072
 30
0.0
 40
1.9685038928222831
 50
246.2585283418983977
 51
258.6792476720893887
  0
ARC
  5
9EA9
  8
0
 10
3447.5254202552791867
 20
197.5026714464626139
 30
0.0
 40
0.0078740159723036
 50
180.0000005893110142
 51
246.2585336715488893
  0
LINE
  5
9EAA
  8
0
 10
3447.5175462393071939
 20
197.502671446381612
 30
0.0
 11
3447.517546239208059
 21
197.5211620904815959
 31
0.0
  0
ARC
  5
9EAB
  8
0
 10
3447.509672036766915
 20
197.5329726632508027
 30
0.0
 40
0.0118105727706938
 50
179.9978129171526859
 51
270.0009059193673124
  0
LINE
  5
9EAC
  8
0
 10
3447.4978614640040178
 20
197.5329731140816136
 30
0.0
 11
3447.4978614640040178
 21
200.2022644526815895
 31
0.0
  0
ARC
  5
9EAD
  8
0
 10
3447.4781759739289555
 20
200.2022640019021082
 30
0.0
 40
0.0196854900804242
 50
0.0013120204235476
 51
89.9994569549638186
  0
LINE
  5
9EAE
  8
0
 10
3447.350223404506778
 20
200.0853353187816026
 30
0.0
 11
3447.350223404506778
 21
200.2219494919816043
 31
0.0
  0
ARC
  5
9EAF
  8
0
 10
3447.329357262807207
 20
200.0853353188817039
 30
0.0
 40
0.0208661418000009
 50
270.0
 51
359.9999997253548258
  0
ARC
  5
9EB0
  8
0
 10
3447.929916814372973
 20
197.3748975689696863
 30
0.0
 40
0.0078787599019279
 50
258.6809574313742246
 51
270.1960310293019916
  0
ARC
  5
9EB1
  8
0
 10
3448.3289582294319189
 20
224.7836039023517003
 30
0.0
 40
27.3610144318925208
 50
269.1903796158438809
 51
269.9743279353381809
  0
ARC
  5
9EB2
  8
0
 10
3447.9107353172371404
 20
196.4100443498631989
 30
0.0
 40
1.0157686463967961
 50
88.2167175766006579
 51
94.3246462580582659
  0
ARC
  5
9EB3
  8
0
 10
3448.7892437314958443
 20
197.3498437302015134
 30
0.0
 40
0.073760267456787
 50
65.7889791643303994
 51
82.1961789015989694
  0
ARC
  5
9EB4
  8
0
 10
3448.8171568056350225
 20
197.4166677476671907
 30
0.0
 40
0.0023785487133023
 50
324.285841111625075
 51
10.8660148901076496
  0
ARC
  5
9EB5
  8
0
 10
3448.6560466612668279
 20
197.6993478670665922
 30
0.0
 40
0.3275323633412857
 50
276.9274610835406065
 51
299.8537026300771231
  0
LINE
  5
9EB6
  8
0
 10
3448.6955512043068666
 20
197.3742066052816142
 30
0.0
 11
3447.9415626078080095
 21
197.373466062181592
 31
0.0
  0
ARC
  5
9EB7
  8
0
 10
3448.0171875428118256
 20
197.8356835499550925
 30
0.0
 40
0.4683632130798867
 50
245.9061279471802948
 51
260.7079852857266928
  0
ARC
  5
9EB8
  8
0
 10
3447.832947558350952
 20
197.4236916954268963
 30
0.0
 40
0.0170521672683696
 50
212.6260541352291114
 51
245.9061279471802948
  0
ARC
  5
9EB9
  8
0
 10
3447.8206498788349563
 20
197.4158191196960956
 30
0.0
 40
0.0024504423666498
 50
119.5256300879960065
 51
212.6260541352637006
  0
ARC
  5
9EBA
  8
0
 10
3447.8397635689698291
 20
197.3820710198791062
 30
0.0
 40
0.0412353284926455
 50
97.840280207571638
 51
119.5256300879960065
  0
LINE
  5
9EBB
  8
0
 10
3449.1355363952070547
 20
200.2022644528535977
 30
0.0
 11
3449.1355363952070547
 21
197.5329731096709054
 31
0.0
  0
LINE
  5
9EBC
  8
0
 10
3450.0508896776718757
 20
202.1426060735662986
 30
0.0
 11
3450.0508896776718757
 21
201.1359390251205923
 31
0.0
  0
LINE
  5
9EBD
  8
0
 10
3447.929943770607224
 20
197.3670188551816125
 30
0.0
 11
3448.703507736874144
 21
197.3670188551816125
 31
0.0
  0
ENDSEC
  0
EOF
