  0
SECTION
  2
HEADER
  9
$ACADVER
  1
AC1009
  9
$INSBASE
 10
484.1764766559271038
 20
79.4411433491675183
 30
0.0
  9
$EXTMIN
 10
481.6123021811126819
 20
79.1875362973622714
 30
-0.0000000000112498
  9
$EXTMAX
 10
486.7371799779276103
 20
79.4421078348310346
 30
0.0000000000002956
  9
$LIMMIN
 10
0.0
 20
0.0
  9
$LIMMAX
 10
11.6929133858000007
 20
8.2677165353999982
  9
$ORTHOMODE
 70
     0
  9
$REGENMODE
 70
     1
  9
$FILLMODE
 70
     1
  9
$QTEXTMODE
 70
     0
  9
$MIRRTEXT
 70
     0
  9
$DRAGMODE
 70
     2
  9
$LTSCALE
 40
0.6431102362
  9
$OSMODE
 70
  4095
  9
$ATTMODE
 70
     1
  9
$TEXTSIZE
 40
0.2
  9
$TRACEWID
 40
0.05
  9
$TEXTSTYLE
  7
STANDARD
  9
$CLAYER
  8
0
  9
$CELTYPE
  6
BYLAYER
  9
$CECOLOR
 62
   256
  9
$DIMSCALE
 40
1.0
  9
$DIMASZ
 40
0.1875
  9
$DIMEXO
 40
0.0625
  9
$DIMDLI
 40
0.4443307087
  9
$DIMRND
 40
0.0
  9
$DIMDLE
 40
0.0
  9
$DIMEXE
 40
0.125
  9
$DIMTP
 40
0.01
  9
$DIMTM
 40
0.01
  9
$DIMTXT
 40
1.0
  9
$DIMCEN
 40
0.1052362205
  9
$DIMTSZ
 40
0.0
  9
$DIMTOL
 70
     1
  9
$DIMLIM
 70
     0
  9
$DIMTIH
 70
     0
  9
$DIMTOH
 70
     1
  9
$DIMSE1
 70
     0
  9
$DIMSE2
 70
     0
  9
$DIMTAD
 70
     0
  9
$DIMZIN
 70
     0
  9
$DIMBLK
  1

  9
$DIMASO
 70
     1
  9
$DIMSHO
 70
     1
  9
$DIMPOST
  1
\X
  9
$DIMAPOST
  1

  9
$DIMALT
 70
     1
  9
$DIMALTD
 70
     2
  9
$DIMALTF
 40
25.3999999999999986
  9
$DIMLFAC
 40
1.0
  9
$DIMTOFL
 70
     0
  9
$DIMTVP
 40
0.0
  9
$DIMTIX
 70
     0
  9
$DIMSOXD
 70
     0
  9
$DIMSAH
 70
     0
  9
$DIMBLK1
  1

  9
$DIMBLK2
  1

  9
$DIMSTYLE
  2
STANDARD
  9
$DIMCLRD
 70
     0
  9
$DIMCLRE
 70
     0
  9
$DIMCLRT
 70
     0
  9
$DIMTFAC
 40
1.0
  9
$DIMGAP
 40
0.09
  9
$LUNITS
 70
     2
  9
$LUPREC
 70
     4
  9
$SKETCHINC
 40
0.1
  9
$FILLETRAD
 40
0.0
  9
$AUNITS
 70
     0
  9
$AUPREC
 70
     0
  9
$MENU
  1
.
  9
$ELEVATION
 40
0.0
  9
$PELEVATION
 40
0.0
  9
$THICKNESS
 40
0.0
  9
$LIMCHECK
 70
     0
  9
$BLIPMODE
 70
     0
  9
$CHAMFERA
 40
0.0
  9
$CHAMFERB
 40
0.0
  9
$SKPOLY
 70
     0
  9
$TDCREATE
 40
2458172.5207638889551163
  9
$TDUPDATE
 40
2460448.5904398150742054
  9
$TDINDWG
 40
0.3183340509
  9
$TDUSRTIMER
 40
0.3183340509
  9
$USRTIMER
 70
     1
  9
$ANGBASE
 50
0.0
  9
$ANGDIR
 70
     0
  9
$PDMODE
 70
     0
  9
$PDSIZE
 40
0.3125
  9
$PLINEWID
 40
0.0
  9
$COORDS
 70
     1
  9
$SPLFRAME
 70
     0
  9
$SPLINETYPE
 70
     6
  9
$SPLINESEGS
 70
     8
  9
$ATTDIA
 70
     1
  9
$ATTREQ
 70
     1
  9
$HANDLING
 70
     1
  9
$HANDSEED
  5
8BAF
  9
$SURFTAB1
 70
     6
  9
$SURFTAB2
 70
     6
  9
$SURFTYPE
 70
     6
  9
$SURFU
 70
     6
  9
$SURFV
 70
     6
  9
$UCSNAME
  2

  9
$UCSORG
 10
0.0
 20
0.0
 30
0.0
  9
$UCSXDIR
 10
1.0
 20
0.0
 30
0.0
  9
$UCSYDIR
 10
0.0
 20
1.0
 30
0.0
  9
$PUCSNAME
  2

  9
$PUCSORG
 10
0.0
 20
0.0
 30
0.0
  9
$PUCSXDIR
 10
1.0
 20
0.0
 30
0.0
  9
$PUCSYDIR
 10
0.0
 20
1.0
 30
0.0
  9
$USERI1
 70
     0
  9
$USERI2
 70
     0
  9
$USERI3
 70
     0
  9
$USERI4
 70
     0
  9
$USERI5
 70
     0
  9
$USERR1
 40
0.0
  9
$USERR2
 40
0.0
  9
$USERR3
 40
0.0
  9
$USERR4
 40
0.0
  9
$USERR5
 40
0.0
  9
$WORLDVIEW
 70
     1
  9
$SHADEDGE
 70
     3
  9
$SHADEDIF
 70
    70
  9
$TILEMODE
 70
     1
  9
$MAXACTVP
 70
    64
  9
$PLIMCHECK
 70
     0
  9
$PEXTMIN
 10
1.0000000000000000E+20
 20
1.0000000000000000E+20
 30
1.0000000000000000E+20
  9
$PEXTMAX
 10
-1.0000000000000000E+20
 20
-1.0000000000000000E+20
 30
-1.0000000000000000E+20
  9
$PLIMMIN
 10
0.0
 20
0.0
  9
$PLIMMAX
 10
12.0
 20
9.0
  9
$UNITMODE
 70
     0
  9
$VISRETAIN
 70
     1
  9
$PLINEGEN
 70
     0
  9
$PSLTSCALE
 70
     1
  0
ENDSEC
  0
SECTION
  2
TABLES
  0
TABLE
  2
VPORT
 70
     1
  0
VPORT
  2
*ACTIVE
 70
     0
 10
0.0
 20
0.0
 11
1.0
 21
1.0
 12
8.5006230375279301
 22
-4.5684939739424086
 13
0.0
 23
0.0
 14
1.0
 24
1.0
 15
0.0
 25
0.0
 16
0.0
 26
0.0
 36
23.3682914422517385
 17
475.6741180419920738
 27
83.8833160400390767
 37
0.0
 40
2.3823725921589931
 41
2.1579545454545448
 42
50.0
 43
0.0
 44
0.0
 50
0.0
 51
0.0
 71
     0
 72
   100
 73
     1
 74
     1
 75
     0
 76
     0
 77
     0
 78
     0
  0
ENDTAB
  0
TABLE
  2
LTYPE
 70
     2
  0
LTYPE
  2
CONTINUOUS
 70
     0
  3
Solid line
 72
    65
 73
     0
 40
0.0
  0
LTYPE
  2
PHANTOM2
 70
     0
  3
___ _ _ ___ _ _ ___ _ _ ___ _ _
 72
    65
 73
     6
 40
1.25
 49
0.625
 49
-0.125
 49
0.125
 49
-0.125
 49
0.125
 49
-0.125
  0
ENDTAB
  0
TABLE
  2
LAYER
 70
     4
  0
LAYER
  2
0
 70
     0
 62
   255
  6
CONTINUOUS
  0
LAYER
  2
DEFPOINTS
 70
     0
 62
     7
  6
CONTINUOUS
  0
LAYER
  2
1032501_1
 70
     0
 62
     7
  6
CONTINUOUS
  0
LAYER
  2
1140679_1
 70
     0
 62
     7
  6
CONTINUOUS
  0
ENDTAB
  0
TABLE
  2
STYLE
 70
     1
  0
STYLE
  2
STANDARD
 70
     0
 40
0.0
 41
0.8
 50
0.0
 71
     0
 42
0.2
  3
txt
  4

  0
ENDTAB
  0
TABLE
  2
VIEW
 70
     0
  0
ENDTAB
  0
TABLE
  2
UCS
 70
     0
  0
ENDTAB
  0
TABLE
  2
APPID
 70
    10
  0
APPID
  2
ACAD
 70
     0
  0
APPID
  2
ACAD_MLEADERVER
 70
     0
  0
APPID
  2
ACAD_EXEMPT_FROM_CAD_STANDARDS
 70
     0
  0
APPID
  2
ACAD_DSTYLE_DIMJAG
 70
     0
  0
APPID
  2
ACAD_DSTYLE_DIMTALN
 70
     0
  0
APPID
  2
ACAD_NAV_VCDISPLAY
 70
     0
  0
APPID
  2
ACAECLAYERSTANDARD
 70
     0
  0
APPID
  2
ACCMTRANSPARENCY
 70
     0
  0
APPID
  2
DCO15
 70
     0
  0
APPID
  2
ACDBATTR
 70
     0
  0
ENDTAB
  0
TABLE
  2
DIMSTYLE
 70
     1
  0
DIMSTYLE
  2
STANDARD
 70
     0
  3

  4

  5

  6

  7

 40
1.0
 41
0.1875
 42
0.0625
 43
0.38
 44
0.125
 45
0.0
 46
0.0
 47
0.01
 48
0.01
140
0.15625
141
0.09
142
0.0
143
25.3999999999999986
144
1.0
145
0.0
146
1.0
147
0.09
 71
     1
 72
     0
 73
     1
 74
     1
 75
     0
 76
     0
 77
     0
 78
     4
170
     0
171
     2
172
     0
173
     0
174
     0
175
     0
176
     0
177
     0
178
     0
  0
ENDTAB
  0
ENDSEC
  0
SECTION
  2
BLOCKS
  0
BLOCK
  8
0
  2
$MODEL_SPACE
 70
     0
 10
0.0
 20
0.0
 30
0.0
  3
$MODEL_SPACE
  1

  0
ENDBLK
  5
21
  8
0
  0
BLOCK
 67
     1
  8
0
  2
$PAPER_SPACE
 70
     0
 10
0.0
 20
0.0
 30
0.0
  3
$PAPER_SPACE
  1

  0
ENDBLK
  5
1D
 67
     1
  8
0
  0
ENDSEC
  0
SECTION
  2
ENTITIES
  0
ATTDEF
  5
829
  8
DEFPOINTS
 10
484.1714508166376731
 20
79.4394962966933065
 30
0.0
 40
0.001
  1
K-2696T
  3

  2
MODELNUMBER
 70
     0
1001
ACDBATTR
1070
     0
1070
     1
  0
ATTDEF
  5
82A
  8
DEFPOINTS
 10
484.1714508166376731
 20
79.4378296300266413
 30
0.0
 40
0.001
  1
STILLNESS
  3

  2
TRADENAME
 70
     0
1001
ACDBATTR
1070
     0
1070
     1
  0
ATTDEF
  5
82B
  8
DEFPOINTS
 10
484.1714508166376731
 20
79.4361629633599762
 30
0.0
 40
0.001
  1
SLIDE BAR TRIM
  3

  2
PRODUCT
 70
     0
1001
ACDBATTR
1070
     0
1070
     1
  0
LINE
  5
8A95
  8
1140679_1
  6
CONTINUOUS
 62
     7
 10
481.625295321502108
 20
79.4061039790675238
 30
0.0
 11
481.625295321502108
 21
79.226182719267527
 31
0.0
  0
LINE
  5
8A96
  8
1140679_1
  6
CONTINUOUS
 62
     7
 10
483.8536417782020749
 20
79.4061039790675238
 30
0.0
 11
483.8536417782020749
 21
79.226182719267527
 31
0.0
  0
LINE
  5
8A97
  8
1140679_1
  6
CONTINUOUS
 62
     7
 10
481.6603351553021071
 20
79.1911433491675183
 30
0.0
 11
483.8186024081020946
 21
79.1911433491675183
 31
0.0
  0
LINE
  5
8A98
  8
1032501_1
  6
CONTINUOUS
 62
     7
 10
484.5334847624021108
 20
79.1911433491675183
 30
0.0
 11
486.6934842979021028
 21
79.1911433491675183
 31
0.0
  0
LINE
  5
8A99
  8
1032501_1
  6
CONTINUOUS
 62
     7
 10
486.6934765770021158
 20
79.4411433491675183
 30
0.0
 11
484.5334920188021215
 21
79.4411433491675183
 31
0.0
  0
LINE
  5
8A9A
  8
1140679_1
  6
CONTINUOUS
 62
     7
 10
483.8185946943020781
 20
79.4411433491675183
 30
0.0
 11
481.6603424054019911
 21
79.4411433491675183
 31
0.0
  0
LINE
  5
8A9B
  8
1032501_1
  6
CONTINUOUS
 62
     7
 10
484.4984842979019959
 20
79.4061433491675217
 30
0.0
 11
484.4984842979019959
 21
79.2261433491675291
 31
0.0
  0
LINE
  5
8A9C
  8
1032501_1
  6
CONTINUOUS
 62
     7
 10
486.7284842979021278
 20
79.4061433491675217
 30
0.0
 11
486.7284842979021278
 21
79.2261433491675291
 31
0.0
  0
ARC
  5
8A9D
  8
1140679_1
  6
CONTINUOUS
 62
     7
 10
481.6603346916019746
 20
79.226182719267527
 30
0.0
 40
0.0350393701
 50
180.0
 51
270.0
  0
ARC
  5
8A9E
  8
1140679_1
  6
CONTINUOUS
 62
     7
 10
483.8186024081020946
 20
79.226182719267527
 30
0.0
 40
0.0350393701
 50
270.0
 51
0.0
  0
ARC
  5
8A9F
  8
1140679_1
  6
CONTINUOUS
 62
     7
 10
483.8186024081020946
 20
79.4061039790675238
 30
0.0
 40
0.0350393701
 50
0.0
 51
89.9999861705012165
  0
ARC
  5
8AA0
  8
1140679_1
  6
CONTINUOUS
 62
     7
 10
481.6603346916019746
 20
79.4061039790675238
 30
0.0
 40
0.0350393701
 50
90.0000138294987693
 51
180.0
  0
ARC
  5
8AA1
  8
1032501_1
  6
CONTINUOUS
 62
     7
 10
484.5334842979020777
 20
79.2261433491675291
 30
0.0
 40
0.035
 50
180.0
 51
270.0
  0
ARC
  5
8AA2
  8
1032501_1
  6
CONTINUOUS
 62
     7
 10
486.6934842979021028
 20
79.2261433491675291
 30
0.0
 40
0.035
 50
270.0
 51
0.0
  0
ARC
  5
8AA3
  8
1032501_1
  6
CONTINUOUS
 62
     7
 10
484.5334842979020777
 20
79.4061433491675217
 30
0.0
 40
0.035
 50
90.0000141242015133
 51
180.0
  0
ARC
  5
8AA4
  8
1032501_1
  6
CONTINUOUS
 62
     7
 10
486.6934842979021028
 20
79.4061433491675217
 30
0.0
 40
0.035
 50
0.0
 51
89.9999858757984725
  0
ENDSEC
  0
EOF
