  0
SECTION
  2
HEADER
  9
$ACADVER
  1
AC1009
  9
$INSBASE
 10
-36442.7201526863209438
 20
-17309.8744923540289165
 30
0.0
  9
$EXTMIN
 10
-36450.7910188227033359
 20
-17313.5359096768406744
 30
0.0
  9
$EXTMAX
 10
-36434.6492865499312757
 20
-17306.6304436801583506
 30
0.0
  9
$LIMMIN
 10
0.0
 20
0.0
  9
$LIMMAX
 10
11.6929133858000007
 20
8.2677165353999982
  9
$ORTHOMODE
 70
     0
  9
$REGENMODE
 70
     1
  9
$FILLMODE
 70
     1
  9
$QTEXTMODE
 70
     0
  9
$MIRRTEXT
 70
     0
  9
$DRAGMODE
 70
     2
  9
$LTSCALE
 40
0.6431102362
  9
$OSMODE
 70
  4095
  9
$ATTMODE
 70
     1
  9
$TEXTSIZE
 40
0.2
  9
$TRACEWID
 40
0.05
  9
$TEXTSTYLE
  7
STANDARD
  9
$CLAYER
  8
0
  9
$CELTYPE
  6
BYLAYER
  9
$CECOLOR
 62
   256
  9
$DIMSCALE
 40
1.0
  9
$DIMASZ
 40
0.1875
  9
$DIMEXO
 40
0.0625
  9
$DIMDLI
 40
0.4443307087
  9
$DIMRND
 40
0.0
  9
$DIMDLE
 40
0.0
  9
$DIMEXE
 40
0.125
  9
$DIMTP
 40
0.01
  9
$DIMTM
 40
0.01
  9
$DIMTXT
 40
2.0
  9
$DIMCEN
 40
0.1052362205
  9
$DIMTSZ
 40
0.0
  9
$DIMTOL
 70
     1
  9
$DIMLIM
 70
     0
  9
$DIMTIH
 70
     1
  9
$DIMTOH
 70
     1
  9
$DIMSE1
 70
     0
  9
$DIMSE2
 70
     0
  9
$DIMTAD
 70
     0
  9
$DIMZIN
 70
     0
  9
$DIMBLK
  1

  9
$DIMASO
 70
     1
  9
$DIMSHO
 70
     1
  9
$DIMPOST
  1
\X
  9
$DIMAPOST
  1

  9
$DIMALT
 70
     1
  9
$DIMALTD
 70
     2
  9
$DIMALTF
 40
25.3999999999999986
  9
$DIMLFAC
 40
1.0
  9
$DIMTOFL
 70
     0
  9
$DIMTVP
 40
0.0
  9
$DIMTIX
 70
     0
  9
$DIMSOXD
 70
     0
  9
$DIMSAH
 70
     0
  9
$DIMBLK1
  1

  9
$DIMBLK2
  1

  9
$DIMSTYLE
  2
STANDARD
  9
$DIMCLRD
 70
     0
  9
$DIMCLRE
 70
     0
  9
$DIMCLRT
 70
     0
  9
$DIMTFAC
 40
1.0
  9
$DIMGAP
 40
0.09
  9
$LUNITS
 70
     2
  9
$LUPREC
 70
     4
  9
$SKETCHINC
 40
0.1
  9
$FILLETRAD
 40
0.0
  9
$AUNITS
 70
     0
  9
$AUPREC
 70
     0
  9
$MENU
  1
.
  9
$ELEVATION
 40
0.0
  9
$PELEVATION
 40
0.0
  9
$THICKNESS
 40
0.0
  9
$LIMCHECK
 70
     0
  9
$BLIPMODE
 70
     0
  9
$CHAMFERA
 40
0.0
  9
$CHAMFERB
 40
0.0
  9
$SKPOLY
 70
     0
  9
$TDCREATE
 40
2458060.468368056230247
  9
$TDUPDATE
 40
2459015.3770023151300848
  9
$TDINDWG
 40
0.3374144676
  9
$TDUSRTIMER
 40
0.3374144676
  9
$USRTIMER
 70
     1
  9
$ANGBASE
 50
0.0
  9
$ANGDIR
 70
     0
  9
$PDMODE
 70
     0
  9
$PDSIZE
 40
0.3125
  9
$PLINEWID
 40
0.0
  9
$COORDS
 70
     1
  9
$SPLFRAME
 70
     0
  9
$SPLINETYPE
 70
     6
  9
$SPLINESEGS
 70
     8
  9
$ATTDIA
 70
     1
  9
$ATTREQ
 70
     1
  9
$HANDLING
 70
     1
  9
$HANDSEED
  5
7EDA
  9
$SURFTAB1
 70
     6
  9
$SURFTAB2
 70
     6
  9
$SURFTYPE
 70
     6
  9
$SURFU
 70
     6
  9
$SURFV
 70
     6
  9
$UCSNAME
  2

  9
$UCSORG
 10
0.0
 20
0.0
 30
0.0
  9
$UCSXDIR
 10
1.0
 20
0.0
 30
0.0
  9
$UCSYDIR
 10
0.0
 20
1.0
 30
0.0
  9
$PUCSNAME
  2

  9
$PUCSORG
 10
0.0
 20
0.0
 30
0.0
  9
$PUCSXDIR
 10
1.0
 20
0.0
 30
0.0
  9
$PUCSYDIR
 10
0.0
 20
1.0
 30
0.0
  9
$USERI1
 70
     0
  9
$USERI2
 70
     0
  9
$USERI3
 70
     0
  9
$USERI4
 70
     0
  9
$USERI5
 70
     0
  9
$USERR1
 40
0.0
  9
$USERR2
 40
0.0
  9
$USERR3
 40
0.0
  9
$USERR4
 40
0.0
  9
$USERR5
 40
0.0
  9
$WORLDVIEW
 70
     1
  9
$SHADEDGE
 70
     3
  9
$SHADEDIF
 70
    70
  9
$TILEMODE
 70
     1
  9
$MAXACTVP
 70
    64
  9
$PLIMCHECK
 70
     0
  9
$PEXTMIN
 10
1.0000000000000000E+20
 20
1.0000000000000000E+20
 30
1.0000000000000000E+20
  9
$PEXTMAX
 10
-1.0000000000000000E+20
 20
-1.0000000000000000E+20
 30
-1.0000000000000000E+20
  9
$PLIMMIN
 10
0.0
 20
0.0
  9
$PLIMMAX
 10
12.0
 20
9.0
  9
$UNITMODE
 70
     0
  9
$VISRETAIN
 70
     1
  9
$PLINEGEN
 70
     0
  9
$PSLTSCALE
 70
     1
  0
ENDSEC
  0
SECTION
  2
TABLES
  0
TABLE
  2
VPORT
 70
     1
  0
VPORT
  2
*ACTIVE
 70
     0
 10
0.0
 20
0.0
 11
1.0
 21
1.0
 12
-40389.5615842054685345
 22
-17474.0042895757615042
 13
0.0
 23
0.0
 14
1.0
 24
1.0
 15
0.0
 25
0.0
 16
0.0
 26
0.0
 36
60.2538140246172205
 17
3914.8226318359379547
 27
119.2012214660643963
 37
0.0
 40
288.3541706866017194
 41
2.6486111111111108
 42
50.0
 43
0.0
 44
0.0
 50
0.0
 51
0.0
 71
     0
 72
   100
 73
     1
 74
     1
 75
     0
 76
     0
 77
     0
 78
     0
  0
ENDTAB
  0
TABLE
  2
LTYPE
 70
     2
  0
LTYPE
  2
CONTINUOUS
 70
     0
  3
Solid line
 72
    65
 73
     0
 40
0.0
  0
LTYPE
  2
PHANTOM2
 70
     0
  3
___ _ _ ___ _ _ ___ _ _ ___ _ _
 72
    65
 73
     6
 40
1.25
 49
0.625
 49
-0.125
 49
0.125
 49
-0.125
 49
0.125
 49
-0.125
  0
ENDTAB
  0
TABLE
  2
LAYER
 70
     2
  0
LAYER
  2
0
 70
     0
 62
   255
  6
CONTINUOUS
  0
LAYER
  2
DEFPOINTS
 70
     0
 62
     7
  6
CONTINUOUS
  0
ENDTAB
  0
TABLE
  2
STYLE
 70
     1
  0
STYLE
  2
STANDARD
 70
     0
 40
0.0
 41
0.8
 50
0.0
 71
     0
 42
0.2
  3
txt
  4

  0
ENDTAB
  0
TABLE
  2
VIEW
 70
     0
  0
ENDTAB
  0
TABLE
  2
UCS
 70
     0
  0
ENDTAB
  0
TABLE
  2
APPID
 70
    10
  0
APPID
  2
ACAD
 70
     0
  0
APPID
  2
ACAD_MLEADERVER
 70
     0
  0
APPID
  2
ACAD_EXEMPT_FROM_CAD_STANDARDS
 70
     0
  0
APPID
  2
ACAD_NAV_VCDISPLAY
 70
     0
  0
APPID
  2
ACAECLAYERSTANDARD
 70
     0
  0
APPID
  2
ACCMTRANSPARENCY
 70
     0
  0
APPID
  2
ACAD_DSTYLE_DIMJAG
 70
     0
  0
APPID
  2
ACAD_DSTYLE_DIMTALN
 70
     0
  0
APPID
  2
ACDBATTR
 70
     0
  0
APPID
  2
ACADANNOTATIVE
 70
     0
  0
ENDTAB
  0
TABLE
  2
DIMSTYLE
 70
     1
  0
DIMSTYLE
  2
STANDARD
 70
     0
  3

  4

  5

  6

  7

 40
1.0
 41
0.1875
 42
0.0625
 43
0.38
 44
0.125
 45
0.0
 46
0.0
 47
0.01
 48
0.01
140
0.15625
141
0.09
142
0.0
143
25.3999999999999986
144
1.0
145
0.0
146
1.0
147
0.09
 71
     1
 72
     0
 73
     1
 74
     1
 75
     0
 76
     0
 77
     0
 78
     4
170
     0
171
     2
172
     0
173
     0
174
     0
175
     0
176
     0
177
     0
178
     0
  0
ENDTAB
  0
ENDSEC
  0
SECTION
  2
BLOCKS
  0
BLOCK
  8
0
  2
$MODEL_SPACE
 70
     0
 10
0.0
 20
0.0
 30
0.0
  3
$MODEL_SPACE
  1

  0
ENDBLK
  5
21
  8
0
  0
BLOCK
 67
     1
  8
0
  2
$PAPER_SPACE
 70
     0
 10
0.0
 20
0.0
 30
0.0
  3
$PAPER_SPACE
  1

  0
ENDBLK
  5
1D
 67
     1
  8
0
  0
ENDSEC
  0
SECTION
  2
ENTITIES
  0
LINE
  5
7BE4
  8
0
 10
-36450.5981468266327283
 20
-17306.6304819625293021
 30
0.0
 11
-36434.8400816968933214
 21
-17306.6304819625293021
 31
0.0
  0
ARC
  5
7BE5
  8
0
 10
-36450.6014099921667366
 20
-17306.7695379298311309
 30
0.0
 40
0.1390942496690901
 50
88.6557117351551938
 51
140.1738818121214081
  0
ARC
  5
7BE6
  8
0
 10
-36450.4622725095396163
 20
-17306.8871343626087764
 30
0.0
 40
0.3212687140394075
 50
139.9596732521075921
 51
170.2262582503350927
  0
LINE
  5
7BE7
  8
0
 10
-36450.7910188226524042
 20
-17306.9925698867409665
 30
0.0
 11
-36450.7216048394475365
 21
-17309.8154372359313129
 31
0.0
  0
LINE
  5
7BE8
  8
0
 10
-36450.721604844860849
 20
-17309.8154372359313129
 30
0.0
 11
-36434.7187005277664866
 21
-17309.8154372359313129
 31
0.0
  0
LINE
  5
7BE9
  8
0
 10
-36434.7187005223531742
 20
-17309.8154372359313129
 30
0.0
 11
-36434.6492865541877109
 21
-17306.9925698861989076
 31
0.0
  0
LINE
  5
7BEA
  8
0
 10
-36450.6610975628427695
 20
-17309.8154372359313129
 30
0.0
 11
-36450.6610975628427695
 21
-17309.8744923540289165
 31
0.0
  0
LINE
  5
7BEB
  8
0
 10
-36450.6610975682124263
 20
-17309.8744923540289165
 30
0.0
 11
-36434.7792078044076334
 21
-17309.8744923540289165
 31
0.0
  0
LINE
  5
7BEC
  8
0
 10
-36434.7792077990525286
 20
-17309.8744923540289165
 30
0.0
 11
-36434.7792077990525286
 21
-17309.8154372359313129
 31
0.0
  0
ARC
  5
7BED
  8
0
 10
-36449.0188500295334961
 20
-17310.1062771937395155
 30
0.0
 40
0.2317854610503457
 50
64.5716613990514219
 51
90.1326667622965942
  0
LINE
  5
7BEE
  8
0
 10
-36441.561951009236509
 20
-17313.5359096768406744
 30
0.0
 11
-36443.8783543633908266
 21
-17313.5359096768406744
 31
0.0
  0
ARC
  5
7BEF
  8
0
 10
-36443.8783543579411344
 20
-17313.3390583579384838
 30
0.0
 40
0.1968513188927612
 50
185.0002467646571915
 51
269.9999984145990197
  0
LINE
  5
7BF0
  8
0
 10
-36444.0744565242421231
 20
-17313.3562159254288417
 30
0.0
 11
-36444.174771925630921
 21
-17312.2096625148915336
 31
0.0
  0
ARC
  5
7BF1
  8
0
 10
-36444.3699866655224469
 20
-17312.2267424387791834
 30
0.0
 40
0.195960502314323
 50
5.0002467646572528
 51
16.9997622622603899
  0
LINE
  5
7BF2
  8
0
 10
-36444.1825884674472036
 20
-17312.1694499102413829
 30
0.0
 11
-36444.7864730964429327
 21
-17312.1692834215282346
 31
0.0
  0
LINE
  5
7BF3
  8
0
 10
-36444.7864730964429327
 20
-17312.1692834215282346
 30
0.0
 11
-36444.8275565260482836
 21
-17312.1695137548413186
 31
0.0
  0
ARC
  5
7BF4
  8
0
 10
-36444.8274667621590197
 20
-17312.7316667383383901
 30
0.0
 40
0.5621529906704575
 50
90.0091489183701867
 51
97.3073844973901458
  0
ARC
  5
7BF5
  8
0
 10
-36445.2797743356713909
 20
-17308.9228069488417532
 30
0.0
 40
3.273497597696764
 50
270.9774203285124941
 51
276.680343065478894
  0
ARC
  5
7BF6
  8
0
 10
-36445.2904567620935268
 20
-17310.5820082015488879
 30
0.0
 40
1.61519051955281
 50
264.15713835111751
 51
272.3604424311083108
  0
ARC
  5
7BF7
  8
0
 10
-36445.4430738675800967
 20
-17312.0417159530297795
 30
0.0
 40
0.1475649442305193
 50
202.1312555934048021
 51
265.4095148896590217
  0
LINE
  5
7BF8
  8
0
 10
-36445.5797667074366473
 20
-17312.0973080414405558
 30
0.0
 11
-36445.6365741040572175
 21
-17311.9412117725914868
 31
0.0
  0
ARC
  5
7BF9
  8
0
 10
-36445.8227409435785376
 20
-17312.0097129814712389
 30
0.0
 40
0.1983696240772639
 50
20.2013956959558101
 51
76.0231535105473029
  0
ARC
  5
7BFA
  8
0
 10
-36444.3119830912764883
 20
-17305.8285253904396086
 30
0.0
 40
6.1647658159282601
 50
252.2340438413804975
 51
256.2732706435310774
  0
LINE
  5
7BFB
  8
0
 10
-36446.1930351103801513
 20
-17311.6992988374986453
 30
0.0
 11
-36446.2210177372471662
 21
-17311.6991674300297746
 31
0.0
  0
ARC
  5
7BFC
  8
0
 10
-36446.2235431298468029
 20
-17312.2369383919904067
 30
0.0
 40
0.5377768915915168
 50
89.7309388490476039
 51
97.5636851742297182
  0
ARC
  5
7BFD
  8
0
 10
-36446.7202770125804818
 20
-17308.0842197552192374
 30
0.0
 40
3.6445968548624972
 50
270.8479663718482016
 51
276.7115476128914224
  0
ARC
  5
7BFE
  8
0
 10
-36446.7423653075820766
 20
-17309.8289525506188511
 30
0.0
 40
1.9009857667791481
 50
264.4553402256228196
 51
272.2920270687353081
  0
ARC
  5
7BFF
  8
0
 10
-36446.9175351932499325
 20
-17311.5711705622416048
 30
0.0
 40
0.1501146055183809
 50
201.5217390701722877
 51
266.7515384837644774
  0
LINE
  5
7C00
  8
0
 10
-36447.0571835748414742
 20
-17311.6262407384310791
 30
0.0
 11
-36447.1449868945710477
 21
-17311.3561220448609674
 31
0.0
  0
ARC
  5
7C01
  8
0
 10
-36447.3541434798680712
 20
-17311.4295080445917847
 30
0.0
 40
0.2216569635315092
 50
19.3302489824350694
 51
33.3392951957363834
  0
ARC
  5
7C02
  8
0
 10
-36595.0318338756114827
 20
-17534.2173611183716275
 30
0.0
 40
267.4923387419200935
 50
56.4424548548214418
 51
56.5443973215802629
  0
ARC
  5
7C03
  8
0
 10
-36444.1664289078107686
 20
-17305.8477850802082685
 30
0.0
 40
6.21018210412862
 50
232.1606473374521897
 51
236.8120172642043997
  0
ARC
  5
7C04
  8
0
 10
-36448.1254292228113627
 20
-17315.0084842011092405
 30
0.0
 40
4.2589280816333162
 50
87.9901455755482544
 51
92.3493964513667009
  0
ARC
  5
7C05
  8
0
 10
-36449.0200779235528898
 20
-17310.1125259133514191
 30
0.0
 40
0.2379612657436342
 50
42.95479667246952
 51
64.9506838779442859
  0
ARC
  5
7C06
  8
0
 10
-36442.2650754384230822
 20
-17303.8233405138198577
 30
0.0
 40
8.9915518072098664
 50
222.9547966724695129
 51
224.9702141602201948
  0
ARC
  5
7C07
  8
0
 10
-36448.7901885181636317
 20
-17310.3356852277793223
 30
0.0
 40
0.2273659205940667
 50
28.2387787694747487
 51
43.9026723781128183
  0
ARC
  5
7C08
  8
0
 10
-36448.7608568705400103
 20
-17310.3158679000298434
 30
0.0
 40
0.1921820710696922
 50
12.8713870780247603
 51
27.1712369873460915
  0
ARC
  5
7C09
  8
0
 10
-36381.1030540518622729
 20
-17294.8557183465709386
 30
0.0
 40
69.2095074362207754
 50
192.8713870780246964
 51
193.0784113735753067
  0
ARC
  5
7C0A
  8
0
 10
-36600.4964788974175462
 20
-17345.8230328273893974
 30
0.0
 40
156.0262401946756086
 50
13.0230065004052999
 51
13.0784113735753404
  0
ARC
  5
7C0B
  8
0
 10
-36448.3670298623401322
 20
-17310.6431086698285071
 30
0.0
 40
0.1180704340565466
 50
190.0552518280179868
 51
228.9320893677709989
  0
ARC
  5
7C0C
  8
0
 10
-36448.3669533454667544
 20
-17310.6431629907492606
 30
0.0
 40
0.1180797847238996
 50
228.8867811824553939
 51
265.2928657072582155
  0
ARC
  5
7C0D
  8
0
 10
-36448.3668540083090193
 20
-17310.6438225984784367
 30
0.0
 40
0.1174306534423079
 50
265.2181511739985922
 51
289.34532147311279
  0
LINE
  5
7C0E
  8
0
 10
-36448.3000163717515534
 20
-17310.7531360682296508
 30
0.0
 11
-36448.3279538309070631
 21
-17310.754623025219189
 31
0.0
  0
ARC
  5
7C0F
  8
0
 10
-36442.0440937155071879
 20
-17311.8749600556693622
 30
0.0
 40
2.1545704822400031
 50
187.8068974726911904
 51
223.4321311960806895
  0
ARC
  5
7C10
  8
0
 10
-36428.1295060220218147
 20
-17309.0203928188493592
 30
0.0
 40
16.3548625140483814
 50
186.2858750566365984
 51
191.0948687165067952
  0
ARC
  5
7C11
  8
0
 10
-36991.4180142323821201
 20
-17377.4201822896611702
 30
0.0
 40
551.0723646141028667
 50
6.9424191739237893
 51
6.9812816472083687
  0
ARC
  5
7C12
  8
0
 10
-36406.4264077650223044
 20
-17305.712488575529278
 30
0.0
 40
38.2978501668575007
 50
186.5512887679180096
 51
187.0907898987632905
  0
ARC
  5
7C13
  8
0
 10
-36444.709671307093231
 20
-17310.1109465891495347
 30
0.0
 40
0.2372673679057446
 50
7.0102597101325541
 51
85.2551392694849142
  0
ARC
  5
7C14
  8
0
 10
-36436.4214553322090069
 20
-17310.1062771937395155
 30
0.0
 40
0.2317854610503457
 50
89.8673332377034058
 51
115.4283386009486065
  0
ARC
  5
7C15
  8
0
 10
-36441.5619510037868167
 20
-17313.3390583579384838
 30
0.0
 40
0.19685131889276
 50
269.9999984145990197
 51
354.9997532353427232
  0
LINE
  5
7C16
  8
0
 10
-36441.3658488374931039
 20
-17313.3562159254288417
 30
0.0
 11
-36441.2655334360970301
 21
-17312.2096625148915336
 31
0.0
  0
ARC
  5
7C17
  8
0
 10
-36441.0703186962200562
 20
-17312.2267424387791834
 30
0.0
 40
0.195960502314323
 50
163.0002377377396101
 51
174.9997532353426948
  0
LINE
  5
7C18
  8
0
 10
-36441.2577168942880235
 20
-17312.1694499102413829
 30
0.0
 11
-36440.6538322652922943
 21
-17312.1692834215282346
 31
0.0
  0
LINE
  5
7C19
  8
0
 10
-36440.6538322652922943
 20
-17312.1692834215282346
 30
0.0
 11
-36440.6127488356869435
 21
-17312.1695137548413186
 31
0.0
  0
ARC
  5
7C1A
  8
0
 10
-36440.6128385995834833
 20
-17312.7316667383383901
 30
0.0
 40
0.5621529906704575
 50
82.6926155026098684
 51
89.9908510816298133
  0
ARC
  5
7C1B
  8
0
 10
-36440.1605310260711121
 20
-17308.9228069488417532
 30
0.0
 40
3.273497597696764
 50
263.3196569345212197
 51
269.0225796714873923
  0
ARC
  5
7C1C
  8
0
 10
-36440.1498485996489762
 20
-17310.5820082015488879
 30
0.0
 40
1.61519051955281
 50
267.6395575688915756
 51
275.84286164888249
  0
ARC
  5
7C1D
  8
0
 10
-36439.9972314941624063
 20
-17312.0417159530297795
 30
0.0
 40
0.1475649442305193
 50
274.5904851103409783
 51
337.8687444065952263
  0
LINE
  5
7C1E
  8
0
 10
-36439.8605386542913038
 20
-17312.0973080414405558
 30
0.0
 11
-36439.8037312576780096
 21
-17311.9412117725914868
 31
0.0
  0
ARC
  5
7C1F
  8
0
 10
-36439.6175644181566895
 20
-17312.0097129814712389
 30
0.0
 40
0.1983696240772591
 50
103.9768464894526971
 51
159.7986043040442041
  0
ARC
  5
7C20
  8
0
 10
-36441.1283222704587388
 20
-17305.8285253904396086
 30
0.0
 40
6.1647658159282601
 50
283.7267293564689226
 51
287.7659561586194741
  0
LINE
  5
7C21
  8
0
 10
-36439.2472702513623517
 20
-17311.6992988374986453
 30
0.0
 11
-36439.2192876244880608
 21
-17311.6991674300297746
 31
0.0
  0
ARC
  5
7C22
  8
0
 10
-36439.2167622318884241
 20
-17312.2369383919904067
 30
0.0
 40
0.5377768915915168
 50
82.436314825770296
 51
90.2690611509524246
  0
ARC
  5
7C23
  8
0
 10
-36438.7200283491620212
 20
-17308.0842197552192374
 30
0.0
 40
3.6445968548624972
 50
263.2884523871085776
 51
269.1520336281519121
  0
ARC
  5
7C24
  8
0
 10
-36438.6979400541604264
 20
-17309.8289525506188511
 30
0.0
 40
1.9009857667791481
 50
267.7079729312648055
 51
275.5446597743771804
  0
ARC
  5
7C25
  8
0
 10
-36438.5227701684925705
 20
-17311.5711705622416048
 30
0.0
 40
0.1501146055183809
 50
273.2484615162355226
 51
338.4782609298276839
  0
LINE
  5
7C26
  8
0
 10
-36438.3831217868864769
 20
-17311.6262407384310791
 30
0.0
 11
-36438.2953184671714553
 21
-17311.3561220448609674
 31
0.0
  0
ARC
  5
7C27
  8
0
 10
-36438.0861618818671559
 20
-17311.4295080445917847
 30
0.0
 40
0.2216569635315092
 50
146.6607048042635881
 51
160.6697510175648915
  0
ARC
  5
7C28
  8
0
 10
-36290.4084714861310204
 20
-17534.2173611183716275
 30
0.0
 40
267.4923387419200935
 50
123.4556026784196945
 51
123.5575451451784943
  0
ARC
  5
7C29
  8
0
 10
-36441.2738764539317344
 20
-17305.8477850802082685
 30
0.0
 40
6.21018210412862
 50
303.1879827357955719
 51
307.8393526625478103
  0
ARC
  5
7C2A
  8
0
 10
-36437.3148761389311403
 20
-17315.0084842011092405
 30
0.0
 40
4.2589280816333162
 50
87.6506035486332848
 51
87.9901455755482544
  0
ARC
  5
7C2B
  8
0
 10
-36436.4202274381823372
 20
-17310.1125259133514191
 30
0.0
 40
0.2379612657436342
 50
115.0493161220556999
 51
137.0452033275304871
  0
ARC
  5
7C2C
  8
0
 10
-36443.1752299233121448
 20
-17303.8233405138198577
 30
0.0
 40
8.9915518072098664
 50
315.0297858397797768
 51
317.0452033275304871
  0
ARC
  5
7C2D
  8
0
 10
-36436.6501168435788713
 20
-17310.3356852277793223
 30
0.0
 40
0.2273659205940667
 50
136.0973276218871888
 51
151.7612212305253081
  0
ARC
  5
7C2E
  8
0
 10
-36436.6794484912024927
 20
-17310.3158679000298434
 30
0.0
 40
0.1921820710696922
 50
152.8287630126538943
 51
167.1286129219751899
  0
ARC
  5
7C2F
  8
0
 10
-36504.3372513098729542
 20
-17294.8557183465709386
 30
0.0
 40
69.2095074362207754
 50
346.9215886264246933
 51
347.1286129219752183
  0
ARC
  5
7C30
  8
0
 10
-36284.9438264643176808
 20
-17345.8230328273893974
 30
0.0
 40
156.0262401946756086
 50
166.9215886264246933
 51
166.9769934995946983
  0
ARC
  5
7C31
  8
0
 10
-36437.0732754993878189
 20
-17310.6431086698285071
 30
0.0
 40
0.1180704340565466
 50
311.0679106322289726
 51
349.9447481719819848
  0
ARC
  5
7C32
  8
0
 10
-36437.0733520162611967
 20
-17310.6431629907492606
 30
0.0
 40
0.1180797847238996
 50
274.7071342927417845
 51
311.1132188175446913
  0
ARC
  5
7C33
  8
0
 10
-36437.0734513534189318
 20
-17310.6438225984784367
 30
0.0
 40
0.1174306534423079
 50
250.6546785268872952
 51
274.7818488260014078
  0
LINE
  5
7C34
  8
0
 10
-36437.1402889899909496
 20
-17310.7531360682296508
 30
0.0
 11
-36437.112351530820888
 21
-17310.754623025219189
 31
0.0
  0
ARC
  5
7C35
  8
0
 10
-36443.3962115662288852
 20
-17311.8749600796909363
 30
0.0
 40
2.1545703997242889
 50
316.5678676059333156
 51
352.1931028712930924
  0
ARC
  5
7C36
  8
0
 10
-36457.3107993397206883
 20
-17309.0203928188493592
 30
0.0
 40
16.3548625140483814
 50
348.9051312834931764
 51
353.7141249433632879
  0
ARC
  5
7C37
  8
0
 10
-35894.0222911293603829
 20
-17377.4201822896611702
 30
0.0
 40
551.0723646141028667
 50
173.018718352791609
 51
173.0575808260761903
  0
ARC
  5
7C38
  8
0
 10
-36479.0138975967129227
 20
-17305.712488575529278
 30
0.0
 40
38.2978501668575007
 50
352.9092101012366811
 51
353.4487112320820188
  0
ARC
  5
7C39
  8
0
 10
-36440.730634054649272
 20
-17310.1109465891495347
 30
0.0
 40
0.2372673679057446
 50
94.7448607305150858
 51
172.9897402898673988
  0
ARC
  5
7C3E
  8
0
 10
-36444.7378401725727599
 20
-17310.4718803645882872
 30
0.0
 40
0.3081722273438976
 50
5.9147471206876379
 51
72.3948141110142132
  0
LINE
  5
7C3F
  8
0
 10
-36447.6406766785221407
 20
-17310.1783329726713418
 30
0.0
 11
-36444.6446315829598461
 21
-17310.1781419086000824
 31
0.0
  0
LINE
  5
7C40
  8
0
 10
-36447.6406766785221407
 20
-17310.1783329726713418
 30
0.0
 11
-36447.6757636500478839
 21
-17310.1778761043315171
 31
0.0
  0
LINE
  5
7C41
  8
0
 10
-36447.6757636500478839
 20
-17310.1778761043315171
 30
0.0
 11
-36447.7080685378532507
 21
-17310.1781625203293515
 31
0.0
  0
ARC
  5
7C42
  8
0
 10
-36446.9015139108523726
 20
-17337.8065317798900651
 30
0.0
 40
27.6401396217282311
 50
91.672160037221218
 51
92.6261007063099839
  0
ARC
  5
7C43
  8
0
 10
-36448.3310744395712391
 20
-17305.8059666367516911
 30
0.0
 40
4.3924838850135863
 50
267.2481629923992728
 51
272.1285352340187274
  0
ARC
  5
7C44
  8
0
 10
-36448.5296065266229562
 20
-17309.8859691151410516
 30
0.0
 40
0.3076642451770706
 50
251.6693341510417099
 51
267.6991388512450953
  0
LINE
  5
7C45
  8
0
 10
-36446.1930351102273562
 20
-17311.6992988374986453
 30
0.0
 11
-36444.3003460950421868
 21
-17311.6998128648410784
 31
0.0
  0
ARC
  5
7C46
  8
0
 10
-36444.3033882126183016
 20
-17311.7811414848983986
 30
0.0
 40
0.0813854957695412
 50
58.994349289354389
 51
87.8578355960987665
  0
LINE
  5
7C47
  8
0
 10
-36439.2472702513623517
 20
-17311.6992988374986453
 30
0.0
 11
-36439.2192876244880608
 21
-17311.6991674300297746
 31
0.0
  0
ARC
  5
7C48
  8
0
 10
-36439.2167622318884241
 20
-17312.2369383919904067
 30
0.0
 40
0.5377768915915168
 50
82.436314825770296
 51
90.2690611509524246
  0
ARC
  5
7C49
  8
0
 10
-36436.6501168435788713
 20
-17310.3356852277793223
 30
0.0
 40
0.2273659205940667
 50
136.0973276218871888
 51
151.7612212305253081
  0
ARC
  5
7C4A
  8
0
 10
-36436.6794484912024927
 20
-17310.3158679000298434
 30
0.0
 40
0.1921820710696922
 50
152.8287630126538943
 51
167.1286129219751899
  0
ARC
  5
7C4B
  8
0
 10
-36440.7024651891624671
 20
-17310.4718803645882872
 30
0.0
 40
0.3081722273438976
 50
107.6051858889858011
 51
174.0852528793124065
  0
LINE
  5
7C4C
  8
0
 10
-36437.7996286832130863
 20
-17310.1783329726713418
 30
0.0
 11
-36440.7956737787826569
 21
-17310.1781419086000824
 31
0.0
  0
LINE
  5
7C4D
  8
0
 10
-36437.7996286832130863
 20
-17310.1783329726713418
 30
0.0
 11
-36437.7645417116873432
 21
-17310.1778761043315171
 31
0.0
  0
LINE
  5
7C4E
  8
0
 10
-36437.7645417116873432
 20
-17310.1778761043315171
 30
0.0
 11
-36437.7322368238892523
 21
-17310.1781625203293515
 31
0.0
  0
ARC
  5
7C4F
  8
0
 10
-36438.5387914508828544
 20
-17337.8065317798900651
 30
0.0
 40
27.6401396217282311
 50
87.3738992936900161
 51
88.327839962778782
  0
ARC
  5
7C50
  8
0
 10
-36437.109230922171264
 20
-17305.8059666367516911
 30
0.0
 40
4.3924838850135863
 50
267.8714647659812726
 51
272.7518370076007272
  0
ARC
  5
7C51
  8
0
 10
-36436.910698835097719
 20
-17309.8859691151410516
 30
0.0
 40
0.3076642451770706
 50
272.3008611487549047
 51
288.3306658489582901
  0
LINE
  5
7C52
  8
0
 10
-36439.2472702515005949
 20
-17311.6992988374986453
 30
0.0
 11
-36441.1399592666930403
 21
-17311.6998128648410784
 31
0.0
  0
ARC
  5
7C53
  8
0
 10
-36441.1369171491169254
 20
-17311.7811414848983986
 30
0.0
 40
0.0813854957695412
 50
92.1421644039012619
 51
121.0056507106455967
  0
LINE
  5
7C54
  8
0
 10
-36443.6049254633908276
 20
-17313.3562161926784029
 30
0.0
 11
-36443.6049235773098189
 21
-17313.3562161926784029
 31
0.0
  0
LINE
  5
7C55
  8
0
 10
-36443.6087196195221622
 20
-17313.3562161926784029
 30
0.0
 11
-36441.8315857531124493
 21
-17313.3562161926784029
 31
0.0
  0
ARC
  5
7C56
  8
0
 10
-36451.5630640261224471
 20
-17306.9902368600887712
 30
0.0
 40
0.7720464930732712
 50
359.9059522424539068
 51
0.1047251693980293
  0
ARC
  5
7C5A
  8
0
 10
-36434.8384838427300565
 20
-17306.7696172439391376
 30
0.0
 40
0.139144456122255
 50
72.4707208355180512
 51
90.6579659325773548
  0
ARC
  5
7C5B
  8
0
 10
-36434.8355336265522055
 20
-17306.7602769993682159
 30
0.0
 40
0.1293493581526035
 50
50.3250994541911183
 51
72.4707208355180512
  0
ARC
  5
7C5C
  8
0
 10
-36434.9657999258924974
 20
-17306.8856727915590454
 30
0.0
 40
0.3096898415876692
 50
6.1257892478920608
 51
46.583986759572511
  0
ARC
  5
7C5D
  8
0
 10
-36435.6863242286999593
 20
-17306.9808490565810644
 30
0.0
 40
1.0370496145210459
 50
0.2748926432388338
 51
5.1455917716684061
  0
ARC
  5
7C5E
  8
0
 10
-36435.0928241098372382
 20
-17306.9251593934786797
 30
0.0
 40
0.4409523319858078
 50
4.855042049193532
 51
9.4678534865150574
  0
ARC
  5
7C60
  8
0
 10
-36432.5643417912215227
 20
-17306.9842222448205575
 30
0.0
 40
2.0849614739297229
 50
179.7705727659185868
 51
180.2293979693793915
  0
ATTDEF
  5
7C6A
  8
DEFPOINTS
 10
-36442.7195479821821209
 20
-17309.8706099845985591
 30
0.0
 40
0.001
  1
K-2661T
  3

  2
MODELNUMBER
 70
     0
1001
ACDBATTR
1070
     0
1070
     1
  0
ATTDEF
  5
7C6B
  8
DEFPOINTS
 10
-36442.7195479821821209
 20
-17309.8722766512582893
 30
0.0
 40
0.001
  1
VOX
  3

  2
TRADENAME
 70
     0
1001
ACDBATTR
1070
     0
1070
     1
  0
ATTDEF
  5
7C6C
  8
DEFPOINTS
 10
-36442.7195479821821209
 20
-17309.8739433179289335
 30
0.0
 40
0.001
  1
BATHROOM SINK
  3

  2
PRODUCT
 70
     0
1001
ACDBATTR
1070
     0
1070
     1
  0
ARC
  5
7CC0
  8
0
 10
-36450.1429887398626306
 20
-17306.9523830305806769
 30
0.0
 40
0.6470736506167656
 50
169.3318452965393135
 51
176.4230081775052099
  0
ARC
  5
7CC1
  8
0
 10
-36449.4929860781267053
 20
-17306.9930156846094178
 30
0.0
 40
1.2983450785408699
 50
176.4230081775052099
 51
178.743215319398189
  0
ARC
  5
7CC2
  8
0
 10
-36452.8780664077203255
 20
-17306.9785543119105569
 30
0.0
 40
2.0870946453604331
 50
359.6152357909875263
 51
0.3847644251718998
  0
LINE
  5
7CCB
  8
0
 10
-36447.1689644635771401
 20
-17311.3076862837806402
 30
0.0
 11
-36444.3236350958104595
 21
-17311.3076862837806402
 31
0.0
  0
LINE
  5
7CCC
  8
0
 10
-36441.1166702659320435
 20
-17311.3076862837806402
 30
0.0
 11
-36438.2713408981580869
 21
-17311.3076862837806402
 31
0.0
  0
LINE
  5
7CCE
  8
0
 10
-36447.9760627224823111
 20
-17310.752176170299208
 30
0.0
 11
-36444.3932177181268344
 21
-17310.752176170299208
 31
0.0
  0
LINE
  5
7CCF
  8
0
 10
-36441.0470876436011167
 20
-17310.752176170299208
 30
0.0
 11
-36437.1655096385875368
 21
-17310.752176170299208
 31
0.0
  0
ENDSEC
  0
EOF
