  0
SECTION
  2
HEADER
  9
$ACADVER
  1
AC1009
  9
$INSBASE
 10
6324.7413362094230251
 20
373.1158961274269927
 30
0.0
  9
$EXTMIN
 10
6316.3342723045316234
 20
369.5922715011362811
 30
-0.0000000000000058
  9
$EXTMAX
 10
6333.2453383996444245
 20
376.3107732557703002
 30
0.0000000000000104
  9
$LIMMIN
 10
0.0
 20
0.0
  9
$LIMMAX
 10
11.6929133858000007
 20
8.2677165353999982
  9
$ORTHOMODE
 70
     1
  9
$REGENMODE
 70
     1
  9
$FILLMODE
 70
     1
  9
$QTEXTMODE
 70
     0
  9
$MIRRTEXT
 70
     0
  9
$DRAGMODE
 70
     2
  9
$LTSCALE
 40
0.6431102362
  9
$OSMODE
 70
  3839
  9
$ATTMODE
 70
     1
  9
$TEXTSIZE
 40
0.2
  9
$TRACEWID
 40
0.05
  9
$TEXTSTYLE
  7
STANDARD
  9
$CLAYER
  8
0
  9
$CELTYPE
  6
BYLAYER
  9
$CECOLOR
 62
   256
  9
$DIMSCALE
 40
1.0
  9
$DIMASZ
 40
0.1875
  9
$DIMEXO
 40
0.0625
  9
$DIMDLI
 40
0.4443307087
  9
$DIMRND
 40
0.0
  9
$DIMDLE
 40
0.0
  9
$DIMEXE
 40
0.125
  9
$DIMTP
 40
0.01
  9
$DIMTM
 40
0.01
  9
$DIMTXT
 40
2.0
  9
$DIMCEN
 40
0.1052362205
  9
$DIMTSZ
 40
0.0
  9
$DIMTOL
 70
     1
  9
$DIMLIM
 70
     0
  9
$DIMTIH
 70
     1
  9
$DIMTOH
 70
     1
  9
$DIMSE1
 70
     0
  9
$DIMSE2
 70
     0
  9
$DIMTAD
 70
     0
  9
$DIMZIN
 70
     0
  9
$DIMBLK
  1

  9
$DIMASO
 70
     1
  9
$DIMSHO
 70
     1
  9
$DIMPOST
  1
\X
  9
$DIMAPOST
  1

  9
$DIMALT
 70
     1
  9
$DIMALTD
 70
     2
  9
$DIMALTF
 40
25.3999999999999986
  9
$DIMLFAC
 40
1.0
  9
$DIMTOFL
 70
     0
  9
$DIMTVP
 40
0.0
  9
$DIMTIX
 70
     0
  9
$DIMSOXD
 70
     0
  9
$DIMSAH
 70
     0
  9
$DIMBLK1
  1

  9
$DIMBLK2
  1

  9
$DIMSTYLE
  2
STANDARD
  9
$DIMCLRD
 70
     0
  9
$DIMCLRE
 70
     0
  9
$DIMCLRT
 70
     0
  9
$DIMTFAC
 40
1.0
  9
$DIMGAP
 40
0.09
  9
$LUNITS
 70
     2
  9
$LUPREC
 70
     4
  9
$SKETCHINC
 40
0.1
  9
$FILLETRAD
 40
0.0
  9
$AUNITS
 70
     0
  9
$AUPREC
 70
     0
  9
$MENU
  1
.
  9
$ELEVATION
 40
0.0
  9
$PELEVATION
 40
0.0
  9
$THICKNESS
 40
0.0
  9
$LIMCHECK
 70
     0
  9
$BLIPMODE
 70
     0
  9
$CHAMFERA
 40
0.0
  9
$CHAMFERB
 40
0.0
  9
$SKPOLY
 70
     0
  9
$TDCREATE
 40
2458060.468368056230247
  9
$TDUPDATE
 40
2460286.6091550928540528
  9
$TDINDWG
 40
0.8458982639
  9
$TDUSRTIMER
 40
0.8458982639
  9
$USRTIMER
 70
     1
  9
$ANGBASE
 50
0.0
  9
$ANGDIR
 70
     0
  9
$PDMODE
 70
     0
  9
$PDSIZE
 40
0.3125
  9
$PLINEWID
 40
0.0
  9
$COORDS
 70
     1
  9
$SPLFRAME
 70
     0
  9
$SPLINETYPE
 70
     6
  9
$SPLINESEGS
 70
     8
  9
$ATTDIA
 70
     1
  9
$ATTREQ
 70
     1
  9
$HANDLING
 70
     1
  9
$HANDSEED
  5
34D4C
  9
$SURFTAB1
 70
     6
  9
$SURFTAB2
 70
     6
  9
$SURFTYPE
 70
     6
  9
$SURFU
 70
     6
  9
$SURFV
 70
     6
  9
$UCSNAME
  2

  9
$UCSORG
 10
0.0
 20
0.0
 30
0.0
  9
$UCSXDIR
 10
1.0
 20
0.0
 30
0.0
  9
$UCSYDIR
 10
0.0
 20
1.0
 30
0.0
  9
$PUCSNAME
  2

  9
$PUCSORG
 10
0.0
 20
0.0
 30
0.0
  9
$PUCSXDIR
 10
1.0
 20
0.0
 30
0.0
  9
$PUCSYDIR
 10
0.0
 20
1.0
 30
0.0
  9
$USERI1
 70
     0
  9
$USERI2
 70
     0
  9
$USERI3
 70
     0
  9
$USERI4
 70
     0
  9
$USERI5
 70
     0
  9
$USERR1
 40
0.0
  9
$USERR2
 40
0.0
  9
$USERR3
 40
0.0
  9
$USERR4
 40
0.0
  9
$USERR5
 40
0.0
  9
$WORLDVIEW
 70
     1
  9
$SHADEDGE
 70
     3
  9
$SHADEDIF
 70
    70
  9
$TILEMODE
 70
     1
  9
$MAXACTVP
 70
    64
  9
$PLIMCHECK
 70
     0
  9
$PEXTMIN
 10
1.0000000000000000E+20
 20
1.0000000000000000E+20
 30
1.0000000000000000E+20
  9
$PEXTMAX
 10
-1.0000000000000000E+20
 20
-1.0000000000000000E+20
 30
-1.0000000000000000E+20
  9
$PLIMMIN
 10
0.0
 20
0.0
  9
$PLIMMAX
 10
12.0
 20
9.0
  9
$UNITMODE
 70
     0
  9
$VISRETAIN
 70
     1
  9
$PLINEGEN
 70
     0
  9
$PSLTSCALE
 70
     1
  0
ENDSEC
  0
SECTION
  2
TABLES
  0
TABLE
  2
VPORT
 70
     1
  0
VPORT
  2
*ACTIVE
 70
     0
 10
0.0
 20
0.0
 11
1.0
 21
1.0
 12
2413.4244489067750692
 22
240.3719172759143134
 13
0.0
 23
0.0
 14
1.0
 24
1.0
 15
0.0
 25
0.0
 16
0.0
 26
0.0
 36
60.4960186965801583
 17
3911.3653564453120453
 27
132.5796051025390057
 37
0.0
 40
7.4301154447777691
 41
2.2831541218637992
 42
50.0
 43
0.0
 44
0.0
 50
0.0
 51
0.0
 71
     0
 72
   100
 73
     1
 74
     1
 75
     0
 76
     0
 77
     0
 78
     1
  0
ENDTAB
  0
TABLE
  2
LTYPE
 70
     2
  0
LTYPE
  2
CONTINUOUS
 70
     0
  3
Solid line
 72
    65
 73
     0
 40
0.0
  0
LTYPE
  2
PHANTOM2
 70
     0
  3
___ _ _ ___ _ _ ___ _ _ ___ _ _
 72
    65
 73
     6
 40
1.25
 49
0.625
 49
-0.125
 49
0.125
 49
-0.125
 49
0.125
 49
-0.125
  0
ENDTAB
  0
TABLE
  2
LAYER
 70
     2
  0
LAYER
  2
0
 70
     0
 62
   255
  6
CONTINUOUS
  0
LAYER
  2
DEFPOINTS
 70
     0
 62
     7
  6
CONTINUOUS
  0
ENDTAB
  0
TABLE
  2
STYLE
 70
     1
  0
STYLE
  2
STANDARD
 70
     0
 40
0.0
 41
0.8
 50
0.0
 71
     0
 42
0.2
  3
txt
  4

  0
ENDTAB
  0
TABLE
  2
VIEW
 70
     0
  0
ENDTAB
  0
TABLE
  2
UCS
 70
     0
  0
ENDTAB
  0
TABLE
  2
APPID
 70
    11
  0
APPID
  2
ACAD
 70
     0
  0
APPID
  2
ACAD_MLEADERVER
 70
     0
  0
APPID
  2
ACAD_EXEMPT_FROM_CAD_STANDARDS
 70
     0
  0
APPID
  2
ACAD_NAV_VCDISPLAY
 70
     0
  0
APPID
  2
ACAECLAYERSTANDARD
 70
     0
  0
APPID
  2
ACCMTRANSPARENCY
 70
     0
  0
APPID
  2
ACAD_DSTYLE_DIMJAG
 70
     0
  0
APPID
  2
ACAD_DSTYLE_DIMTALN
 70
     0
  0
APPID
  2
ACDBATTR
 70
     0
  0
APPID
  2
ACADANNOTATIVE
 70
     0
  0
APPID
  2
DCO15
 70
     0
  0
ENDTAB
  0
TABLE
  2
DIMSTYLE
 70
     1
  0
DIMSTYLE
  2
STANDARD
 70
     0
  3

  4

  5

  6

  7

 40
1.0
 41
0.1875
 42
0.0625
 43
0.38
 44
0.125
 45
0.0
 46
0.0
 47
0.01
 48
0.01
140
0.15625
141
0.09
142
0.0
143
25.3999999999999986
144
1.0
145
0.0
146
1.0
147
0.09
 71
     1
 72
     0
 73
     1
 74
     1
 75
     0
 76
     0
 77
     0
 78
     4
170
     0
171
     2
172
     0
173
     0
174
     0
175
     0
176
     0
177
     0
178
     0
  0
ENDTAB
  0
ENDSEC
  0
SECTION
  2
BLOCKS
  0
BLOCK
  8
0
  2
$MODEL_SPACE
 70
     0
 10
0.0
 20
0.0
 30
0.0
  3
$MODEL_SPACE
  1

  0
ENDBLK
  5
21
  8
0
  0
BLOCK
 67
     1
  8
0
  2
$PAPER_SPACE
 70
     0
 10
0.0
 20
0.0
 30
0.0
  3
$PAPER_SPACE
  1

  0
ENDBLK
  5
1D
 67
     1
  8
0
  0
BLOCK
  8
0
  2
_FILLED
 70
     0
 10
0.0
 20
0.0
 30
0.0
  3
_FILLED
  1

  0
SOLID
  5
34B6A
  8
0
  6
BYBLOCK
 62
     0
 10
0.0
 20
0.0
 30
0.0
 11
-1.0
 21
0.1666666667
 31
0.0
 12
-1.0
 22
-0.1666666667
 32
0.0
 13
-1.0
 23
-0.1666666667
 33
0.0
  0
ENDBLK
  5
34B6B
  8
0
  6
BYBLOCK
 62
     0
  0
ENDSEC
  0
SECTION
  2
ENTITIES
  0
ATTDEF
  5
3434B
  8
DEFPOINTS
 10
6324.7417868473830822
 20
373.1200082699201062
 30
0.0
 40
0.001
  1
K-2661IN
  3

  2
MODELNUMBER
 70
     0
1001
ACDBATTR
1070
     0
1070
     1
  0
ATTDEF
  5
3434C
  8
DEFPOINTS
 10
6324.7416610377258621
 20
373.1183414295409193
 30
0.0
 40
0.001
  1
FOREFRONT
  3

  2
TRADENAME
 70
     0
1001
ACDBATTR
1070
     0
1070
     1
  0
ATTDEF
  5
3434D
  8
DEFPOINTS
 10
6324.7417868473830822
 20
373.116674936586719
 30
0.0
 40
0.001
  1
BATHROOM SINK
  3

  2
PRODUCT
 70
     0
1001
ACDBATTR
1070
     0
1070
     1
  0
LINE
  5
34815
  8
0
 10
6318.6505430643655927
 20
376.3008514008290035
 30
0.0
 11
6332.6226027625161805
 21
376.3008514008290035
 31
0.0
  0
ARC
  5
34816
  8
0
 10
6316.8778991691360716
 20
376.1180916064370194
 30
0.0
 40
0.183035896940283
 50
93.1474534106584855
 51
129.6824270134461017
  0
ARC
  5
34817
  8
0
 10
6316.9469907724997029
 20
376.0770361035649216
 30
0.0
 40
0.2601496726530185
 50
135.6302309488112883
 51
156.2723732027488097
  0
ARC
  5
34818
  8
0
 10
6317.1346111242028201
 20
376.0014121875212254
 30
0.0
 40
0.4623829245082915
 50
157.0487295319018131
 51
178.2739499905841001
  0
LINE
  5
34819
  8
0
 10
6316.6704710799676832
 20
375.9387634766281963
 30
0.0
 11
6316.7398934531947816
 21
373.1158961274269927
 31
0.0
  0
LINE
  5
3481A
  8
0
 10
6316.7398934531947816
 20
373.1158961274269927
 30
0.0
 11
6316.7398934531947816
 21
373.1158961274269927
 31
0.0
  0
LINE
  5
3481B
  8
0
 10
6316.7398934531947816
 20
373.1158961274269927
 30
0.0
 11
6332.7427789656503592
 21
373.1158961274269927
 31
0.0
  0
LINE
  5
3481C
  8
0
 10
6332.7427789656503592
 20
373.1158961274269927
 30
0.0
 11
6332.8122033634654144
 21
375.9387634766281963
 31
0.0
  0
LINE
  5
3481D
  8
0
 10
6316.8003955225358368
 20
373.1158961274269927
 30
0.0
 11
6316.8003955225358368
 21
373.0568410093293892
 31
0.0
  0
LINE
  5
3481E
  8
0
 10
6316.8003955225358368
 20
373.0568410093293892
 30
0.0
 11
6332.6822821035675588
 21
373.0568410093293892
 31
0.0
  0
LINE
  5
3481F
  8
0
 10
6332.6822821035675588
 20
373.0568410093293892
 30
0.0
 11
6332.6822821035675588
 21
373.1158961274269927
 31
0.0
  0
ARC
  5
34820
  8
0
 10
6317.3103286659461446
 20
372.819735080167618
 30
0.0
 40
0.2371060400905955
 50
27.921113943388491
 51
89.9445770720890749
  0
ARC
  5
34821
  8
0
 10
6320.3121784422482961
 20
374.4105493185380737
 30
0.0
 40
3.160215260650407
 50
207.921113943388491
 51
217.0951426089829113
  0
ARC
  5
34822
  8
0
 10
6322.7576418757089414
 20
376.4213425496565719
 30
0.0
 40
6.3249072628894396
 50
218.2630914060435998
 51
234.7453548740818121
  0
ARC
  5
34823
  8
0
 10
6323.1222838335443157
 20
376.8368721068785021
 30
0.0
 40
6.8749459713243644
 50
234.2626747486966963
 51
255.173474260021294
  0
ARC
  5
34824
  8
0
 10
6323.5088812426292861
 20
379.6507776733902801
 30
0.0
 40
9.7002749616182165
 50
257.2195704552510733
 51
268.2232637540251972
  0
ARC
  5
34825
  8
0
 10
6323.1923641455096003
 20
369.7589603141138923
 30
0.0
 40
0.1968379781215296
 50
7.0512323698155743
 51
85.4074235269493443
  0
ARC
  5
34826
  8
0
 10
6323.5830737242968098
 20
369.8072982814780971
 30
0.0
 40
0.1968503937486842
 50
187.0541773358779096
 51
270.0009263727541793
  0
LINE
  5
34827
  8
0
 10
6323.5830769070198585
 20
369.6104478877538781
 30
0.0
 11
6325.8994819566178194
 21
369.6104478877538781
 31
0.0
  0
ARC
  5
34828
  8
0
 10
6325.8994787635710964
 20
369.8072982927304224
 30
0.0
 40
0.1968504050017589
 50
270.0009293768035263
 51
354.9999969858632767
  0
LINE
  5
34829
  8
0
 10
6326.0955800924666619
 20
369.7901416393294767
 30
0.0
 11
6326.1959515274647856
 21
370.7216712696283025
 31
0.0
  0
ARC
  5
3482A
  8
0
 10
6326.3912268413478159
 20
370.7045868933965949
 30
0.0
 40
0.1960212338605144
 50
163.0016976307686889
 51
174.9999999997116049
  0
ARC
  5
3482B
  8
0
 10
6331.0406355692839497
 20
372.8204057793374773
 30
0.0
 40
0.2364352403593614
 50
90.0169695802281069
 51
137.935720360049686
  0
ARC
  5
3482C
  8
0
 10
6324.9225505516151316
 20
378.4939656508506118
 30
0.0
 40
8.1074618753942804
 50
314.9186621961194987
 51
317.1362794843092843
  0
ARC
  5
3482D
  8
0
 10
6331.9415069267342915
 20
372.148518175727304
 30
0.0
 40
1.428459104328023
 50
154.9654453620312893
 51
169.5830817070437035
  0
LINE
  5
3482E
  8
0
 10
6326.2037691051382353
 20
370.7618924014969934
 30
0.0
 11
6326.8074040549763595
 21
370.7618045718302255
 31
0.0
  0
LINE
  5
3482F
  8
0
 10
6326.8074040549763595
 20
370.7618045718302255
 30
0.0
 11
6326.8487456417578869
 21
370.7618274726194159
 31
0.0
  0
ARC
  5
34830
  8
0
 10
6326.8485726560320472
 20
370.1982253755924717
 30
0.0
 40
0.5636021235763998
 50
82.7011393794184784
 51
89.9824142744820108
  0
ARC
  5
34831
  8
0
 10
6327.2654839757378795
 20
373.4529444079091149
 30
0.0
 40
2.7177102705956129
 50
262.7003451425380263
 51
269.840518823146283
  0
ARC
  5
34832
  8
0
 10
6327.3181040727058644
 20
372.0012124261194799
 30
0.0
 40
1.2673975604727119
 50
267.2781785513685122
 51
277.9827749906202143
  0
ARC
  5
34833
  8
0
 10
6327.4689846322653466
 20
370.885499165335375
 30
0.0
 40
0.1416499706036278
 50
280.2187904234560278
 51
338.689606352153703
  0
ARC
  5
34834
  8
0
 10
5290.7955822630965486
 20
748.1992190128150924
 30
0.0
 40
1103.344851838699924
 50
340.0000533856222091
 51
340.0086930672638914
  0
ARC
  5
34835
  8
0
 10
6327.8451796609151643
 20
370.9211564685066946
 30
0.0
 40
0.1997142654893237
 50
108.2404331050549047
 51
159.724063816056713
  0
ARC
  5
34836
  8
0
 10
6325.6941748079107128
 20
379.5414301438688085
 30
0.0
 40
8.6854321844753652
 50
283.9136522402034188
 51
286.9142777026360136
  0
LINE
  5
34837
  8
0
 10
6328.2211197967617409
 20
371.2317200851359189
 30
0.0
 11
6328.2422094011499212
 21
371.2317198536841261
 31
0.0
  0
ARC
  5
34838
  8
0
 10
6328.2513963487081128
 20
370.7526938438061279
 30
0.0
 40
0.4791140972128481
 50
82.3110918811021435
 51
91.0987061030944147
  0
ARC
  5
34839
  8
0
 10
6328.7472757548966911
 20
374.965398644250115
 30
0.0
 40
3.7627536769519541
 50
263.4107841141101858
 51
272.5506014113336732
  0
ARC
  5
3483A
  8
0
 10
6328.9129112919981708
 20
371.4233782586708799
 30
0.0
 40
0.2170131416170479
 50
270.4787696741913123
 51
299.8480356232151962
  0
ARC
  5
3483B
  8
0
 10
6328.9573026896114243
 20
371.3460169745524126
 30
0.0
 40
0.1278202917802429
 50
299.8480356232151962
 51
342.4313121704229843
  0
LINE
  5
3483C
  8
0
 10
6329.0791609023954152
 20
371.3074345566967054
 30
0.0
 11
6329.1661664597640993
 21
371.5751963998266092
 31
0.0
  0
ARC
  5
3483D
  8
0
 10
6329.3497460878206766
 20
371.5163248247446859
 30
0.0
 40
0.1927883352032284
 50
117.9306691295772964
 51
162.2196054449674136
  0
ARC
  5
3483E
  8
0
 10
6326.3132794639168424
 20
376.9063370700789051
 30
0.0
 40
5.9937426272728151
 50
299.4418491908368765
 51
307.9354651008492851
  0
ARC
  5
3483F
  8
0
 10
6330.1457198911875821
 20
367.5165074738034718
 30
0.0
 40
4.6648797298343894
 50
87.4680880008265405
 51
88.2283082268526044
  0
ARC
  5
34840
  8
0
 10
6330.1457198911875821
 20
367.5165074738034718
 30
0.0
 40
4.6648797298343894
 50
91.7716917731474098
 51
91.8137484727081983
  0
ARC
  5
34841
  8
0
 10
6330.3766897898021853
 20
372.3408199603255753
 30
0.0
 40
0.1658656490070833
 50
261.3677751509965788
 51
290.6294582281989278
  0
ARC
  5
34842
  8
0
 10
6330.3882181565722931
 20
372.2949483309458856
 30
0.0
 40
0.1189950113879326
 50
293.2171694185432216
 51
347.0480030726312748
  0
LINE
  5
34843
  8
0
 10
6330.5041857194155455
 20
372.2682774272799975
 30
0.0
 11
6330.5365915086658788
 21
372.4067972502928114
 31
0.0
  0
LINE
  5
34844
  8
0
 10
6326.2037691051382353
 20
370.7618924014969934
 30
0.0
 11
6322.6751014051624225
 21
370.7618040073285783
 31
0.0
  0
LINE
  5
34845
  8
0
 10
6322.6751014051624225
 20
370.7618040073285783
 30
0.0
 11
6322.6339423162862659
 21
370.7618281587639899
 31
0.0
  0
ARC
  5
34846
  8
0
 10
6322.6339929438036052
 20
370.2014305261220102
 30
0.0
 40
0.560397634928154
 50
90.0051762228509631
 51
97.3286333713188156
  0
ARC
  5
34847
  8
0
 10
6322.226855398475891
 20
373.2562940594435759
 30
0.0
 40
2.5214843511877572
 50
264.57687554179779
 51
277.6497636078360074
  0
ARC
  5
34848
  8
0
 10
6330.5011410663137212
 20
372.2689788579410788
 30
0.0
 40
0.0031249887445185
 50
303.537551884399079
 51
347.9554794674281766
  0
ARC
  5
34849
  8
0
 10
6318.4420284595316843
 20
372.8204057793374773
 30
0.0
 40
0.2364352403593614
 50
42.0642796399502501
 51
89.9830304197719073
  0
ARC
  5
3484A
  8
0
 10
6324.560113477199593
 20
378.4939656508506118
 30
0.0
 40
8.1074618753942804
 50
222.8637205156906873
 51
225.0813378038805013
  0
ARC
  5
3484B
  8
0
 10
6318.696457998274127
 20
372.6139168627706795
 30
0.0
 40
0.1965992347906985
 50
12.9989508157046494
 51
45.0240054050796701
  0
ARC
  5
3484C
  8
0
 10
6307.3640376775301775
 20
369.8640236103203165
 30
0.0
 40
11.8578762381747893
 50
12.3825302726279904
 51
13.6289786514338793
  0
ARC
  5
3484D
  8
0
 10
6322.0136793965502875
 20
370.885499165335375
 30
0.0
 40
0.1416499706036278
 50
201.310393647846297
 51
259.7812095765439722
  0
ARC
  5
3484E
  8
0
 10
7358.6870817657190855
 20
748.1992190128150924
 30
0.0
 40
1103.344851838699924
 50
199.9913069327361086
 51
199.9999466143777909
  0
ARC
  5
3484F
  8
0
 10
6321.6374843679013793
 20
370.9211564685066946
 30
0.0
 40
0.1997142654893237
 50
20.2759361839432692
 51
71.7595668949450669
  0
ARC
  5
34850
  8
0
 10
6323.7886506206850754
 20
379.5420469413222122
 30
0.0
 40
8.6860696946943872
 50
253.085888442840087
 51
256.0862926846045866
  0
LINE
  5
34851
  8
0
 10
6321.2612319143381683
 20
371.2317196222358007
 30
0.0
 11
6321.2404724434518357
 21
371.2317198536841261
 31
0.0
  0
ARC
  5
34852
  8
0
 10
6321.2312732498912737
 20
370.7526359053882743
 30
0.0
 40
0.4791722599203617
 50
88.8999627221384401
 51
97.6886412174749239
  0
ARC
  5
34853
  8
0
 10
6320.735388273918943
 20
374.965398644250115
 30
0.0
 40
3.7627536769519541
 50
267.4493985886662131
 51
276.5892158858898142
  0
ARC
  5
34854
  8
0
 10
6320.5697527368165538
 20
371.4233782586708799
 30
0.0
 40
0.2170131416170479
 50
240.1519643767848038
 51
269.5212303258086877
  0
ARC
  5
34855
  8
0
 10
6320.5253613392051193
 20
371.3460169745524126
 30
0.0
 40
0.1278202917802429
 50
197.568687829576902
 51
240.1519643767848038
  0
LINE
  5
34856
  8
0
 10
6320.4035031264211284
 20
371.3074345566967054
 30
0.0
 11
6320.3164975369509193
 21
371.5751964999291772
 31
0.0
  0
ARC
  5
34857
  8
0
 10
6320.1329179409949575
 20
371.5163248247446859
 30
0.0
 40
0.1927883352032284
 50
17.7803945550325508
 51
62.069330870422732
  0
ARC
  5
34858
  8
0
 10
6323.1693845648987917
 20
376.9063370700789051
 30
0.0
 40
5.9937426272728151
 50
232.0645348991506864
 51
240.5581508091630951
  0
ARC
  5
34859
  8
0
 10
6319.3369441376271425
 20
367.5165074738034718
 30
0.0
 40
4.6648797298343894
 50
88.1862515272918159
 51
92.5319119991734738
  0
ARC
  5
3485A
  8
0
 10
6319.1059742390143583
 20
372.3408199603255753
 30
0.0
 40
0.1658656490070833
 50
249.3705417718009869
 51
278.6322248490033076
  0
ARC
  5
3485B
  8
0
 10
6319.0944458722442505
 20
372.2949483309458856
 30
0.0
 40
0.1189950113879326
 50
192.9519969273686115
 51
246.7828305814568068
  0
LINE
  5
3485C
  8
0
 10
6318.9784783094000886
 20
372.2682774272799975
 30
0.0
 11
6318.9460725201497553
 21
372.4067972502928114
 31
0.0
  0
LINE
  5
3485D
  8
0
 10
6328.2214488945319317
 20
371.2317200851359189
 30
0.0
 11
6321.2612319143381683
 21
371.2317196222358007
 31
0.0
  0
ARC
  5
3485E
  8
0
 10
6332.568711721462023
 20
376.0963738754982728
 30
0.0
 40
0.2224542979416472
 50
20.7697570185489298
 51
58.5554001435593392
  0
ARC
  5
3485F
  8
0
 10
6332.6230959643262395
 20
376.164104755717176
 30
0.0
 40
0.1367475345201678
 50
63.1962615230930922
 51
90.2066468217724804
  0
ARC
  5
34860
  8
0
 10
6332.3469732748999377
 20
376.0036755578440761
 30
0.0
 40
0.4627245983572027
 50
5.7147213831164247
 51
21.7656742060786286
  0
ARC
  5
34861
  8
0
 10
6331.434379984260886
 20
375.9429522592947137
 30
0.0
 40
1.377829744639895
 50
359.8258095933954905
 51
2.4640066558955529
  0
ARC
  5
34862
  8
0
 10
6332.0480427219881676
 20
375.9693591243341757
 30
0.0
 40
0.7635991053881901
 50
2.4640066558955529
 51
6.0433525550629934
  0
ARC
  5
34863
  8
0
 10
6318.9606606644229032
 20
375.9387635009189808
 30
0.0
 40
2.2901895844539482
 50
179.996389046069595
 51
180.0000006076049885
  0
ARC
  5
34864
  8
0
 10
6318.71112460034783
 20
375.9387792274393973
 30
0.0
 40
2.0406535198889419
 50
179.5160505359189074
 51
179.996389046069595
  0
ARC
  5
34865
  8
0
 10
6317.9350288662899402
 20
375.9453346849297191
 30
0.0
 40
1.264530100289305
 50
176.8264644864406137
 51
179.5160505359189074
  0
LINE
  5
34866
  8
0
 10
6318.6505430643655927
 20
376.3008514008290035
 30
0.0
 11
6316.8678494366677114
 21
376.3008514008290035
 31
0.0
  0
LINE
  5
34867
  8
0
 10
6320.2930718538627843
 20
371.6236470795813034
 30
0.0
 11
6329.1895921749528497
 21
371.6236470795813034
 31
0.0
  0
LINE
  5
34868
  8
0
 10
6319.4811678850683165
 20
372.1791571930626787
 30
0.0
 11
6330.2899436386287562
 21
372.1791571930626787
 31
0.0
  0
ARC
  5
34B74
  8
0
 10
6323.9438782554461795
 20
379.108334388218509
 30
0.0
 40
9.1826912766069686
 50
265.404310580320498
 51
266.8078711610610867
  0
ARC
  5
34B75
  8
0
 10
6323.4544565207252163
 20
370.3327146589289214
 30
0.0
 40
0.3934344668763228
 50
266.8075446537068842
 51
289.2418017081158723
  0
ARC
  5
34B76
  8
0
 10
6323.4573083627592496
 20
370.3245444817927137
 30
0.0
 40
0.3847808666182622
 50
289.2418017081158723
 51
341.6524174604014092
  0
LINE
  5
34B77
  8
0
 10
6323.8225286586648508
 20
370.2034228455178209
 30
0.0
 11
6323.842409730916188
 21
370.7618590129471841
 31
0.0
  0
ENDSEC
  0
EOF
