  0
SECTION
  2
HEADER
  9
$ACADVER
  1
AC1009
  9
$INSBASE
 10
4788.8426121328902809
 20
236.8353738995575952
 30
0.0
  9
$EXTMIN
 10
4780.9117313884407849
 20
234.2947439783575021
 30
0.0
  9
$EXTMAX
 10
4796.7734928773406864
 20
236.8403376021194902
 30
0.0
  9
$LIMMIN
 10
0.0
 20
0.0
  9
$LIMMAX
 10
11.6929133858000007
 20
8.2677165353999982
  9
$ORTHOMODE
 70
     1
  9
$REGENMODE
 70
     1
  9
$FILLMODE
 70
     1
  9
$QTEXTMODE
 70
     0
  9
$MIRRTEXT
 70
     0
  9
$DRAGMODE
 70
     2
  9
$LTSCALE
 40
0.6431102362
  9
$OSMODE
 70
  4095
  9
$ATTMODE
 70
     1
  9
$TEXTSIZE
 40
0.2
  9
$TRACEWID
 40
0.05
  9
$TEXTSTYLE
  7
STANDARD
  9
$CLAYER
  8
0
  9
$CELTYPE
  6
BYLAYER
  9
$CECOLOR
 62
   256
  9
$DIMSCALE
 40
1.0
  9
$DIMASZ
 40
0.1875
  9
$DIMEXO
 40
0.0625
  9
$DIMDLI
 40
0.4443307087
  9
$DIMRND
 40
0.0
  9
$DIMDLE
 40
0.0
  9
$DIMEXE
 40
0.125
  9
$DIMTP
 40
0.01
  9
$DIMTM
 40
0.01
  9
$DIMTXT
 40
2.0
  9
$DIMCEN
 40
0.1052362205
  9
$DIMTSZ
 40
0.0
  9
$DIMTOL
 70
     1
  9
$DIMLIM
 70
     0
  9
$DIMTIH
 70
     1
  9
$DIMTOH
 70
     1
  9
$DIMSE1
 70
     0
  9
$DIMSE2
 70
     0
  9
$DIMTAD
 70
     0
  9
$DIMZIN
 70
     0
  9
$DIMBLK
  1

  9
$DIMASO
 70
     1
  9
$DIMSHO
 70
     1
  9
$DIMPOST
  1
\X
  9
$DIMAPOST
  1

  9
$DIMALT
 70
     1
  9
$DIMALTD
 70
     2
  9
$DIMALTF
 40
25.3999999999999986
  9
$DIMLFAC
 40
1.0
  9
$DIMTOFL
 70
     0
  9
$DIMTVP
 40
0.0
  9
$DIMTIX
 70
     0
  9
$DIMSOXD
 70
     0
  9
$DIMSAH
 70
     0
  9
$DIMBLK1
  1

  9
$DIMBLK2
  1

  9
$DIMSTYLE
  2
STANDARD
  9
$DIMCLRD
 70
     0
  9
$DIMCLRE
 70
     0
  9
$DIMCLRT
 70
     0
  9
$DIMTFAC
 40
1.0
  9
$DIMGAP
 40
0.09
  9
$LUNITS
 70
     2
  9
$LUPREC
 70
     4
  9
$SKETCHINC
 40
0.1
  9
$FILLETRAD
 40
0.0
  9
$AUNITS
 70
     0
  9
$AUPREC
 70
     0
  9
$MENU
  1
.
  9
$ELEVATION
 40
0.0
  9
$PELEVATION
 40
0.0
  9
$THICKNESS
 40
0.0
  9
$LIMCHECK
 70
     0
  9
$BLIPMODE
 70
     0
  9
$CHAMFERA
 40
0.0
  9
$CHAMFERB
 40
0.0
  9
$SKPOLY
 70
     0
  9
$TDCREATE
 40
2458060.468368056230247
  9
$TDUPDATE
 40
2459271.7402430549263954
  9
$TDINDWG
 40
0.356222338
  9
$TDUSRTIMER
 40
0.356222338
  9
$USRTIMER
 70
     1
  9
$ANGBASE
 50
0.0
  9
$ANGDIR
 70
     0
  9
$PDMODE
 70
     0
  9
$PDSIZE
 40
0.3125
  9
$PLINEWID
 40
0.0
  9
$COORDS
 70
     1
  9
$SPLFRAME
 70
     0
  9
$SPLINETYPE
 70
     6
  9
$SPLINESEGS
 70
     8
  9
$ATTDIA
 70
     1
  9
$ATTREQ
 70
     1
  9
$HANDLING
 70
     1
  9
$HANDSEED
  5
CCE3
  9
$SURFTAB1
 70
     6
  9
$SURFTAB2
 70
     6
  9
$SURFTYPE
 70
     6
  9
$SURFU
 70
     6
  9
$SURFV
 70
     6
  9
$UCSNAME
  2

  9
$UCSORG
 10
0.0
 20
0.0
 30
0.0
  9
$UCSXDIR
 10
1.0
 20
0.0
 30
0.0
  9
$UCSYDIR
 10
0.0
 20
1.0
 30
0.0
  9
$PUCSNAME
  2

  9
$PUCSORG
 10
0.0
 20
0.0
 30
0.0
  9
$PUCSXDIR
 10
1.0
 20
0.0
 30
0.0
  9
$PUCSYDIR
 10
0.0
 20
1.0
 30
0.0
  9
$USERI1
 70
     0
  9
$USERI2
 70
     0
  9
$USERI3
 70
     0
  9
$USERI4
 70
     0
  9
$USERI5
 70
     0
  9
$USERR1
 40
0.0
  9
$USERR2
 40
0.0
  9
$USERR3
 40
0.0
  9
$USERR4
 40
0.0
  9
$USERR5
 40
0.0
  9
$WORLDVIEW
 70
     1
  9
$SHADEDGE
 70
     3
  9
$SHADEDIF
 70
    70
  9
$TILEMODE
 70
     1
  9
$MAXACTVP
 70
    64
  9
$PLIMCHECK
 70
     0
  9
$PEXTMIN
 10
1.0000000000000000E+20
 20
1.0000000000000000E+20
 30
1.0000000000000000E+20
  9
$PEXTMAX
 10
-1.0000000000000000E+20
 20
-1.0000000000000000E+20
 30
-1.0000000000000000E+20
  9
$PLIMMIN
 10
0.0
 20
0.0
  9
$PLIMMAX
 10
12.0
 20
9.0
  9
$UNITMODE
 70
     0
  9
$VISRETAIN
 70
     1
  9
$PLINEGEN
 70
     0
  9
$PSLTSCALE
 70
     1
  0
ENDSEC
  0
SECTION
  2
TABLES
  0
TABLE
  2
VPORT
 70
     1
  0
VPORT
  2
*ACTIVE
 70
     0
 10
0.0
 20
0.0
 11
1.0
 21
1.0
 12
0.0
 22
0.0
 13
0.0
 23
0.0
 14
1.0
 24
1.0
 15
0.0
 25
0.0
 16
0.0
 26
0.0
 36
45.8422323466029482
 17
4788.8425292968740905
 27
235.567538185825299
 37
0.0
 40
16.0735952770119397
 41
2.1375838926174491
 42
50.0
 43
0.0
 44
0.0
 50
0.0
 51
0.0
 71
     0
 72
   100
 73
     1
 74
     1
 75
     0
 76
     0
 77
     0
 78
     0
  0
ENDTAB
  0
TABLE
  2
LTYPE
 70
     2
  0
LTYPE
  2
CONTINUOUS
 70
     0
  3
Solid line
 72
    65
 73
     0
 40
0.0
  0
LTYPE
  2
PHANTOM2
 70
     0
  3
___ _ _ ___ _ _ ___ _ _ ___ _ _
 72
    65
 73
     6
 40
1.25
 49
0.625
 49
-0.125
 49
0.125
 49
-0.125
 49
0.125
 49
-0.125
  0
ENDTAB
  0
TABLE
  2
LAYER
 70
     2
  0
LAYER
  2
0
 70
     0
 62
   255
  6
CONTINUOUS
  0
LAYER
  2
DEFPOINTS
 70
     0
 62
     7
  6
CONTINUOUS
  0
ENDTAB
  0
TABLE
  2
STYLE
 70
     1
  0
STYLE
  2
STANDARD
 70
     0
 40
0.0
 41
0.8
 50
0.0
 71
     0
 42
0.2
  3
txt
  4

  0
ENDTAB
  0
TABLE
  2
VIEW
 70
     0
  0
ENDTAB
  0
TABLE
  2
UCS
 70
     0
  0
ENDTAB
  0
TABLE
  2
APPID
 70
     9
  0
APPID
  2
ACAD
 70
     0
  0
APPID
  2
ACAD_MLEADERVER
 70
     0
  0
APPID
  2
ACAD_EXEMPT_FROM_CAD_STANDARDS
 70
     0
  0
APPID
  2
ACAD_NAV_VCDISPLAY
 70
     0
  0
APPID
  2
ACAECLAYERSTANDARD
 70
     0
  0
APPID
  2
ACCMTRANSPARENCY
 70
     0
  0
APPID
  2
ACAD_DSTYLE_DIMJAG
 70
     0
  0
APPID
  2
ACAD_DSTYLE_DIMTALN
 70
     0
  0
APPID
  2
ACDBATTR
 70
     0
  0
ENDTAB
  0
TABLE
  2
DIMSTYLE
 70
     1
  0
DIMSTYLE
  2
STANDARD
 70
     0
  3

  4

  5

  6

  7

 40
1.0
 41
0.1875
 42
0.0625
 43
0.38
 44
0.125
 45
0.0
 46
0.0
 47
0.01
 48
0.01
140
0.15625
141
0.09
142
0.0
143
25.3999999999999986
144
1.0
145
0.0
146
1.0
147
0.09
 71
     1
 72
     0
 73
     1
 74
     1
 75
     0
 76
     0
 77
     0
 78
     4
170
     0
171
     2
172
     0
173
     0
174
     0
175
     0
176
     0
177
     0
178
     0
  0
ENDTAB
  0
ENDSEC
  0
SECTION
  2
BLOCKS
  0
BLOCK
  8
0
  2
$MODEL_SPACE
 70
     0
 10
0.0
 20
0.0
 30
0.0
  3
$MODEL_SPACE
  1

  0
ENDBLK
  5
21
  8
0
  0
BLOCK
 67
     1
  8
0
  2
$PAPER_SPACE
 70
     0
 10
0.0
 20
0.0
 30
0.0
  3
$PAPER_SPACE
  1

  0
ENDBLK
  5
1D
 67
     1
  8
0
  0
ENDSEC
  0
SECTION
  2
ENTITIES
  0
ATTDEF
  5
3930
  8
DEFPOINTS
 10
4788.8395475849556533
 20
236.8393376021194001
 30
0.0
 40
0.001
  1
K-26348IN-9
  3

  2
MODELNUMBER
 70
     0
1001
ACDBATTR
1070
     0
1070
     1
  0
ATTDEF
  5
3931
  8
DEFPOINTS
 10
4788.8395475849556533
 20
236.8376709354527065
 30
0.0
 40
0.001
  1

  3

  2
TRADENAME
 70
     0
1001
ACDBATTR
1070
     0
1070
     1
  0
ATTDEF
  5
3932
  8
DEFPOINTS
 10
4788.8395475849556533
 20
236.836004268786013
 30
0.0
 40
0.001
  1
VALVE TRIM
  3

  2
PRODUCT
 70
     0
1001
ACDBATTR
1070
     0
1070
     1
  0
LINE
  5
CB99
  8
0
 10
4780.9212172476400156
 20
236.2919293924576039
 30
0.0
 11
4780.9117313884407849
 21
236.8353738995575952
 31
0.0
  0
LINE
  5
CB9A
  8
0
 10
4782.712690873039719
 20
234.3341140570576044
 30
0.0
 11
4782.712690873039719
 21
234.3734841358576091
 31
0.0
  0
LINE
  5
CB9B
  8
0
 10
4782.712690873039719
 20
234.3813581515576061
 30
0.0
 11
4782.712690873039719
 21
235.5038382287575871
 31
0.0
  0
LINE
  5
CB9C
  8
0
 10
4783.8839507155398678
 20
234.3026179940576128
 30
0.0
 11
4783.8839507155398678
 21
234.2947439783575021
 31
0.0
  0
LINE
  5
CB9D
  8
0
 10
4786.316427442139684
 20
236.2841927972575888
 30
0.0
 11
4786.317142122239602
 21
236.2330109273576113
 31
0.0
  0
LINE
  5
CB9E
  8
0
 10
4787.0335568794916981
 20
236.2330109273576113
 30
0.0
 11
4787.0321686133402181
 21
236.2251376791575979
 31
0.0
  0
LINE
  5
CB9F
  8
0
 10
4786.3251260474398805
 20
236.2251376791575979
 30
0.0
 11
4786.317142122239602
 21
236.2330109273576113
 31
0.0
  0
LINE
  5
CBA0
  8
0
 10
4782.7520706028408313
 20
234.2947439783575021
 30
0.0
 11
4785.0355250214406624
 21
234.2947439783575021
 31
0.0
  0
LINE
  5
CBA1
  8
0
 10
4783.9036449087407163
 20
234.3026179940576128
 30
0.0
 11
4783.8839507155398678
 21
234.3026179940576128
 31
0.0
  0
LINE
  5
CBA2
  8
0
 10
4785.0749047512399557
 20
234.3734841358576091
 30
0.0
 11
4782.712690873039719
 21
234.3734841358576091
 31
0.0
  0
LINE
  5
CBA3
  8
0
 10
4786.3251260474398805
 20
236.2251376791575979
 30
0.0
 11
4787.761673022040668
 21
236.2251376791575979
 31
0.0
  0
LINE
  5
CBA4
  8
0
 10
4780.9290900641399276
 20
236.2841927972575888
 30
0.0
 11
4796.7561342016424533
 21
236.2841927972575888
 31
0.0
  0
LINE
  5
CBA5
  8
0
 10
4796.7734928773406864
 20
236.8353738995575952
 30
0.0
 11
4780.9117313884407849
 21
236.8353738995575952
 31
0.0
  0
ARC
  5
CBA6
  8
0
 10
4782.7133186496403141
 20
236.3342715373576084
 30
0.0
 40
0.1968503937
 50
325.4378080137915958
 51
345.2619647661848035
  0
ARC
  5
CBA7
  8
0
 10
4782.756051932945411
 20
234.3381060153108137
 30
0.0
 40
0.0435444283248527
 50
185.2600060574715997
 51
264.7540374450204013
  0
ARC
  5
CBA8
  8
0
 10
4782.720564149251004
 20
234.3813574119677128
 30
0.0
 40
0.007873276144849
 50
179.994617821305809
 51
270.0053821787039965
  0
ARC
  5
CBA9
  8
0
 10
4780.9291999052902611
 20
236.2921785881225105
 30
0.0
 40
0.0079865462382791
 50
181.7880293270372078
 51
269.2119706667368746
  0
LINE
  5
CBAA
  8
0
 10
4796.7640070181396368
 20
236.2919293924576039
 30
0.0
 11
4796.7734928773406864
 21
236.8353738995575952
 31
0.0
  0
ARC
  5
CBAB
  8
0
 10
4796.7560243604921197
 20
236.2921785881225105
 30
0.0
 40
0.0079865462382791
 50
270.7880293332631254
 51
358.2119706729611721
  0
ARC
  5
CBAC
  8
0
 10
4784.4283934802688236
 20
235.4931845236895072
 30
0.0
 40
1.715735684155498
 50
154.8409976287622953
 51
179.6442247690783063
  0
LINE
  5
CBAD
  8
0
 10
4785.0749047512399557
 20
234.3341140570576044
 30
0.0
 11
4785.0749047512399557
 21
234.3734841358576091
 31
0.0
  0
LINE
  5
CBAE
  8
0
 10
4785.0749047512399557
 20
234.3813581515576061
 30
0.0
 11
4785.0749047512399557
 21
235.5038382287575871
 31
0.0
  0
LINE
  5
CBAF
  8
0
 10
4783.9036449087407163
 20
234.3026179940576128
 30
0.0
 11
4783.9036449087407163
 21
234.2947439783575021
 31
0.0
  0
ARC
  5
CBB0
  8
0
 10
4785.0742769746402701
 20
236.3342715373576084
 30
0.0
 40
0.1968503937
 50
194.7380352338151113
 51
214.5621919862084042
  0
ARC
  5
CBB1
  8
0
 10
4785.0315436913351732
 20
234.3381060153108137
 30
0.0
 40
0.0435444283248527
 50
275.245962554979485
 51
354.7399939425283719
  0
ARC
  5
CBB2
  8
0
 10
4785.0670314750295802
 20
234.3813574119677128
 30
0.0
 40
0.007873276144849
 50
269.9946178212960035
 51
0.005382178694183
  0
ARC
  5
CBB3
  8
0
 10
4783.359202144010851
 20
235.4931845236895072
 30
0.0
 40
1.715735684155498
 50
0.3557752309216646
 51
25.1590023712376301
  0
LINE
  5
CBB4
  8
0
 10
4787.7703716273408645
 20
236.2841927972575888
 30
0.0
 11
4787.7696569472391275
 21
236.2330109273576113
 31
0.0
  0
LINE
  5
CBB5
  8
0
 10
4787.0532421899888504
 20
236.2330109273576113
 30
0.0
 11
4787.0546304561403304
 21
236.2251376791575979
 31
0.0
  0
LINE
  5
CBB6
  8
0
 10
4787.761673022040668
 20
236.2251376791575979
 30
0.0
 11
4787.7696569472391275
 21
236.2330109273576113
 31
0.0
  0
LINE
  5
CBB7
  8
0
 10
4786.317142122239602
 20
236.2330109273576113
 30
0.0
 11
4787.7696569472391275
 21
236.2330109273576113
 31
0.0
  0
LINE
  5
CBB8
  8
0
 10
4788.8754825602409255
 20
236.2841927972575888
 30
0.0
 11
4788.8761972403399341
 21
236.2330109273576113
 31
0.0
  0
LINE
  5
CBB9
  8
0
 10
4789.5926119975920301
 20
236.2330109273576113
 30
0.0
 11
4789.5912237314405502
 21
236.2251376791575979
 31
0.0
  0
LINE
  5
CBBA
  8
0
 10
4788.8841811655402125
 20
236.2251376791575979
 30
0.0
 11
4788.8761972403399341
 21
236.2330109273576113
 31
0.0
  0
LINE
  5
CBBB
  8
0
 10
4788.8841811655402125
 20
236.2251376791575979
 30
0.0
 11
4790.3207281401400905
 21
236.2251376791575979
 31
0.0
  0
LINE
  5
CBBC
  8
0
 10
4790.329426745440287
 20
236.2841927972575888
 30
0.0
 11
4790.328712065340369
 21
236.2330109273576113
 31
0.0
  0
LINE
  5
CBBD
  8
0
 10
4789.612297308088273
 20
236.2330109273576113
 30
0.0
 11
4789.6136855742406624
 21
236.2251376791575979
 31
0.0
  0
LINE
  5
CBBE
  8
0
 10
4790.3207281401400905
 20
236.2251376791575979
 30
0.0
 11
4790.328712065340369
 21
236.2330109273576113
 31
0.0
  0
LINE
  5
CBBF
  8
0
 10
4788.8761972403399341
 20
236.2330109273576113
 30
0.0
 11
4790.328712065340369
 21
236.2330109273576113
 31
0.0
  0
LINE
  5
CBC0
  8
0
 10
4791.4345376783903703
 20
236.2841927972575888
 30
0.0
 11
4791.4352523584902883
 21
236.2330109273576113
 31
0.0
  0
LINE
  5
CBC1
  8
0
 10
4792.1516671157423843
 20
236.2330109273576113
 30
0.0
 11
4792.1502788495899949
 21
236.2251376791575979
 31
0.0
  0
LINE
  5
CBC2
  8
0
 10
4791.4432362836896573
 20
236.2251376791575979
 30
0.0
 11
4791.4352523584902883
 21
236.2330109273576113
 31
0.0
  0
LINE
  5
CBC3
  8
0
 10
4791.4432362836896573
 20
236.2251376791575979
 30
0.0
 11
4792.8797832582913543
 21
236.2251376791575979
 31
0.0
  0
LINE
  5
CBC4
  8
0
 10
4792.8884818635906413
 20
236.2841927972575888
 30
0.0
 11
4792.8877671834907233
 21
236.2330109273576113
 31
0.0
  0
LINE
  5
CBC5
  8
0
 10
4792.1713524262386272
 20
236.2330109273576113
 30
0.0
 11
4792.1727406923891976
 21
236.2251376791575979
 31
0.0
  0
LINE
  5
CBC6
  8
0
 10
4792.8797832582913543
 20
236.2251376791575979
 30
0.0
 11
4792.8877671834907233
 21
236.2330109273576113
 31
0.0
  0
LINE
  5
CBC7
  8
0
 10
4791.4352523584902883
 20
236.2330109273576113
 30
0.0
 11
4792.8877671834907233
 21
236.2330109273576113
 31
0.0
  0
LINE
  5
CBC8
  8
0
 10
4793.9935927964907023
 20
236.2841927972575888
 30
0.0
 11
4793.9943074765897109
 21
236.2330109273576113
 31
0.0
  0
LINE
  5
CBC9
  8
0
 10
4794.7107222338427164
 20
236.2330109273576113
 30
0.0
 11
4794.709333967690327
 21
236.2251376791575979
 31
0.0
  0
LINE
  5
CBCA
  8
0
 10
4794.0022914017908988
 20
236.2251376791575979
 30
0.0
 11
4793.9943074765897109
 21
236.2330109273576113
 31
0.0
  0
LINE
  5
CBCB
  8
0
 10
4794.0022914017908988
 20
236.2251376791575979
 30
0.0
 11
4795.4388383763898673
 21
236.2251376791575979
 31
0.0
  0
LINE
  5
CBCC
  8
0
 10
4795.4475369816900638
 20
236.2841927972575888
 30
0.0
 11
4795.4468223015901458
 21
236.2330109273576113
 31
0.0
  0
LINE
  5
CBCD
  8
0
 10
4794.7304075443389593
 20
236.2330109273576113
 30
0.0
 11
4794.7317958104904392
 21
236.2251376791575979
 31
0.0
  0
LINE
  5
CBCE
  8
0
 10
4795.4388383763898673
 20
236.2251376791575979
 30
0.0
 11
4795.4468223015901458
 21
236.2330109273576113
 31
0.0
  0
LINE
  5
CBCF
  8
0
 10
4793.9943074765897109
 20
236.2330109273576113
 30
0.0
 11
4795.4468223015901458
 21
236.2330109273576113
 31
0.0
  0
ENDSEC
  0
EOF
