  0
SECTION
  2
HEADER
  9
$ACADVER
  1
AC1009
  9
$INSBASE
 10
4791.8867104495893727
 20
244.4802940781518998
 30
0.0
  9
$EXTMIN
 10
4785.2353572641886785
 20
242.4627991604517945
 30
0.0
  9
$EXTMAX
 10
4798.5380636349900669
 20
246.4977889958518915
 30
0.0
  9
$LIMMIN
 10
0.0
 20
0.0
  9
$LIMMAX
 10
11.6929133858000007
 20
8.2677165353999982
  9
$ORTHOMODE
 70
     1
  9
$REGENMODE
 70
     1
  9
$FILLMODE
 70
     1
  9
$QTEXTMODE
 70
     0
  9
$MIRRTEXT
 70
     0
  9
$DRAGMODE
 70
     2
  9
$LTSCALE
 40
0.6431102362
  9
$OSMODE
 70
  4095
  9
$ATTMODE
 70
     1
  9
$TEXTSIZE
 40
0.2
  9
$TRACEWID
 40
0.05
  9
$TEXTSTYLE
  7
STANDARD
  9
$CLAYER
  8
0
  9
$CELTYPE
  6
BYLAYER
  9
$CECOLOR
 62
   256
  9
$DIMSCALE
 40
1.0
  9
$DIMASZ
 40
0.1875
  9
$DIMEXO
 40
0.0625
  9
$DIMDLI
 40
0.4443307087
  9
$DIMRND
 40
0.0
  9
$DIMDLE
 40
0.0
  9
$DIMEXE
 40
0.125
  9
$DIMTP
 40
0.01
  9
$DIMTM
 40
0.01
  9
$DIMTXT
 40
2.0
  9
$DIMCEN
 40
0.1052362205
  9
$DIMTSZ
 40
0.0
  9
$DIMTOL
 70
     1
  9
$DIMLIM
 70
     0
  9
$DIMTIH
 70
     1
  9
$DIMTOH
 70
     1
  9
$DIMSE1
 70
     0
  9
$DIMSE2
 70
     0
  9
$DIMTAD
 70
     0
  9
$DIMZIN
 70
     0
  9
$DIMBLK
  1

  9
$DIMASO
 70
     1
  9
$DIMSHO
 70
     1
  9
$DIMPOST
  1
\X
  9
$DIMAPOST
  1

  9
$DIMALT
 70
     1
  9
$DIMALTD
 70
     2
  9
$DIMALTF
 40
25.3999999999999986
  9
$DIMLFAC
 40
1.0
  9
$DIMTOFL
 70
     0
  9
$DIMTVP
 40
0.0
  9
$DIMTIX
 70
     0
  9
$DIMSOXD
 70
     0
  9
$DIMSAH
 70
     0
  9
$DIMBLK1
  1

  9
$DIMBLK2
  1

  9
$DIMSTYLE
  2
STANDARD
  9
$DIMCLRD
 70
     0
  9
$DIMCLRE
 70
     0
  9
$DIMCLRT
 70
     0
  9
$DIMTFAC
 40
1.0
  9
$DIMGAP
 40
0.09
  9
$LUNITS
 70
     2
  9
$LUPREC
 70
     4
  9
$SKETCHINC
 40
0.1
  9
$FILLETRAD
 40
0.0
  9
$AUNITS
 70
     0
  9
$AUPREC
 70
     0
  9
$MENU
  1
.
  9
$ELEVATION
 40
0.0
  9
$PELEVATION
 40
0.0
  9
$THICKNESS
 40
0.0
  9
$LIMCHECK
 70
     0
  9
$BLIPMODE
 70
     0
  9
$CHAMFERA
 40
0.0
  9
$CHAMFERB
 40
0.0
  9
$SKPOLY
 70
     0
  9
$TDCREATE
 40
2458060.468368056230247
  9
$TDUPDATE
 40
2459271.7321527781896293
  9
$TDINDWG
 40
0.3574028935
  9
$TDUSRTIMER
 40
0.3574028935
  9
$USRTIMER
 70
     1
  9
$ANGBASE
 50
0.0
  9
$ANGDIR
 70
     0
  9
$PDMODE
 70
     0
  9
$PDSIZE
 40
0.3125
  9
$PLINEWID
 40
0.0
  9
$COORDS
 70
     1
  9
$SPLFRAME
 70
     0
  9
$SPLINETYPE
 70
     6
  9
$SPLINESEGS
 70
     8
  9
$ATTDIA
 70
     1
  9
$ATTREQ
 70
     1
  9
$HANDLING
 70
     1
  9
$HANDSEED
  5
CDA3
  9
$SURFTAB1
 70
     6
  9
$SURFTAB2
 70
     6
  9
$SURFTYPE
 70
     6
  9
$SURFU
 70
     6
  9
$SURFV
 70
     6
  9
$UCSNAME
  2

  9
$UCSORG
 10
0.0
 20
0.0
 30
0.0
  9
$UCSXDIR
 10
1.0
 20
0.0
 30
0.0
  9
$UCSYDIR
 10
0.0
 20
1.0
 30
0.0
  9
$PUCSNAME
  2

  9
$PUCSORG
 10
0.0
 20
0.0
 30
0.0
  9
$PUCSXDIR
 10
1.0
 20
0.0
 30
0.0
  9
$PUCSYDIR
 10
0.0
 20
1.0
 30
0.0
  9
$USERI1
 70
     0
  9
$USERI2
 70
     0
  9
$USERI3
 70
     0
  9
$USERI4
 70
     0
  9
$USERI5
 70
     0
  9
$USERR1
 40
0.0
  9
$USERR2
 40
0.0
  9
$USERR3
 40
0.0
  9
$USERR4
 40
0.0
  9
$USERR5
 40
0.0
  9
$WORLDVIEW
 70
     1
  9
$SHADEDGE
 70
     3
  9
$SHADEDIF
 70
    70
  9
$TILEMODE
 70
     1
  9
$MAXACTVP
 70
    64
  9
$PLIMCHECK
 70
     0
  9
$PEXTMIN
 10
1.0000000000000000E+20
 20
1.0000000000000000E+20
 30
1.0000000000000000E+20
  9
$PEXTMAX
 10
-1.0000000000000000E+20
 20
-1.0000000000000000E+20
 30
-1.0000000000000000E+20
  9
$PLIMMIN
 10
0.0
 20
0.0
  9
$PLIMMAX
 10
12.0
 20
9.0
  9
$UNITMODE
 70
     0
  9
$VISRETAIN
 70
     1
  9
$PLINEGEN
 70
     0
  9
$PSLTSCALE
 70
     1
  0
ENDSEC
  0
SECTION
  2
TABLES
  0
TABLE
  2
VPORT
 70
     1
  0
VPORT
  2
*ACTIVE
 70
     0
 10
0.0
 20
0.0
 11
1.0
 21
1.0
 12
0.0
 22
0.0
 13
0.0
 23
0.0
 14
1.0
 24
1.0
 15
0.0
 25
0.0
 16
0.0
 26
0.0
 36
39.6683126369527628
 17
4791.8867187499990905
 27
244.4802932739258097
 37
0.0
 40
13.9014195669591007
 41
2.1375838926174491
 42
50.0
 43
0.0
 44
0.0
 50
0.0
 51
0.0
 71
     0
 72
   100
 73
     1
 74
     1
 75
     0
 76
     0
 77
     0
 78
     0
  0
ENDTAB
  0
TABLE
  2
LTYPE
 70
     2
  0
LTYPE
  2
CONTINUOUS
 70
     0
  3
Solid line
 72
    65
 73
     0
 40
0.0
  0
LTYPE
  2
PHANTOM2
 70
     0
  3
___ _ _ ___ _ _ ___ _ _ ___ _ _
 72
    65
 73
     6
 40
1.25
 49
0.625
 49
-0.125
 49
0.125
 49
-0.125
 49
0.125
 49
-0.125
  0
ENDTAB
  0
TABLE
  2
LAYER
 70
     2
  0
LAYER
  2
0
 70
     0
 62
   255
  6
CONTINUOUS
  0
LAYER
  2
DEFPOINTS
 70
     0
 62
     7
  6
CONTINUOUS
  0
ENDTAB
  0
TABLE
  2
STYLE
 70
     1
  0
STYLE
  2
STANDARD
 70
     0
 40
0.0
 41
0.8
 50
0.0
 71
     0
 42
0.2
  3
txt
  4

  0
ENDTAB
  0
TABLE
  2
VIEW
 70
     0
  0
ENDTAB
  0
TABLE
  2
UCS
 70
     0
  0
ENDTAB
  0
TABLE
  2
APPID
 70
     9
  0
APPID
  2
ACAD
 70
     0
  0
APPID
  2
ACAD_MLEADERVER
 70
     0
  0
APPID
  2
ACAD_EXEMPT_FROM_CAD_STANDARDS
 70
     0
  0
APPID
  2
ACAD_NAV_VCDISPLAY
 70
     0
  0
APPID
  2
ACAECLAYERSTANDARD
 70
     0
  0
APPID
  2
ACCMTRANSPARENCY
 70
     0
  0
APPID
  2
ACAD_DSTYLE_DIMJAG
 70
     0
  0
APPID
  2
ACAD_DSTYLE_DIMTALN
 70
     0
  0
APPID
  2
ACDBATTR
 70
     0
  0
ENDTAB
  0
TABLE
  2
DIMSTYLE
 70
     1
  0
DIMSTYLE
  2
STANDARD
 70
     0
  3

  4

  5

  6

  7

 40
1.0
 41
0.1875
 42
0.0625
 43
0.38
 44
0.125
 45
0.0
 46
0.0
 47
0.01
 48
0.01
140
0.15625
141
0.09
142
0.0
143
25.3999999999999986
144
1.0
145
0.0
146
1.0
147
0.09
 71
     1
 72
     0
 73
     1
 74
     1
 75
     0
 76
     0
 77
     0
 78
     4
170
     0
171
     2
172
     0
173
     0
174
     0
175
     0
176
     0
177
     0
178
     0
  0
ENDTAB
  0
ENDSEC
  0
SECTION
  2
BLOCKS
  0
BLOCK
  8
0
  2
$MODEL_SPACE
 70
     0
 10
0.0
 20
0.0
 30
0.0
  3
$MODEL_SPACE
  1

  0
ENDBLK
  5
21
  8
0
  0
BLOCK
 67
     1
  8
0
  2
$PAPER_SPACE
 70
     0
 10
0.0
 20
0.0
 30
0.0
  3
$PAPER_SPACE
  1

  0
ENDBLK
  5
1D
 67
     1
  8
0
  0
ENDSEC
  0
SECTION
  2
ENTITIES
  0
ATTDEF
  5
3930
  8
DEFPOINTS
 10
4791.88110785176832
 20
244.4783312432516027
 30
0.0
 40
0.001
  1
K-26347W-9
  3

  2
MODELNUMBER
 70
     0
1001
ACDBATTR
1070
     0
1070
     1
  0
ATTDEF
  5
3931
  8
DEFPOINTS
 10
4791.88110785176832
 20
244.4766645765849944
 30
0.0
 40
0.001
  1

  3

  2
TRADENAME
 70
     0
1001
ACDBATTR
1070
     0
1070
     1
  0
ATTDEF
  5
3932
  8
DEFPOINTS
 10
4791.88110785176832
 20
244.4749979099183008
 30
0.0
 40
0.001
  1
VALVE TRIM
  3

  2
PRODUCT
 70
     0
1001
ACDBATTR
1070
     0
1070
     1
  0
LINE
  5
CBC5
  8
0
 10
4789.9604141512900242
 20
246.3947793528517991
 30
0.0
 11
4789.9604141512900242
 21
246.3892956466517887
 31
0.0
  0
LINE
  5
CBC6
  8
0
 10
4789.9604141512900242
 20
242.5712924346518093
 30
0.0
 11
4789.9604141512900242
 21
242.5658088034518016
 31
0.0
  0
LINE
  5
CBC7
  8
0
 10
4790.1791484801897241
 20
242.5658088034518016
 30
0.0
 11
4790.1791484801897241
 21
242.5712924346518093
 31
0.0
  0
LINE
  5
CBC8
  8
0
 10
4790.1791484801897241
 20
246.3892956466517887
 30
0.0
 11
4790.1791484801897241
 21
246.3947793528517991
 31
0.0
  0
LINE
  5
CBC9
  8
0
 10
4790.1791484801897241
 20
242.5658088034518016
 30
0.0
 11
4789.9604141512900242
 21
242.5658088034518016
 31
0.0
  0
LINE
  5
CBCA
  8
0
 10
4789.9604141512900242
 20
246.3947793528517991
 30
0.0
 11
4790.1791484801897241
 21
246.3947793528517991
 31
0.0
  0
LINE
  5
CBCB
  8
0
 10
4785.2353572641886785
 20
246.3897428970518035
 30
0.0
 11
4785.2353572641886785
 21
242.5708452592517972
 31
0.0
  0
LINE
  5
CBCC
  8
0
 10
4785.3236146506897057
 20
246.3897428970518035
 30
0.0
 11
4785.3236146506897057
 21
242.5708452592517972
 31
0.0
  0
LINE
  5
CBCD
  8
0
 10
4785.3438504638761515
 20
246.3779318801979912
 30
0.0
 11
4785.3438506130032692
 21
242.5826563628058068
 31
0.0
  0
LINE
  5
CBCE
  8
0
 10
4788.0599387960901367
 20
243.2374058087519018
 30
0.0
 11
4788.0599387960901367
 21
243.3097374838714018
 31
0.0
  0
LINE
  5
CBCF
  8
0
 10
4788.2075765912886709
 20
245.6456068440517981
 30
0.0
 11
4788.2075765912886709
 21
244.5184139929517926
 31
0.0
  0
LINE
  5
CBD0
  8
0
 10
4790.083560843289888
 20
246.3814219307517988
 30
0.0
 11
4790.083560843289888
 21
242.5791663005520036
 31
0.0
  0
LINE
  5
CBD1
  8
0
 10
4790.0919164671886392
 20
242.5787193499519105
 30
0.0
 11
4790.0919164671886392
 21
246.3818688812519042
 31
0.0
  0
LINE
  5
CBD2
  8
0
 10
4791.3557944890890212
 20
245.1984796964518125
 30
0.0
 11
4791.3557944890890212
 21
244.5180282736261006
 31
0.0
  0
LINE
  5
CBD3
  8
0
 10
4791.3571828406893474
 20
245.2064849296517934
 30
0.0
 11
4791.3571828905896837
 21
244.5184139929517926
 31
0.0
  0
LINE
  5
CBD4
  8
0
 10
4798.4300175361941001
 20
242.4627991604517945
 30
0.0
 11
4792.4693876149885909
 21
242.4627991604517945
 31
0.0
  0
LINE
  5
CBD5
  8
0
 10
4791.9969466700904377
 20
242.4627991604517945
 30
0.0
 11
4785.3434033629901023
 21
242.4627991604517945
 31
0.0
  0
LINE
  5
CBD6
  8
0
 10
4785.3434033629901023
 20
242.5510565469517985
 30
0.0
 11
4798.4300175361895526
 21
242.5510565469517985
 31
0.0
  0
LINE
  5
CBD7
  8
0
 10
4788.3587567523645703
 20
243.2180404482517986
 30
0.0
 11
4788.0760906231898844
 21
243.2180404482517986
 31
0.0
  0
ARC
  5
CBD8
  8
0
 10
4788.2517419802743461
 20
244.3720165088147098
 30
0.0
 40
1.1672678131082701
 50
261.3452112089462958
 51
268.3152309382373915
  0
ARC
  5
CBD9
  8
0
 10
4791.3670253801901708
 20
244.4802940476517961
 30
0.0
 40
0.718273457
 50
90.8959107071028427
 51
270.0000024169756898
  0
ARC
  5
CBDA
  8
0
 10
4785.3458667541899558
 20
242.5733086504517075
 30
0.0
 40
0.1105369425859355
 50
181.2769812637710061
 51
268.7230187332193054
  0
ARC
  5
CBDB
  8
0
 10
4785.3439768947391713
 20
242.5714187910008945
 30
0.0
 40
0.0203703196190134
 50
181.6133910702091043
 51
268.3866089304058846
  0
ARC
  5
CBDC
  8
0
 10
4788.0806062225055939
 20
243.238225176247596
 30
0.0
 40
0.0206836621975449
 50
182.2703226497199012
 51
257.3897864563717235
  0
ARC
  5
CBDD
  8
0
 10
4785.3559127271473699
 20
242.5833545392989095
 30
0.0
 40
0.0120823030938492
 50
183.312684824511507
 51
266.6865358579299823
  0
ARC
  5
CBDE
  8
0
 10
4788.2174191109888852
 20
244.4802940781518998
 30
0.0
 40
1.1811023622000001
 50
89.9997779726302127
 51
270.0002220273697731
  0
ARC
  5
CBDF
  8
0
 10
4788.2174191109888852
 20
244.4802940781518998
 30
0.0
 40
1.1653543306999989
 50
89.9997749722807754
 51
90.4839228102182034
  0
ARC
  5
CBE0
  8
0
 10
4788.2174191109888852
 20
244.4802940781518998
 30
0.0
 40
0.0393700787
 50
104.4775121858777993
 51
270.0066608211604944
  0
ARC
  5
CBE1
  8
0
 10
4785.3490544506903461
 20
246.3840918093513892
 30
0.0
 40
0.1138375377908765
 50
92.845428774171296
 51
177.1545712229228116
  0
ARC
  5
CBE2
  8
0
 10
4785.344050763773339
 20
246.3890954962689932
 30
0.0
 40
0.0204463650976407
 50
91.8144806298344207
 51
178.1855193707501996
  0
ARC
  5
CBE3
  8
0
 10
4785.3558945876311554
 20
246.3772515135424044
 30
0.0
 40
0.0120633252387128
 50
93.232386521523793
 51
176.7668256280977914
  0
ARC
  5
CBE4
  8
0
 10
4791.3670254101898536
 20
244.4802940781518998
 30
0.0
 40
0.7440944882
 50
89.9999999769151771
 51
270.0000000230847945
  0
ARC
  5
CBE5
  8
0
 10
4791.3670254101898536
 20
244.4802940781518998
 30
0.0
 40
0.7262574118999999
 50
89.9999999763419538
 51
270.0000000236581172
  0
ARC
  5
CBE6
  8
0
 10
4791.3670254101898536
 20
244.4802940781518998
 30
0.0
 40
0.0393700787
 50
104.4775121858777993
 51
270.0000004365793984
  0
LINE
  5
CBE7
  8
0
 10
4791.3571828406893474
 20
245.2064849296517934
 30
0.0
 11
4791.3557944890890212
 21
245.1984796964518125
 31
0.0
  0
LINE
  5
CBE8
  8
0
 10
4798.5380636349900669
 20
246.3897428970518035
 30
0.0
 11
4798.5380636349900669
 21
242.5708452592517972
 31
0.0
  0
LINE
  5
CBE9
  8
0
 10
4798.4498062484899492
 20
246.3897428970518035
 30
0.0
 11
4798.4498062484899492
 21
242.5708452592517972
 31
0.0
  0
ARC
  5
CBEA
  8
0
 10
4798.4275541449887896
 20
242.5733086504517075
 30
0.0
 40
0.1105369425859355
 50
271.2769812667806946
 51
358.7230187362274023
  0
ARC
  5
CBEB
  8
0
 10
4798.4294440044395742
 20
242.5714187910008945
 30
0.0
 40
0.0203703196190134
 50
271.6133910695941154
 51
358.3866089297908957
  0
ARC
  5
CBEC
  8
0
 10
4798.4243664484893088
 20
246.3840918093513892
 30
0.0
 40
0.1138375377908765
 50
2.8454287770771862
 51
87.1545712258287466
  0
ARC
  5
CBED
  8
0
 10
4798.429370135408135
 20
246.3890954962689932
 30
0.0
 40
0.0204463650976407
 50
1.814480629249793
 51
88.1855193701655651
  0
LINE
  5
CBEE
  8
0
 10
4785.3434033629910118
 20
246.4977889958518062
 30
0.0
 11
4798.4300175361886431
 21
246.4977889958518062
 31
0.0
  0
LINE
  5
CBEF
  8
0
 10
4785.3434033629891928
 20
246.4095316093518022
 30
0.0
 11
4798.4300175361895526
 21
246.4095316093518022
 31
0.0
  0
LINE
  5
CBF0
  8
0
 10
4788.3749085796889631
 20
243.2374058087519018
 30
0.0
 11
4788.3749085796889631
 21
243.3097374838714018
 31
0.0
  0
LINE
  5
CBF1
  8
0
 10
4788.2272707844886099
 20
245.6456068440517981
 30
0.0
 11
4788.2272707844886099
 21
244.5184139929517926
 31
0.0
  0
ARC
  5
CBF2
  8
0
 10
4788.1831053955056632
 20
244.3720165088147098
 30
0.0
 40
1.1672678131082701
 50
271.6847690617626085
 51
278.6547887910537042
  0
ARC
  5
CBF3
  8
0
 10
4788.3542411532744154
 20
243.238225176247596
 30
0.0
 40
0.0206836621975449
 50
282.6102135436282197
 51
357.7296773502799851
  0
ARC
  5
CBF4
  8
0
 10
4788.2174282647893051
 20
244.4802940781518998
 30
0.0
 40
1.1811023622000001
 50
269.9997779726302269
 51
90.0002220273697731
  0
ARC
  5
CBF5
  8
0
 10
4788.2174282647893051
 20
244.4802940781518998
 30
0.0
 40
1.1653543306999989
 50
89.5160771897817966
 51
90.0002250277192246
  0
ARC
  5
CBF6
  8
0
 10
4788.2174282647893051
 20
244.4802940781518998
 30
0.0
 40
0.0393700787
 50
269.9933391788395056
 51
75.5224878141222291
  0
ARC
  5
CBF7
  8
0
 10
4790.0752616991039758
 20
242.5795917449264039
 30
0.0
 40
0.0083100419464756
 50
272.932440734033321
 51
357.0653784381977971
  0
ARC
  5
CBF8
  8
0
 10
4790.0752505646596546
 20
246.3809853514044903
 30
0.0
 40
0.0083217385468642
 50
3.0072613544995379
 51
86.994920200901305
  0
ARC
  5
CBF9
  8
0
 10
4790.1003395336429094
 20
242.5792683797951099
 30
0.0
 40
0.0084409408394379
 50
183.7293610503867001
 51
250.8935139519743132
  0
ARC
  5
CBFA
  8
0
 10
4790.1004118834689507
 20
246.3812475044456107
 30
0.0
 40
0.0085181105238487
 50
109.1213066882161939
 51
175.8166873136806885
  0
LINE
  5
CBFB
  8
0
 10
4792.6342946952900093
 20
242.5787193499519958
 30
0.0
 11
4792.6342946952900093
 21
246.3818688812517053
 31
0.0
  0
ARC
  5
CBFC
  8
0
 10
4792.6258716288348296
 20
242.5792683797951099
 30
0.0
 40
0.0084409408394379
 50
289.1064860480257153
 51
356.2706389496133284
  0
ARC
  5
CBFD
  8
0
 10
4792.6257992790106073
 20
246.3812475044456107
 30
0.0
 40
0.0085181105238487
 50
4.1833126863192813
 51
70.8786933117837634
  0
LINE
  5
CBFE
  8
0
 10
4792.6509715852898807
 20
242.5787193499519105
 30
0.0
 11
4792.6509715852898807
 21
246.3818688812519042
 31
0.0
  0
ARC
  5
CBFF
  8
0
 10
4792.6593946517432414
 20
242.5792683797951099
 30
0.0
 40
0.0084409408394379
 50
183.7293610503867001
 51
250.8935139519743132
  0
ARC
  5
CC00
  8
0
 10
4792.6594670015692827
 20
246.3812475044456107
 30
0.0
 40
0.0085181105238487
 50
109.1213066882161939
 51
175.8166873136806885
  0
LINE
  5
CC01
  8
0
 10
4795.1933498133903413
 20
242.5787193499519105
 30
0.0
 11
4795.1933498133903413
 21
246.3818688812519042
 31
0.0
  0
ARC
  5
CC02
  8
0
 10
4795.1849267469360711
 20
242.5792683797951099
 30
0.0
 40
0.0084409408394379
 50
289.1064860480257153
 51
356.2706389496133284
  0
ARC
  5
CC03
  8
0
 10
4795.1848543971100298
 20
246.3812475044456107
 30
0.0
 40
0.0085181105238487
 50
4.1833126863192813
 51
70.8786933117837634
  0
LINE
  5
CC04
  8
0
 10
4795.2100267033893033
 20
242.5787193499519105
 30
0.0
 11
4795.2100267033893033
 21
246.3818688812519042
 31
0.0
  0
ARC
  5
CC05
  8
0
 10
4795.218449769842664
 20
242.5792683797951099
 30
0.0
 40
0.0084409408394379
 50
183.7293610503867001
 51
250.8935139519743132
  0
ARC
  5
CC06
  8
0
 10
4795.2185221196696148
 20
246.3812475044456107
 30
0.0
 40
0.0085181105238487
 50
109.1213066882161939
 51
175.8166873136806885
  0
LINE
  5
CC07
  8
0
 10
4797.7524049314897638
 20
242.5787193499519105
 30
0.0
 11
4797.7524049314897638
 21
246.3818688812519042
 31
0.0
  0
ARC
  5
CC08
  8
0
 10
4797.7439818650345842
 20
242.5792683797951099
 30
0.0
 40
0.0084409408394379
 50
289.1064860480257153
 51
356.2706389496133284
  0
ARC
  5
CC09
  8
0
 10
4797.7439095152112714
 20
246.3812475044456107
 30
0.0
 40
0.0085181105238487
 50
4.1833126863192813
 51
70.8786933117837634
  0
LINE
  5
CC0A
  8
0
 10
4797.7690818214887258
 20
242.5787193499519105
 30
0.0
 11
4797.7690818214887258
 21
246.3818688812519042
 31
0.0
  0
ARC
  5
CC0B
  8
0
 10
4797.777504887942996
 20
242.5792683797951099
 30
0.0
 40
0.0084409408394379
 50
183.7293610503867001
 51
250.8935139519743132
  0
ARC
  5
CC0C
  8
0
 10
4797.7775772377690373
 20
246.3812475044456107
 30
0.0
 40
0.0085181105238487
 50
109.1213066882161939
 51
175.8166873136806885
  0
LINE
  5
CC0D
  8
0
 10
4798.4339545440898291
 20
242.5787193499517969
 30
0.0
 11
4798.4339545440898291
 21
246.3818688812519042
 31
0.0
  0
ARC
  5
CC0E
  8
0
 10
4798.425531477635559
 20
242.5792683797951099
 30
0.0
 40
0.0084409408394379
 50
289.1064860480257153
 51
356.2706389496133284
  0
ARC
  5
CC0F
  8
0
 10
4798.4254591278104272
 20
246.3812475044456107
 30
0.0
 40
0.0085181105238487
 50
4.1833126863192813
 51
70.8786933117837634
  0
LINE
  5
CC10
  8
0
 10
4791.3782563318900429
 20
245.1984796964518125
 30
0.0
 11
4791.3782563318900429
 21
244.5180282736261006
 31
0.0
  0
LINE
  5
CC11
  8
0
 10
4791.3768679802888073
 20
245.2064849296517934
 30
0.0
 11
4791.3768679303893805
 21
244.5184139929517926
 31
0.0
  0
ARC
  5
CC12
  8
0
 10
4791.3670254407898028
 20
244.4802940476517961
 30
0.0
 40
0.718273457
 50
269.9999975830243102
 51
89.1040892928971431
  0
ARC
  5
CC13
  8
0
 10
4791.3670254107901201
 20
244.4802940781518998
 30
0.0
 40
0.7440944882
 50
269.9999999769150918
 51
90.0000000230847945
  0
ARC
  5
CC14
  8
0
 10
4791.3670254107901201
 20
244.4802940781518998
 30
0.0
 40
0.7262574118999999
 50
269.9999999763419964
 51
90.000000023658032
  0
ARC
  5
CC15
  8
0
 10
4791.3670254107901201
 20
244.4802940781518998
 30
0.0
 40
0.0393700787
 50
269.9999995634207153
 51
75.5224878141222291
  0
LINE
  5
CC16
  8
0
 10
4791.3768679802888073
 20
245.2064849296517934
 30
0.0
 11
4791.3782563318900429
 21
245.1984796964518125
 31
0.0
  0
LINE
  5
CC17
  8
0
 10
4793.9148496071893533
 20
245.1984796964518125
 30
0.0
 11
4793.9148496071893533
 21
244.5180282736261006
 31
0.0
  0
LINE
  5
CC18
  8
0
 10
4793.9162379587887699
 20
245.2064849296517934
 30
0.0
 11
4793.9162380086900157
 21
244.5184139929517926
 31
0.0
  0
ARC
  5
CC19
  8
0
 10
4793.9260804982886839
 20
244.4802940476517961
 30
0.0
 40
0.718273457
 50
90.8959107071028427
 51
270.0000024169756898
  0
ARC
  5
CC1A
  8
0
 10
4793.9260805282892761
 20
244.4802940781518998
 30
0.0
 40
0.7440944882
 50
89.9999999769151771
 51
270.0000000230847945
  0
ARC
  5
CC1B
  8
0
 10
4793.9260805282892761
 20
244.4802940781518998
 30
0.0
 40
0.7262574118999999
 50
89.9999999763419538
 51
270.0000000236581172
  0
ARC
  5
CC1C
  8
0
 10
4793.9260805282892761
 20
244.4802940781518998
 30
0.0
 40
0.0393700787
 50
104.4775121858777993
 51
270.0000004365793984
  0
LINE
  5
CC1D
  8
0
 10
4793.9162379587887699
 20
245.2064849296517934
 30
0.0
 11
4793.9148496071893533
 21
245.1984796964518125
 31
0.0
  0
LINE
  5
CC1E
  8
0
 10
4793.937311449988556
 20
245.1984796964518125
 30
0.0
 11
4793.937311449988556
 21
244.5180282736261006
 31
0.0
  0
LINE
  5
CC1F
  8
0
 10
4793.9359230983900488
 20
245.2064849296517934
 30
0.0
 11
4793.935923048488803
 21
244.5184139929517926
 31
0.0
  0
ARC
  5
CC20
  8
0
 10
4793.9260805588901349
 20
244.4802940476517961
 30
0.0
 40
0.718273457
 50
269.9999975830243102
 51
89.1040892928971431
  0
ARC
  5
CC21
  8
0
 10
4793.9260805288904521
 20
244.4802940781518998
 30
0.0
 40
0.7440944882
 50
269.9999999769150918
 51
90.0000000230847945
  0
ARC
  5
CC22
  8
0
 10
4793.9260805288904521
 20
244.4802940781518998
 30
0.0
 40
0.7262574118999999
 50
269.9999999763419964
 51
90.000000023658032
  0
ARC
  5
CC23
  8
0
 10
4793.9260805288904521
 20
244.4802940781518998
 30
0.0
 40
0.0393700787
 50
269.9999995634207153
 51
75.5224878141222291
  0
LINE
  5
CC24
  8
0
 10
4793.9359230983900488
 20
245.2064849296517934
 30
0.0
 11
4793.937311449988556
 21
245.1984796964518125
 31
0.0
  0
LINE
  5
CC25
  8
0
 10
4796.473904725338798
 20
245.1984796964518125
 30
0.0
 11
4796.473904725338798
 21
244.5180282736261006
 31
0.0
  0
LINE
  5
CC26
  8
0
 10
4796.4752930769400336
 20
245.2064849296517934
 30
0.0
 11
4796.475293126838551
 21
244.5184139929517926
 31
0.0
  0
ARC
  5
CC27
  8
0
 10
4796.4851356164399476
 20
244.4802940476517961
 30
0.0
 40
0.718273457
 50
90.8959107071028427
 51
270.0000024169756898
  0
ARC
  5
CC28
  8
0
 10
4796.4851356464396304
 20
244.4802940781518998
 30
0.0
 40
0.7440944882
 50
89.9999999769151771
 51
270.0000000230847945
  0
ARC
  5
CC29
  8
0
 10
4796.4851356464396304
 20
244.4802940781518998
 30
0.0
 40
0.7262574118999999
 50
89.9999999763419538
 51
270.0000000236581172
  0
ARC
  5
CC2A
  8
0
 10
4796.4851356464396304
 20
244.4802940781518998
 30
0.0
 40
0.0393700787
 50
104.4775121858777993
 51
270.0000004365793984
  0
LINE
  5
CC2B
  8
0
 10
4796.4752930769400336
 20
245.2064849296517934
 30
0.0
 11
4796.473904725338798
 21
245.1984796964518125
 31
0.0
  0
LINE
  5
CC2C
  8
0
 10
4796.4963665681398197
 20
245.1984796964518125
 30
0.0
 11
4796.4963665681398197
 21
244.5180282736261006
 31
0.0
  0
LINE
  5
CC2D
  8
0
 10
4796.4949782165385841
 20
245.2064849296517934
 30
0.0
 11
4796.4949781666409763
 21
244.5184139929517926
 31
0.0
  0
ARC
  5
CC2E
  8
0
 10
4796.4851356770386701
 20
244.4802940476517961
 30
0.0
 40
0.718273457
 50
269.9999975830243102
 51
89.1040892928971431
  0
ARC
  5
CC2F
  8
0
 10
4796.4851356470389874
 20
244.4802940781518998
 30
0.0
 40
0.7440944882
 50
269.9999999769150918
 51
90.0000000230847945
  0
ARC
  5
CC30
  8
0
 10
4796.4851356470389874
 20
244.4802940781518998
 30
0.0
 40
0.7262574118999999
 50
269.9999999763419964
 51
90.000000023658032
  0
ARC
  5
CC31
  8
0
 10
4796.4851356470389874
 20
244.4802940781518998
 30
0.0
 40
0.0393700787
 50
269.9999995634207153
 51
75.5224878141222291
  0
LINE
  5
CC32
  8
0
 10
4796.4949782165385841
 20
245.2064849296517934
 30
0.0
 11
4796.4963665681398197
 21
245.1984796964518125
 31
0.0
  0
LINE
  5
CC34
  8
0
 10
4785.3552143865899779
 20
242.5712924346518093
 30
0.0
 11
4798.4282944074802799
 21
242.5712924346518093
 31
0.0
  0
LINE
  5
CC35
  8
0
 10
4785.3552143865899779
 20
246.3892956466517887
 30
0.0
 11
4798.4282493991086085
 21
246.3892956466517887
 31
0.0
  0
LINE
  5
CC36
  8
0
 10
4792.5194692693894467
 20
246.3947793528517991
 30
0.0
 11
4792.5194692693894467
 21
246.3892956466517887
 31
0.0
  0
LINE
  5
CC37
  8
0
 10
4792.5194692693894467
 20
242.5712924346518093
 30
0.0
 11
4792.5194692693894467
 21
242.5658088034518016
 31
0.0
  0
LINE
  5
CC38
  8
0
 10
4792.7382035982900561
 20
242.5658088034518016
 30
0.0
 11
4792.7382035982900561
 21
242.5712924346518093
 31
0.0
  0
LINE
  5
CC39
  8
0
 10
4792.7382035982900561
 20
246.3892956466517887
 30
0.0
 11
4792.7382035982900561
 21
246.3947793528517991
 31
0.0
  0
LINE
  5
CC3A
  8
0
 10
4792.7382035982900561
 20
242.5658088034518016
 30
0.0
 11
4792.5194692693894467
 21
242.5658088034518016
 31
0.0
  0
LINE
  5
CC3B
  8
0
 10
4792.5194692693894467
 20
246.3947793528517991
 30
0.0
 11
4792.7382035982900561
 21
246.3947793528517991
 31
0.0
  0
LINE
  5
CC3C
  8
0
 10
4795.0785243874897787
 20
246.3947793528517991
 30
0.0
 11
4795.0785243874897787
 21
246.3892956466517887
 31
0.0
  0
LINE
  5
CC3D
  8
0
 10
4795.0785243874897787
 20
242.5712924346518093
 30
0.0
 11
4795.0785243874897787
 21
242.5658088034518016
 31
0.0
  0
LINE
  5
CC3E
  8
0
 10
4795.2972587163903881
 20
242.5658088034518016
 30
0.0
 11
4795.2972587163903881
 21
242.5712924346518093
 31
0.0
  0
LINE
  5
CC3F
  8
0
 10
4795.2972587163903881
 20
246.3892956466517887
 30
0.0
 11
4795.2972587163903881
 21
246.3947793528517991
 31
0.0
  0
LINE
  5
CC40
  8
0
 10
4795.2972587163903881
 20
242.5658088034518016
 30
0.0
 11
4795.0785243874897787
 21
242.5658088034518016
 31
0.0
  0
LINE
  5
CC41
  8
0
 10
4795.0785243874897787
 20
246.3947793528517991
 30
0.0
 11
4795.2972587163903881
 21
246.3947793528517991
 31
0.0
  0
LINE
  5
CC42
  8
0
 10
4797.6375795055901108
 20
246.3947793528517991
 30
0.0
 11
4797.6375795055901108
 21
246.3892956466517887
 31
0.0
  0
LINE
  5
CC43
  8
0
 10
4797.6375795055901108
 20
242.5712924346518093
 30
0.0
 11
4797.6375795055901108
 21
242.5658088034518016
 31
0.0
  0
LINE
  5
CC44
  8
0
 10
4797.8563138344889012
 20
242.5658088034518016
 30
0.0
 11
4797.8563138344889012
 21
242.5712924346518093
 31
0.0
  0
LINE
  5
CC45
  8
0
 10
4797.8563138344889012
 20
246.3892956466517887
 30
0.0
 11
4797.8563138344889012
 21
246.3947793528517991
 31
0.0
  0
LINE
  5
CC46
  8
0
 10
4797.8563138344889012
 20
242.5658088034518016
 30
0.0
 11
4797.6375795055901108
 21
242.5658088034518016
 31
0.0
  0
LINE
  5
CC47
  8
0
 10
4797.6375795055901108
 20
246.3947793528517991
 30
0.0
 11
4797.8563138344889012
 21
246.3947793528517991
 31
0.0
  0
LINE
  5
CC48
  8
0
 10
4792.4693876149885909
 20
242.4655479895517942
 30
0.0
 11
4791.9969466700904377
 21
242.4655479895517942
 31
0.0
  0
LINE
  5
CC49
  8
0
 10
4791.9969466700904377
 20
242.4655479895517942
 30
0.0
 11
4791.9969466700904377
 21
242.4627991604517945
 31
0.0
  0
LINE
  5
CC4A
  8
0
 10
4792.4693876149885909
 20
242.4655479895517942
 30
0.0
 11
4792.4693876149885909
 21
242.4627991604517945
 31
0.0
  0
ENDSEC
  0
EOF
