  0
SECTION
  2
HEADER
  9
$ACADVER
  1
AC1009
  9
$INSBASE
 10
3562.2201596485770096
 20
133.9822704671115901
 30
0.0
  9
$EXTMIN
 10
3557.987416751012006
 20
133.6876715504718049
 30
-0.0000000000000058
  9
$EXTMAX
 10
3566.4221440785518098
 20
135.016451815642796
 30
0.0000000000000104
  9
$LIMMIN
 10
0.0
 20
0.0
  9
$LIMMAX
 10
11.6929133858000007
 20
8.2677165353999982
  9
$ORTHOMODE
 70
     0
  9
$REGENMODE
 70
     1
  9
$FILLMODE
 70
     1
  9
$QTEXTMODE
 70
     0
  9
$MIRRTEXT
 70
     0
  9
$DRAGMODE
 70
     2
  9
$LTSCALE
 40
0.6431102362
  9
$OSMODE
 70
  2039
  9
$ATTMODE
 70
     1
  9
$TEXTSIZE
 40
0.2
  9
$TRACEWID
 40
0.05
  9
$TEXTSTYLE
  7
STANDARD
  9
$CLAYER
  8
0
  9
$CELTYPE
  6
BYLAYER
  9
$CECOLOR
 62
   256
  9
$DIMSCALE
 40
1.0
  9
$DIMASZ
 40
0.1875
  9
$DIMEXO
 40
0.0625
  9
$DIMDLI
 40
0.4443307087
  9
$DIMRND
 40
0.0
  9
$DIMDLE
 40
0.0
  9
$DIMEXE
 40
0.125
  9
$DIMTP
 40
0.01
  9
$DIMTM
 40
0.01
  9
$DIMTXT
 40
2.0
  9
$DIMCEN
 40
0.1052362205
  9
$DIMTSZ
 40
0.0
  9
$DIMTOL
 70
     1
  9
$DIMLIM
 70
     0
  9
$DIMTIH
 70
     1
  9
$DIMTOH
 70
     1
  9
$DIMSE1
 70
     0
  9
$DIMSE2
 70
     0
  9
$DIMTAD
 70
     0
  9
$DIMZIN
 70
     0
  9
$DIMBLK
  1

  9
$DIMASO
 70
     1
  9
$DIMSHO
 70
     1
  9
$DIMPOST
  1
\X
  9
$DIMAPOST
  1

  9
$DIMALT
 70
     1
  9
$DIMALTD
 70
     2
  9
$DIMALTF
 40
25.3999999999999986
  9
$DIMLFAC
 40
1.0
  9
$DIMTOFL
 70
     0
  9
$DIMTVP
 40
0.0
  9
$DIMTIX
 70
     0
  9
$DIMSOXD
 70
     0
  9
$DIMSAH
 70
     0
  9
$DIMBLK1
  1

  9
$DIMBLK2
  1

  9
$DIMSTYLE
  2
STANDARD
  9
$DIMCLRD
 70
     0
  9
$DIMCLRE
 70
     0
  9
$DIMCLRT
 70
     0
  9
$DIMTFAC
 40
1.0
  9
$DIMGAP
 40
0.09
  9
$LUNITS
 70
     2
  9
$LUPREC
 70
     4
  9
$SKETCHINC
 40
0.1
  9
$FILLETRAD
 40
0.0
  9
$AUNITS
 70
     0
  9
$AUPREC
 70
     0
  9
$MENU
  1
.
  9
$ELEVATION
 40
0.0
  9
$PELEVATION
 40
0.0
  9
$THICKNESS
 40
0.0
  9
$LIMCHECK
 70
     0
  9
$BLIPMODE
 70
     0
  9
$CHAMFERA
 40
0.0
  9
$CHAMFERB
 40
0.0
  9
$SKPOLY
 70
     0
  9
$TDCREATE
 40
2458060.468368056230247
  9
$TDUPDATE
 40
2459272.7510416670702398
  9
$TDINDWG
 40
0.3822292824
  9
$TDUSRTIMER
 40
0.3822292824
  9
$USRTIMER
 70
     1
  9
$ANGBASE
 50
0.0
  9
$ANGDIR
 70
     0
  9
$PDMODE
 70
     0
  9
$PDSIZE
 40
0.3125
  9
$PLINEWID
 40
0.0
  9
$COORDS
 70
     1
  9
$SPLFRAME
 70
     0
  9
$SPLINETYPE
 70
     6
  9
$SPLINESEGS
 70
     8
  9
$ATTDIA
 70
     1
  9
$ATTREQ
 70
     1
  9
$HANDLING
 70
     1
  9
$HANDSEED
  5
1D437
  9
$SURFTAB1
 70
     6
  9
$SURFTAB2
 70
     6
  9
$SURFTYPE
 70
     6
  9
$SURFU
 70
     6
  9
$SURFV
 70
     6
  9
$UCSNAME
  2

  9
$UCSORG
 10
0.0
 20
0.0
 30
0.0
  9
$UCSXDIR
 10
1.0
 20
0.0
 30
0.0
  9
$UCSYDIR
 10
0.0
 20
1.0
 30
0.0
  9
$PUCSNAME
  2

  9
$PUCSORG
 10
0.0
 20
0.0
 30
0.0
  9
$PUCSXDIR
 10
1.0
 20
0.0
 30
0.0
  9
$PUCSYDIR
 10
0.0
 20
1.0
 30
0.0
  9
$USERI1
 70
     0
  9
$USERI2
 70
     0
  9
$USERI3
 70
     0
  9
$USERI4
 70
     0
  9
$USERI5
 70
     0
  9
$USERR1
 40
0.0
  9
$USERR2
 40
0.0
  9
$USERR3
 40
0.0
  9
$USERR4
 40
0.0
  9
$USERR5
 40
0.0
  9
$WORLDVIEW
 70
     1
  9
$SHADEDGE
 70
     3
  9
$SHADEDIF
 70
    70
  9
$TILEMODE
 70
     1
  9
$MAXACTVP
 70
    64
  9
$PLIMCHECK
 70
     0
  9
$PEXTMIN
 10
1.0000000000000000E+20
 20
1.0000000000000000E+20
 30
1.0000000000000000E+20
  9
$PEXTMAX
 10
-1.0000000000000000E+20
 20
-1.0000000000000000E+20
 30
-1.0000000000000000E+20
  9
$PLIMMIN
 10
0.0
 20
0.0
  9
$PLIMMAX
 10
12.0
 20
9.0
  9
$UNITMODE
 70
     0
  9
$VISRETAIN
 70
     1
  9
$PLINEGEN
 70
     0
  9
$PSLTSCALE
 70
     1
  0
ENDSEC
  0
SECTION
  2
TABLES
  0
TABLE
  2
VPORT
 70
     1
  0
VPORT
  2
*ACTIVE
 70
     0
 10
0.0
 20
0.0
 11
1.0
 21
1.0
 12
-241.33928696803099
 22
8.3567994863074233
 13
0.0
 23
0.0
 14
1.0
 24
1.0
 15
0.0
 25
0.0
 16
0.0
 26
0.0
 36
17.1152628219792007
 17
3803.5440673828129547
 27
125.9952621967499056
 37
0.0
 40
3.1945908152500091
 41
2.6486111111111108
 42
50.0
 43
0.0
 44
0.0
 50
0.0
 51
0.0
 71
     0
 72
   100
 73
     1
 74
     1
 75
     0
 76
     0
 77
     0
 78
     1
  0
ENDTAB
  0
TABLE
  2
LTYPE
 70
     2
  0
LTYPE
  2
CONTINUOUS
 70
     0
  3
Solid line
 72
    65
 73
     0
 40
0.0
  0
LTYPE
  2
PHANTOM2
 70
     0
  3
___ _ _ ___ _ _ ___ _ _ ___ _ _
 72
    65
 73
     6
 40
1.25
 49
0.625
 49
-0.125
 49
0.125
 49
-0.125
 49
0.125
 49
-0.125
  0
ENDTAB
  0
TABLE
  2
LAYER
 70
     2
  0
LAYER
  2
0
 70
     0
 62
   255
  6
CONTINUOUS
  0
LAYER
  2
DEFPOINTS
 70
     0
 62
     7
  6
CONTINUOUS
  0
ENDTAB
  0
TABLE
  2
STYLE
 70
     1
  0
STYLE
  2
STANDARD
 70
     0
 40
0.0
 41
0.8
 50
0.0
 71
     0
 42
0.2
  3
txt
  4

  0
ENDTAB
  0
TABLE
  2
VIEW
 70
     0
  0
ENDTAB
  0
TABLE
  2
UCS
 70
     0
  0
ENDTAB
  0
TABLE
  2
APPID
 70
     9
  0
APPID
  2
ACAD
 70
     0
  0
APPID
  2
ACAD_MLEADERVER
 70
     0
  0
APPID
  2
ACAD_EXEMPT_FROM_CAD_STANDARDS
 70
     0
  0
APPID
  2
ACAD_NAV_VCDISPLAY
 70
     0
  0
APPID
  2
ACAECLAYERSTANDARD
 70
     0
  0
APPID
  2
ACCMTRANSPARENCY
 70
     0
  0
APPID
  2
ACAD_DSTYLE_DIMJAG
 70
     0
  0
APPID
  2
ACAD_DSTYLE_DIMTALN
 70
     0
  0
APPID
  2
ACDBATTR
 70
     0
  0
ENDTAB
  0
TABLE
  2
DIMSTYLE
 70
     1
  0
DIMSTYLE
  2
STANDARD
 70
     0
  3

  4

  5

  6

  7

 40
1.0
 41
0.1875
 42
0.0625
 43
0.38
 44
0.125
 45
0.0
 46
0.0
 47
0.01
 48
0.01
140
0.15625
141
0.09
142
0.0
143
25.3999999999999986
144
1.0
145
0.0
146
1.0
147
0.09
 71
     1
 72
     0
 73
     1
 74
     1
 75
     0
 76
     0
 77
     0
 78
     4
170
     0
171
     2
172
     0
173
     0
174
     0
175
     0
176
     0
177
     0
178
     0
  0
ENDTAB
  0
ENDSEC
  0
SECTION
  2
BLOCKS
  0
BLOCK
  8
0
  2
$MODEL_SPACE
 70
     0
 10
0.0
 20
0.0
 30
0.0
  3
$MODEL_SPACE
  1

  0
ENDBLK
  5
21
  8
0
  0
BLOCK
 67
     1
  8
0
  2
$PAPER_SPACE
 70
     0
 10
0.0
 20
0.0
 30
0.0
  3
$PAPER_SPACE
  1

  0
ENDBLK
  5
1D
 67
     1
  8
0
  0
BLOCK
  8
0
  2
_FILLED
 70
     0
 10
0.0
 20
0.0
 30
0.0
  3
_FILLED
  1

  0
SOLID
  5
1BA72
  8
0
  6
BYBLOCK
 62
     0
 10
0.0
 20
0.0
 30
0.0
 11
-1.0
 21
0.1666666667
 31
0.0
 12
-1.0
 22
-0.1666666667
 32
0.0
 13
-1.0
 23
-0.1666666667
 33
0.0
  0
ENDBLK
  5
1BA73
  8
0
  6
BYBLOCK
 62
     0
  0
ENDSEC
  0
SECTION
  2
ENTITIES
  0
ATTDEF
  5
1C657
  8
DEFPOINTS
 10
3562.2201470803788652
 20
133.9864225220782998
 30
0.0
 40
0.001
  1
K-26317W
  3

  2
MODELNUMBER
 70
     0
1001
ACDBATTR
1070
     0
1070
     1
  0
ATTDEF
  5
1C658
  8
DEFPOINTS
 10
3562.2201470803788652
 20
133.9847558554116915
 30
0.0
 40
0.001
  1

  3

  2
TRADENAME
 70
     0
1001
ACDBATTR
1070
     0
1070
     1
  0
ATTDEF
  5
1C659
  8
DEFPOINTS
 10
3562.2201470803788652
 20
133.983089188744998
 30
0.0
 40
0.001
  1
SHELF
  3

  2
PRODUCT
 70
     0
1001
ACDBATTR
1070
     0
1070
     1
  0
LINE
  5
1CF29
  8
0
 10
3558.2669140018770122
 20
134.4002704671115964
 30
0.0
 11
3566.1703710507740652
 21
134.4002704671115964
 31
0.0
  0
LINE
  5
1CF2A
  8
0
 10
3558.2083939508688673
 20
135.0102704671116101
 30
0.0
 11
3566.2288654707758724
 21
135.0102704671116101
 31
0.0
  0
ARC
  5
1CF2B
  8
0
 10
3558.2083933905628328
 20
134.9802710274043989
 30
0.0
 40
0.0299994397124705
 50
89.9989298599242176
 51
180.001070067176812
  0
LINE
  5
1CF2C
  8
0
 10
3558.1783939508559342
 20
134.980270467129003
 30
0.0
 11
3558.19362315174385
 21
134.5436395627116042
 31
0.0
  0
ARC
  5
1CF2D
  8
0
 10
3558.3834575480818785
 20
134.5502658244234055
 30
0.0
 40
0.1899500075732704
 50
181.9991253407409033
 51
232.1534712141366867
  0
ARC
  5
1CF2E
  8
0
 10
3566.2288654706908346
 20
134.9802704669054094
 30
0.0
 40
0.0300000002062504
 50
0.000000393873378
 51
89.999999836816869
  0
LINE
  5
1CF2F
  8
0
 10
3566.2588654708979448
 20
134.9802704671116089
 30
0.0
 11
3566.243636269955914
 21
134.5436395627135084
 31
0.0
  0
ARC
  5
1CF30
  8
0
 10
3566.0537520127982134
 20
134.5502704670809067
 30
0.0
 40
0.1900000000240964
 50
307.8636463862075061
 51
358.0000000020688731
  0
LINE
  5
1CF31
  8
0
 10
3561.628629710876794
 20
134.3702704671115953
 30
0.0
 11
3561.628629710876794
 21
134.4002704671115964
 31
0.0
  0
LINE
  5
1CF32
  8
0
 10
3562.808629710877085
 20
134.3702704671115953
 30
0.0
 11
3562.808629710877085
 21
134.4002704671115964
 31
0.0
  0
LINE
  5
1CF33
  8
0
 10
3561.6206297108769832
 20
134.3702704671115953
 30
0.0
 11
3562.8166297108759863
 21
134.3702704671115953
 31
0.0
  0
LINE
  5
1CF34
  8
0
 10
3562.8166297108759863
 20
134.3702704671115953
 30
0.0
 11
3562.8466297108770959
 21
134.3402704671115941
 31
0.0
  0
LINE
  5
1CF35
  8
0
 10
3562.8466297108770959
 20
134.3402704671115941
 30
0.0
 11
3562.8466297108770959
 21
134.0122704671115912
 31
0.0
  0
LINE
  5
1CF36
  8
0
 10
3562.8466297108770959
 20
134.0122704671115912
 30
0.0
 11
3562.8166297108759863
 21
133.9822704671115901
 31
0.0
  0
LINE
  5
1CF37
  8
0
 10
3562.8166297108759863
 20
133.9822704671115901
 30
0.0
 11
3561.6206349043768569
 21
133.9822704671115901
 31
0.0
  0
LINE
  5
1CF38
  8
0
 10
3561.6206349043768569
 20
133.9822704671115901
 30
0.0
 11
3561.5906297108767831
 21
134.0122704671115912
 31
0.0
  0
LINE
  5
1CF39
  8
0
 10
3561.5906297108767831
 20
134.0122704671115912
 30
0.0
 11
3561.5906297108767831
 21
134.3402704671115941
 31
0.0
  0
LINE
  5
1CF3A
  8
0
 10
3561.5906297108767831
 20
134.3402704671115941
 30
0.0
 11
3561.6206297108769832
 21
134.3702704671115953
 31
0.0
  0
LINE
  5
1CF3B
  8
0
 10
3561.5906297108767831
 20
134.3402704671115941
 30
0.0
 11
3562.8466297108770959
 21
134.3402704671115941
 31
0.0
  0
LINE
  5
1CF3C
  8
0
 10
3561.5906297108767831
 20
134.0122704671115912
 30
0.0
 11
3562.8466297108770959
 21
134.0122704671115912
 31
0.0
  0
LINE
  5
1CF3D
  8
0
 10
3561.8214236526769128
 20
133.9822704671115901
 30
0.0
 11
3561.8091868573760621
 21
133.9758935018116119
 31
0.0
  0
LINE
  5
1CF3E
  8
0
 10
3561.8091868573760621
 20
133.9758935018116119
 30
0.0
 11
3561.808629710877085
 21
133.9753043423116026
 31
0.0
  0
LINE
  5
1CF3F
  8
0
 10
3561.808629710877085
 20
133.9753043423116026
 30
0.0
 11
3561.808629713676055
 21
133.9640204980115925
 31
0.0
  0
LINE
  5
1CF40
  8
0
 10
3561.808629713676055
 20
133.9640204980115925
 30
0.0
 11
3561.8092373461768148
 21
133.9634051828116128
 31
0.0
  0
LINE
  5
1CF41
  8
0
 10
3561.8092373461768148
 20
133.9634051828116128
 30
0.0
 11
3561.8495739834647793
 21
133.9424351143686067
 31
0.0
  0
ARC
  5
1CF42
  8
0
 10
3561.8449526922581754
 20
133.9341829003772943
 30
0.0
 40
0.009458084804841
 50
299.5848146347379952
 51
60.7509021371616527
  0
LINE
  5
1CF43
  8
0
 10
3561.8496222565768221
 20
133.9259579057116127
 30
0.0
 11
3561.8092364666767935
 21
133.9049191618115913
 31
0.0
  0
LINE
  5
1CF44
  8
0
 10
3561.8092369642768062
 20
133.9049191576116016
 30
0.0
 11
3561.808629710877085
 21
133.9042719459116029
 31
0.0
  0
LINE
  5
1CF45
  8
0
 10
3561.808629710877085
 20
133.9042719459116029
 30
0.0
 11
3561.808629710877085
 21
133.8930204950115979
 31
0.0
  0
LINE
  5
1CF46
  8
0
 10
3561.808629710877085
 20
133.8930204950115979
 30
0.0
 11
3561.8092365264769796
 21
133.8924235963116018
 31
0.0
  0
LINE
  5
1CF47
  8
0
 10
3561.8092365264769796
 20
133.8924235963116018
 30
0.0
 11
3561.8495967262770137
 21
133.8713773527115904
 31
0.0
  0
ARC
  5
1CF48
  8
0
 10
3561.8449831490329416
 20
133.8631454097032076
 30
0.0
 40
0.0094366297313635
 50
299.8072328370199102
 51
60.731630194848762
  0
LINE
  5
1CF49
  8
0
 10
3561.8496739419770165
 20
133.8549572205116078
 30
0.0
 11
3561.8092492392770509
 21
133.833925343511595
 31
0.0
  0
LINE
  5
1CF4A
  8
0
 10
3561.8092487398771482
 20
133.8339253477116131
 30
0.0
 11
3561.808629710877085
 21
133.8332349483115991
 31
0.0
  0
LINE
  5
1CF4B
  8
0
 10
3561.808629710877085
 20
133.8332349483115991
 30
0.0
 11
3561.808629710877085
 21
133.8220443764116112
 31
0.0
  0
LINE
  5
1CF4C
  8
0
 10
3561.808629710877085
 20
133.8220443764116112
 30
0.0
 11
3561.8091419891770784
 21
133.8215082044116002
 31
0.0
  0
LINE
  5
1CF4D
  8
0
 10
3561.8091419891770784
 20
133.8215082044116002
 30
0.0
 11
3561.8496712031769675
 21
133.8003694912115975
 31
0.0
  0
ARC
  5
1CF4E
  8
0
 10
3561.8447937690079925
 20
133.7921536549538928
 30
0.0
 40
0.0095545449647153
 50
300.5179853089106246
 51
59.3039828112917178
  0
LINE
  5
1CF4F
  8
0
 10
3561.8496456510770258
 20
133.7839227030115978
 30
0.0
 11
3561.8091916247772133
 21
133.7628960184115954
 31
0.0
  0
LINE
  5
1CF50
  8
0
 10
3561.8091916247772133
 20
133.7628960184115954
 30
0.0
 11
3561.808629710877085
 21
133.7622426840115963
 31
0.0
  0
LINE
  5
1CF51
  8
0
 10
3561.808629710877085
 20
133.7622426840115963
 30
0.0
 11
3561.8086301490270671
 21
133.7510206856134118
 31
0.0
  0
LINE
  5
1CF52
  8
0
 10
3561.8086301490270671
 20
133.7510206856134118
 30
0.0
 11
3561.8091530993769993
 21
133.7505576108115974
 31
0.0
  0
LINE
  5
1CF53
  8
0
 10
3561.8091530993769993
 20
133.7505576108115974
 30
0.0
 11
3561.8499768214769574
 21
133.7292313345116099
 31
0.0
  0
ARC
  5
1CF54
  8
0
 10
3561.8448479502972077
 20
133.7211915601650105
 30
0.0
 40
0.0095364191983722
 50
303.1781520134576908
 51
57.4646815356433365
  0
LINE
  5
1CF55
  8
0
 10
3561.8500666995269057
 20
133.7132098343116127
 30
0.0
 11
3561.8417199563941722
 21
133.7088545874559884
 31
0.0
  0
ARC
  5
1CF56
  8
0
 10
3561.8419630336029513
 20
133.7082369274033056
 30
0.0
 40
0.00066376989259
 50
111.4818850036169948
 51
138.3619052281468953
  0
ARC
  5
1CF57
  8
0
 10
3561.8416050643700146
 20
133.7085551732286888
 30
0.0
 40
0.0001847893331546
 50
138.3619052284606994
 51
231.6436615050859018
  0
LINE
  5
1CF58
  8
0
 10
3561.8414903932771267
 20
133.7084102676116117
 30
0.0
 11
3561.8586300918759662
 21
133.6912704671115932
 31
0.0
  0
LINE
  5
1CF59
  8
0
 10
3561.8586297108759027
 20
133.6912704671115932
 30
0.0
 11
3562.5786297108770668
 21
133.6912704671115932
 31
0.0
  0
LINE
  5
1CF5A
  8
0
 10
3562.5786297108770668
 20
133.6912704671115932
 30
0.0
 11
3562.6191155032761344
 21
133.7317562595115987
 31
0.0
  0
ARC
  5
1CF5B
  8
0
 10
3562.6188541216251906
 20
133.731869674294586
 30
0.0
 40
0.0002849267997584
 50
336.5437412392781198
 51
71.6155582209811854
  0
LINE
  5
1CF5C
  8
0
 10
3562.61894398507593
 20
133.7321400589115967
 30
0.0
 11
3562.5875606168260674
 21
133.7483936161115992
 31
0.0
  0
ARC
  5
1CF5D
  8
0
 10
3562.5922284312941883
 20
133.7566317247425047
 30
0.0
 40
0.0094686285020248
 50
119.3871822790949011
 51
240.4635714980188084
  0
LINE
  5
1CF5E
  8
0
 10
3562.5875820915771328
 20
133.7648819643115985
 30
0.0
 11
3562.6279913614771431
 21
133.7858900753116131
 31
0.0
  0
LINE
  5
1CF5F
  8
0
 10
3562.6279913614739598
 20
133.7858900753099931
 30
0.0
 11
3562.6286297108758845
 21
133.7866238451115919
 31
0.0
  0
LINE
  5
1CF60
  8
0
 10
3562.6286297108758845
 20
133.7866238451115919
 30
0.0
 11
3562.6286282950650275
 21
133.7978278001133106
 31
0.0
  0
ARC
  5
1CF61
  8
0
 10
3562.6273497431188844
 20
133.7969614875966045
 30
0.0
 40
0.001544406829845
 50
34.1205140081326803
 51
64.4531302433068589
  0
LINE
  5
1CF62
  8
0
 10
3562.6280157674759721
 20
133.7983549021116119
 30
0.0
 11
3562.5876531108579002
 21
133.8194062622322065
 31
0.0
  0
ARC
  5
1CF63
  8
0
 10
3562.5922834308971687
 20
133.8276738583587075
 30
0.0
 40
0.0094759173365044
 50
119.149164567558401
 51
240.7487141519738998
  0
LINE
  5
1CF64
  8
0
 10
3562.5876678539771092
 20
133.8359496942115925
 30
0.0
 11
3562.6280498141281896
 21
133.8569195381911072
 31
0.0
  0
LINE
  5
1CF65
  8
0
 10
3562.6280498141281896
 20
133.8569195381911072
 30
0.0
 11
3562.6286297108758845
 21
133.8575580316116032
 31
0.0
  0
LINE
  5
1CF66
  8
0
 10
3562.6286297108758845
 20
133.8575580316116032
 30
0.0
 11
3562.6286297108758845
 21
133.8687525089115979
 31
0.0
  0
LINE
  5
1CF67
  8
0
 10
3562.6286297108758845
 20
133.8687525089115979
 30
0.0
 11
3562.6280120132769298
 21
133.8693972364116007
 31
0.0
  0
LINE
  5
1CF68
  8
0
 10
3562.6280120132769298
 20
133.8693972364116007
 30
0.0
 11
3562.5876559712769449
 21
133.8904427761115983
 31
0.0
  0
ARC
  5
1CF69
  8
0
 10
3562.5923456494970196
 20
133.898673978574493
 30
0.0
 40
0.0094734247132187
 50
119.6511712263761069
 51
240.327931829174787
  0
LINE
  5
1CF6A
  8
0
 10
3562.5876589736758433
 20
133.906906890911614
 30
0.0
 11
3562.6280533356762135
 21
133.9279214714927093
 31
0.0
  0
LINE
  5
1CF6B
  8
0
 10
3562.6280533356762135
 20
133.9279214714927093
 30
0.0
 11
3562.6286297108758845
 21
133.9285540711115914
 31
0.0
  0
LINE
  5
1CF6C
  8
0
 10
3562.6286297108758845
 20
133.9285540711115914
 30
0.0
 11
3562.6286297108758845
 21
133.9397898191116099
 31
0.0
  0
LINE
  5
1CF6D
  8
0
 10
3562.6286297108758845
 20
133.9397898191116099
 30
0.0
 11
3562.6280444852768596
 21
133.9404081561116016
 31
0.0
  0
LINE
  5
1CF6E
  8
0
 10
3562.6280444852768596
 20
133.9404081561116016
 30
0.0
 11
3562.5877325484771063
 21
133.9614254194115972
 31
0.0
  0
ARC
  5
1CF6F
  8
0
 10
3562.5920395477528473
 20
133.9696864132496898
 30
0.0
 40
0.0093163438084796
 50
117.9408514625221045
 51
242.4640065398374134
  0
LINE
  5
1CF70
  8
0
 10
3562.5876742834348079
 20
133.977916767397204
 30
0.0
 11
3562.5960293061771154
 21
133.9822704671115901
 31
0.0
  0
ARC
  5
1CF71
  8
0
 10
3561.9029344290611334
 20
133.3949245928687048
 30
0.0
 40
0.5879891166544386
 50
92.6802784971113738
 51
99.229251960456935
  0
ARC
  5
1CF72
  8
0
 10
3562.1891019447512008
 20
130.0072491521125073
 30
0.0
 40
3.9750218337913759
 50
89.9707271771395369
 51
95.4925175074683068
  0
ARC
  5
1CF73
  8
0
 10
3562.4121647976821805
 20
124.9573739079356045
 30
0.0
 40
8.9672314067912868
 50
90.9044445137186443
 51
93.8591815432072707
  0
ARC
  5
1CF74
  8
0
 10
3562.1754228170079841
 20
139.9535283825545946
 30
0.0
 40
6.0307916560009822
 50
270.9044445137186017
 51
274.3097733581508919
  0
ARC
  5
1CF75
  8
0
 10
3562.679075931835996
 20
122.8495576642368974
 30
0.0
 40
11.0777504097625492
 50
93.8786249558635717
 51
94.5067235584239143
  0
ARC
  5
1CF76
  8
0
 10
3563.2784511727909376
 20
94.8744233635815135
 30
0.0
 40
39.0508093536770602
 50
91.4663446993697278
 51
91.9792335757905022
  0
ARC
  5
1CF77
  8
0
 10
3562.2042132264928114
 20
139.3370273152814889
 30
0.0
 40
5.4251002004679663
 50
270.7914582751819808
 51
274.4869487376276993
  0
ARC
  5
1CF78
  8
0
 10
3561.961056434933198
 20
133.1033468043773951
 30
0.0
 40
0.8301113863557473
 50
92.3007445435663669
 51
97.7187346843249713
  0
ARC
  5
1CF79
  8
0
 10
3563.0987414460491891
 20
104.7866395311724972
 30
0.0
 40
29.1696639230648493
 50
91.6517512550258715
 51
92.3007445435663669
  0
ARC
  5
1CF7A
  8
0
 10
3561.8261709267908373
 20
148.9172068100554895
 30
0.0
 40
14.9792477745353896
 50
271.651751255025772
 51
272.7383810048776809
  0
ARC
  5
1CF7B
  8
0
 10
3562.5249477610359463
 20
134.3076714755854937
 30
0.0
 40
0.3530106729017435
 50
272.7383810048776809
 51
280.5110313246062788
  0
ARC
  5
1CF7C
  8
0
 10
3562.1776243230360706
 20
130.2643728560668137
 30
0.0
 40
3.6055298693586231
 50
90.5232641648349983
 51
95.2187085107772759
  0
ARC
  5
1CF7D
  8
0
 10
3562.0773784908960806
 20
141.2406708629787886
 30
0.0
 40
7.3712258974151821
 50
270.5232641648349841
 51
273.4785333760258936
  0
ARC
  5
1CF7E
  8
0
 10
3562.4816037472510288
 20
134.5907595947246875
 30
0.0
 40
0.709040225015424
 50
273.4785333760519279
 51
278.6923109687547822
  0
ARC
  5
1CF7F
  8
0
 10
3561.9316782873111151
 20
132.943964513067499
 30
0.0
 40
0.8977432033503459
 50
91.3072624463167841
 51
97.8780074515564422
  0
ARC
  5
1CF80
  8
0
 10
3561.3492404779490244
 20
158.4671006637001938
 30
0.0
 40
24.632037695934919
 50
271.3072624463168268
 51
272.1885070365345882
  0
ARC
  5
1CF81
  8
0
 10
3563.3534726298908026
 20
106.0212144506990057
 30
0.0
 40
27.8521306521103114
 50
91.6459098732807291
 51
92.1885070365346451
  0
ARC
  5
1CF82
  8
0
 10
3562.5364105777598525
 20
134.456142744745307
 30
0.0
 40
0.5945341345494546
 50
271.6459098732806865
 51
278.9232679863201838
  0
ARC
  5
1CF83
  8
0
 10
3561.8309995650079145
 20
133.7550337371812077
 30
0.0
 40
0.0706458501536368
 50
90.9533052649261435
 51
108.4603196128925049
  0
ARC
  5
1CF84
  8
0
 10
3562.04398510205192
 20
130.7494344362715992
 30
0.0
 40
3.083681073662158
 50
91.793161123415004
 51
93.9823838788392578
  0
ARC
  5
1CF85
  8
0
 10
3567.9397275213959801
 20
-59.8455742581681065
 30
0.0
 40
193.7698552902751885
 50
91.6259376316323539
 51
91.7721256880258665
  0
ARC
  5
1CF86
  8
0
 10
3562.2921337388538632
 20
139.0513202952635936
 30
0.0
 40
5.2072039339905922
 50
271.6456147099369218
 51
273.3527664874811194
  0
ARC
  5
1CF87
  8
0
 10
3562.5336873464980272
 20
134.4125332903846868
 30
0.0
 40
0.5630378232447349
 50
276.4225576151064274
 51
279.7078947779405098
  0
ARC
  5
1CF88
  8
0
 10
3561.9599360226511635
 20
133.0258179800721052
 30
0.0
 40
0.7661221507703678
 50
90.6769579709316105
 51
98.2823921835999386
  0
ARC
  5
1CF89
  8
0
 10
3563.5025619805719543
 20
92.6833700858396838
 30
0.0
 40
41.1377908744942928
 50
91.6247801999503793
 51
92.1616540396533139
  0
ARC
  5
1CF8A
  8
0
 10
3562.2595653224261696
 20
137.7139846773974909
 30
0.0
 40
3.9101132805242682
 50
271.1221753898976203
 51
274.8555653872048197
  0
ARC
  5
1CF8B
  8
0
 10
3561.9151129462638892
 20
133.0599534987075003
 30
0.0
 40
0.71031597139133
 50
90.8584462408231559
 51
98.6216920467420408
  0
ARC
  5
1CF8C
  8
0
 10
3562.9256198595908245
 20
106.3772333165625952
 30
0.0
 40
27.4119829112676499
 50
91.4349646212985618
 51
92.1348717121551744
  0
ARC
  5
1CF8D
  8
0
 10
3561.5110518997598774
 20
161.6915850775802994
 30
0.0
 40
27.9204608709057212
 50
271.494330281536179
 51
272.0584454175511269
  0
ARC
  5
1CF8E
  8
0
 10
3562.4999564911768175
 20
134.7402685858494067
 30
0.0
 40
0.9512300736674298
 50
270.8413856064627225
 51
277.7741671692135128
  0
ARC
  5
1CF8F
  8
0
 10
3562.5485279953868485
 20
134.3138281974221115
 30
0.0
 40
0.533884900825266
 50
272.1015506662727148
 51
278.559702063612292
  0
ARC
  5
1CF90
  8
0
 10
3562.0017360695328534
 20
146.3958722126720033
 30
0.0
 40
12.6282768770930005
 50
271.4642088631511001
 51
272.5705401674264863
  0
ARC
  5
1CF91
  8
0
 10
3561.0535139125909154
 20
171.4243034682602058
 30
0.0
 40
37.6740274210504822
 50
271.3965153141390942
 51
271.9331983643302806
  0
ARC
  5
1CF92
  8
0
 10
3562.0219692391888202
 20
131.698699566777492
 30
0.0
 40
2.0633795282851159
 50
91.3965153141390942
 51
95.934603064904536
  0
ARC
  5
1CF93
  8
0
 10
3561.8941185537078127
 20
133.3290459784986126
 30
0.0
 40
0.3833229478616472
 50
90.6459167357530191
 51
97.8840477244949057
  0
ARC
  5
1CF94
  8
0
 10
3562.4995834528331216
 20
114.4331103284750952
 30
0.0
 40
19.2888753439229994
 50
90.9561205695348178
 51
91.8116139164606153
  0
ARC
  5
1CF95
  8
0
 10
3561.3923462188517988
 20
178.9359705150145032
 30
0.0
 40
45.2234905226351103
 50
270.9950724177728034
 51
271.4333598297316144
  0
ARC
  5
1CF96
  8
0
 10
3562.5183933448688549
 20
134.6953482211322068
 30
0.0
 40
0.9687314421454695
 50
270.3066144972733014
 51
275.9694146243525097
  0
ARC
  5
1CF97
  8
0
 10
3561.9552233185418118
 20
133.2772606169976086
 30
0.0
 40
0.4614436694951053
 50
90.4301219356042054
 51
102.884158924589201
  0
ARC
  5
1CF98
  8
0
 10
3563.395285086315198
 20
96.0989278712754924
 30
0.0
 40
37.6674336336271622
 50
91.6385001297550588
 51
92.1962790373303847
  0
ARC
  5
1CF99
  8
0
 10
3562.2429186587578442
 20
137.9436507417958921
 30
0.0
 40
4.1933670806268433
 50
271.0293117160117049
 51
274.7033762685152851
  0
ENDSEC
  0
EOF
