  0
SECTION
  2
HEADER
  9
$ACADVER
  1
AC1009
  9
$INSBASE
 10
4806.1306436332843077
 20
245.1512535071742889
 30
0.0
  9
$EXTMIN
 10
4803.1857472109832088
 20
229.0489078230743019
 30
0.0
  9
$EXTMAX
 10
4810.1395106266472794
 20
260.9780416813744068
 30
0.0
  9
$LIMMIN
 10
0.0
 20
0.0
  9
$LIMMAX
 10
11.6929133858000007
 20
8.2677165353999982
  9
$ORTHOMODE
 70
     1
  9
$REGENMODE
 70
     1
  9
$FILLMODE
 70
     1
  9
$QTEXTMODE
 70
     0
  9
$MIRRTEXT
 70
     0
  9
$DRAGMODE
 70
     2
  9
$LTSCALE
 40
0.6431102362
  9
$OSMODE
 70
  4095
  9
$ATTMODE
 70
     1
  9
$TEXTSIZE
 40
0.2
  9
$TRACEWID
 40
0.05
  9
$TEXTSTYLE
  7
STANDARD
  9
$CLAYER
  8
0
  9
$CELTYPE
  6
BYLAYER
  9
$CECOLOR
 62
   256
  9
$DIMSCALE
 40
1.0
  9
$DIMASZ
 40
0.1875
  9
$DIMEXO
 40
0.0625
  9
$DIMDLI
 40
0.4443307087
  9
$DIMRND
 40
0.0
  9
$DIMDLE
 40
0.0
  9
$DIMEXE
 40
0.125
  9
$DIMTP
 40
0.01
  9
$DIMTM
 40
0.01
  9
$DIMTXT
 40
2.0
  9
$DIMCEN
 40
0.1052362205
  9
$DIMTSZ
 40
0.0
  9
$DIMTOL
 70
     1
  9
$DIMLIM
 70
     0
  9
$DIMTIH
 70
     1
  9
$DIMTOH
 70
     1
  9
$DIMSE1
 70
     0
  9
$DIMSE2
 70
     0
  9
$DIMTAD
 70
     0
  9
$DIMZIN
 70
     0
  9
$DIMBLK
  1

  9
$DIMASO
 70
     1
  9
$DIMSHO
 70
     1
  9
$DIMPOST
  1
\X
  9
$DIMAPOST
  1

  9
$DIMALT
 70
     1
  9
$DIMALTD
 70
     2
  9
$DIMALTF
 40
25.3999999999999986
  9
$DIMLFAC
 40
1.0
  9
$DIMTOFL
 70
     0
  9
$DIMTVP
 40
0.0
  9
$DIMTIX
 70
     0
  9
$DIMSOXD
 70
     0
  9
$DIMSAH
 70
     0
  9
$DIMBLK1
  1

  9
$DIMBLK2
  1

  9
$DIMSTYLE
  2
STANDARD
  9
$DIMCLRD
 70
     0
  9
$DIMCLRE
 70
     0
  9
$DIMCLRT
 70
     0
  9
$DIMTFAC
 40
1.0
  9
$DIMGAP
 40
0.09
  9
$LUNITS
 70
     2
  9
$LUPREC
 70
     4
  9
$SKETCHINC
 40
0.1
  9
$FILLETRAD
 40
0.0
  9
$AUNITS
 70
     0
  9
$AUPREC
 70
     0
  9
$MENU
  1
.
  9
$ELEVATION
 40
0.0
  9
$PELEVATION
 40
0.0
  9
$THICKNESS
 40
0.0
  9
$LIMCHECK
 70
     0
  9
$BLIPMODE
 70
     0
  9
$CHAMFERA
 40
0.0
  9
$CHAMFERB
 40
0.0
  9
$SKPOLY
 70
     0
  9
$TDCREATE
 40
2458060.468368056230247
  9
$TDUPDATE
 40
2459245.7733217598870397
  9
$TDINDWG
 40
0.357946875
  9
$TDUSRTIMER
 40
0.357946875
  9
$USRTIMER
 70
     1
  9
$ANGBASE
 50
0.0
  9
$ANGDIR
 70
     0
  9
$PDMODE
 70
     0
  9
$PDSIZE
 40
0.3125
  9
$PLINEWID
 40
0.0
  9
$COORDS
 70
     1
  9
$SPLFRAME
 70
     0
  9
$SPLINETYPE
 70
     6
  9
$SPLINESEGS
 70
     8
  9
$ATTDIA
 70
     1
  9
$ATTREQ
 70
     1
  9
$HANDLING
 70
     1
  9
$HANDSEED
  5
CE17
  9
$SURFTAB1
 70
     6
  9
$SURFTAB2
 70
     6
  9
$SURFTYPE
 70
     6
  9
$SURFU
 70
     6
  9
$SURFV
 70
     6
  9
$UCSNAME
  2

  9
$UCSORG
 10
0.0
 20
0.0
 30
0.0
  9
$UCSXDIR
 10
1.0
 20
0.0
 30
0.0
  9
$UCSYDIR
 10
0.0
 20
1.0
 30
0.0
  9
$PUCSNAME
  2

  9
$PUCSORG
 10
0.0
 20
0.0
 30
0.0
  9
$PUCSXDIR
 10
1.0
 20
0.0
 30
0.0
  9
$PUCSYDIR
 10
0.0
 20
1.0
 30
0.0
  9
$USERI1
 70
     0
  9
$USERI2
 70
     0
  9
$USERI3
 70
     0
  9
$USERI4
 70
     0
  9
$USERI5
 70
     0
  9
$USERR1
 40
0.0
  9
$USERR2
 40
0.0
  9
$USERR3
 40
0.0
  9
$USERR4
 40
0.0
  9
$USERR5
 40
0.0
  9
$WORLDVIEW
 70
     1
  9
$SHADEDGE
 70
     3
  9
$SHADEDIF
 70
    70
  9
$TILEMODE
 70
     1
  9
$MAXACTVP
 70
    64
  9
$PLIMCHECK
 70
     0
  9
$PEXTMIN
 10
1.0000000000000000E+20
 20
1.0000000000000000E+20
 30
1.0000000000000000E+20
  9
$PEXTMAX
 10
-1.0000000000000000E+20
 20
-1.0000000000000000E+20
 30
-1.0000000000000000E+20
  9
$PLIMMIN
 10
0.0
 20
0.0
  9
$PLIMMAX
 10
12.0
 20
9.0
  9
$UNITMODE
 70
     0
  9
$VISRETAIN
 70
     1
  9
$PLINEGEN
 70
     0
  9
$PSLTSCALE
 70
     1
  0
ENDSEC
  0
SECTION
  2
TABLES
  0
TABLE
  2
VPORT
 70
     1
  0
VPORT
  2
*ACTIVE
 70
     0
 10
0.0
 20
0.0
 11
1.0
 21
1.0
 12
0.0
 22
0.0
 13
0.0
 23
0.0
 14
1.0
 24
1.0
 15
0.0
 25
0.0
 16
0.0
 26
0.0
 36
92.5907526232823841
 17
4806.66259765625
 27
245.0134658813475994
 37
0.0
 40
32.6778987476584604
 41
2.1186252771618621
 42
50.0
 43
0.0
 44
0.0
 50
0.0
 51
0.0
 71
     0
 72
   100
 73
     1
 74
     1
 75
     0
 76
     0
 77
     0
 78
     0
  0
ENDTAB
  0
TABLE
  2
LTYPE
 70
     2
  0
LTYPE
  2
CONTINUOUS
 70
     0
  3
Solid line
 72
    65
 73
     0
 40
0.0
  0
LTYPE
  2
PHANTOM2
 70
     0
  3
___ _ _ ___ _ _ ___ _ _ ___ _ _
 72
    65
 73
     6
 40
1.25
 49
0.625
 49
-0.125
 49
0.125
 49
-0.125
 49
0.125
 49
-0.125
  0
ENDTAB
  0
TABLE
  2
LAYER
 70
     2
  0
LAYER
  2
0
 70
     0
 62
   255
  6
CONTINUOUS
  0
LAYER
  2
DEFPOINTS
 70
     0
 62
     7
  6
CONTINUOUS
  0
ENDTAB
  0
TABLE
  2
STYLE
 70
     1
  0
STYLE
  2
STANDARD
 70
     0
 40
0.0
 41
0.8
 50
0.0
 71
     0
 42
0.2
  3
txt
  4

  0
ENDTAB
  0
TABLE
  2
VIEW
 70
     0
  0
ENDTAB
  0
TABLE
  2
UCS
 70
     0
  0
ENDTAB
  0
TABLE
  2
APPID
 70
     9
  0
APPID
  2
ACAD
 70
     0
  0
APPID
  2
ACAD_MLEADERVER
 70
     0
  0
APPID
  2
ACAD_EXEMPT_FROM_CAD_STANDARDS
 70
     0
  0
APPID
  2
ACAD_NAV_VCDISPLAY
 70
     0
  0
APPID
  2
ACAECLAYERSTANDARD
 70
     0
  0
APPID
  2
ACCMTRANSPARENCY
 70
     0
  0
APPID
  2
ACAD_DSTYLE_DIMJAG
 70
     0
  0
APPID
  2
ACAD_DSTYLE_DIMTALN
 70
     0
  0
APPID
  2
ACDBATTR
 70
     0
  0
ENDTAB
  0
TABLE
  2
DIMSTYLE
 70
     1
  0
DIMSTYLE
  2
STANDARD
 70
     0
  3

  4

  5

  6

  7

 40
1.0
 41
0.1875
 42
0.0625
 43
0.38
 44
0.125
 45
0.0
 46
0.0
 47
0.01
 48
0.01
140
0.15625
141
0.09
142
0.0
143
25.3999999999999986
144
1.0
145
0.0
146
1.0
147
0.09
 71
     1
 72
     0
 73
     1
 74
     1
 75
     0
 76
     0
 77
     0
 78
     4
170
     0
171
     2
172
     0
173
     0
174
     0
175
     0
176
     0
177
     0
178
     0
  0
ENDTAB
  0
ENDSEC
  0
SECTION
  2
BLOCKS
  0
BLOCK
  8
0
  2
$MODEL_SPACE
 70
     0
 10
0.0
 20
0.0
 30
0.0
  3
$MODEL_SPACE
  1

  0
ENDBLK
  5
21
  8
0
  0
BLOCK
 67
     1
  8
0
  2
$PAPER_SPACE
 70
     0
 10
0.0
 20
0.0
 30
0.0
  3
$PAPER_SPACE
  1

  0
ENDBLK
  5
1D
 67
     1
  8
0
  0
ENDSEC
  0
SECTION
  2
ENTITIES
  0
ATTDEF
  5
3930
  8
DEFPOINTS
 10
4806.1255421304686024
 20
245.1492965947797984
 30
0.0
 40
0.001
  1
K-26314W
  3

  2
MODELNUMBER
 70
     0
1001
ACDBATTR
1070
     0
1070
     1
  0
ATTDEF
  5
3931
  8
DEFPOINTS
 10
4806.1255421304686024
 20
245.1476299281131048
 30
0.0
 40
0.001
  1

  3

  2
TRADENAME
 70
     0
1001
ACDBATTR
1070
     0
1070
     1
  0
ATTDEF
  5
3932
  8
DEFPOINTS
 10
4806.1255421304686024
 20
245.1459632614464965
 30
0.0
 40
0.001
  1
SLIDEBAR
  3

  2
PRODUCT
 70
     0
1001
ACDBATTR
1070
     0
1070
     1
  0
LINE
  5
CC16
  8
0
 10
4806.5833995387838513
 20
229.4032385317742921
 30
0.0
 11
4805.6778877277829451
 21
229.4032385317742921
 31
0.0
  0
LINE
  5
CC17
  8
0
 10
4803.1964490182826921
 20
245.8820555814243107
 30
0.0
 11
4803.1964490204827598
 21
244.4204825415243079
 31
0.0
  0
LINE
  5
CC18
  8
0
 10
4805.6385176490830418
 20
260.9662306577743038
 30
0.0
 11
4805.6385176490830418
 21
260.9111125474743176
 31
0.0
  0
LINE
  5
CC19
  8
0
 10
4805.6385176490839513
 20
229.4426086104558067
 30
0.0
 11
4805.6385176490812228
 21
244.3911061739518971
 31
0.0
  0
LINE
  5
CC1A
  8
0
 10
4805.6385176490812228
 20
245.9114319862968046
 30
0.0
 11
4805.6385176490830418
 21
260.8874905002742253
 31
0.0
  0
LINE
  5
CC1B
  8
0
 10
4808.906538391282993
 20
244.3670843713242959
 30
0.0
 11
4810.0888125785841112
 21
244.3670843713242959
 31
0.0
  0
LINE
  5
CC1C
  8
0
 10
4805.6247284684832266
 20
244.3835525447242958
 30
0.0
 11
4805.5872648006834424
 21
244.3835525447242958
 31
0.0
  0
LINE
  5
CC1D
  8
0
 10
4804.1677120743834166
 20
244.3835525447242958
 30
0.0
 11
4805.5648207500844364
 21
244.3835525447242958
 31
0.0
  0
LINE
  5
CC1E
  8
0
 10
4803.8718381784410667
 20
245.0410328597243108
 30
0.0
 11
4803.8916053421444303
 21
245.0410328597243108
 31
0.0
  0
LINE
  5
CC1F
  8
0
 10
4803.227711725883637
 20
244.3899115136242983
 30
0.0
 11
4804.1220472738832541
 21
244.3836677722242996
 31
0.0
  0
LINE
  5
CC20
  8
0
 10
4804.1220473267831039
 20
245.9188703884242955
 30
0.0
 11
4803.2277117255825942
 21
245.9126266466242896
 31
0.0
  0
LINE
  5
CC21
  8
0
 10
4803.8916053421544348
 20
245.2615053006242931
 30
0.0
 11
4803.8718381784510711
 21
245.2615053006242931
 31
0.0
  0
LINE
  5
CC22
  8
0
 10
4804.1677120756830845
 20
245.9189856156243081
 30
0.0
 11
4805.5648207500844364
 21
245.9189856156243081
 31
0.0
  0
LINE
  5
CC23
  8
0
 10
4808.906538391282993
 20
245.935453789024308
 30
0.0
 11
4810.0888124067832905
 21
245.935453789024308
 31
0.0
  0
LINE
  5
CC24
  8
0
 10
4808.8474832731826609
 20
245.8795956856243095
 30
0.0
 11
4808.8474832731826609
 21
244.4229424746243069
 31
0.0
  0
LINE
  5
CC25
  8
0
 10
4808.8592998769836413
 20
244.4623547070243035
 30
0.0
 11
4808.8592998769836413
 21
245.8401834532243129
 31
0.0
  0
LINE
  5
CC26
  8
0
 10
4808.8671683124830452
 20
244.4064598795243057
 30
0.0
 11
4808.8671683124830452
 21
245.8960782808242982
 31
0.0
  0
LINE
  5
CC27
  8
0
 10
4809.1421619888842542
 20
245.4378452030242954
 30
0.0
 11
4809.1421619892826129
 21
244.7225689818243097
 31
0.0
  0
LINE
  5
CC28
  8
0
 10
4806.6109585938829696
 20
260.8993015238743283
 30
0.0
 11
4805.6503286726829174
 21
260.8993015238743283
 31
0.0
  0
LINE
  5
CC29
  8
0
 10
4805.6503286726829174
 20
260.9780416813744068
 30
0.0
 11
4806.6109585938829696
 21
260.9780416813742931
 31
0.0
  0
ARC
  5
CC2A
  8
0
 10
4805.6796105220109894
 20
229.4443314047020124
 30
0.0
 40
0.0411289706338111
 50
182.4006855701738914
 51
267.5993144297929121
  0
ARC
  5
CC2B
  8
0
 10
4808.9088784949681212
 20
244.4087942315117914
 30
0.0
 40
0.0417754535835323
 50
183.2032738437162891
 51
266.7888252257828867
  0
ARC
  5
CC2C
  8
0
 10
4808.8062167865500669
 20
244.4248180806397102
 30
0.0
 40
0.0413090887948167
 50
272.6312458211252761
 51
357.3976364566377129
  0
ARC
  5
CC2D
  8
0
 10
4808.8435535071957929
 20
244.4860515451881895
 30
0.0
 40
0.0157463698358317
 50
284.451859801206183
 51
0.004493519947364
  0
ARC
  5
CC2E
  8
0
 10
4808.8711104762041941
 20
244.4623545722039069
 30
0.0
 40
0.0118105992206686
 50
179.9993459571724941
 51
250.5015197867869006
  0
ARC
  5
CC2F
  8
0
 10
4805.5872648006834424
 20
244.3953635683243135
 30
0.0
 40
0.0118110236
 50
203.2476757046906926
 51
269.999999999687418
  0
ARC
  5
CC30
  8
0
 10
4804.1682981229851066
 20
244.3926661158718048
 30
0.0
 40
0.0091323946489587
 50
223.0991781521256883
 51
266.3206582772558022
  0
ARC
  5
CC31
  8
0
 10
4804.1681390265530354
 20
245.9102140282296034
 30
0.0
 40
0.0087819720147704
 50
92.7866326185324368
 51
138.0792909648423858
  0
ARC
  5
CC32
  8
0
 10
4805.0873220140829289
 20
245.1512690801243082
 30
0.0
 40
1.2204724409000001
 50
141.7950604238951087
 51
218.2055540485116012
  0
ARC
  5
CC33
  8
0
 10
4805.0873220140829289
 20
245.1512690801243082
 30
0.0
 40
1.2007874015999991
 50
140.4370530445008001
 51
219.5648407490973
  0
ARC
  5
CC34
  8
0
 10
4805.6510209116995611
 20
260.9655384187573759
 30
0.0
 40
0.0125224107472828
 50
93.1689267575392392
 51
176.8310732424419029
  0
ARC
  5
CC35
  8
0
 10
4805.6511176018329934
 20
260.9119014766239957
 30
0.0
 40
0.0126246274598018
 50
183.5828211928512133
 51
266.4171788072566187
  0
ARC
  5
CC36
  8
0
 10
4805.6508918603658458
 20
260.8869273125914106
 30
0.0
 40
0.0123870208379698
 50
92.6059054331035156
 51
177.3940945669079952
  0
ARC
  5
CC37
  8
0
 10
4808.9081616989788017
 20
245.8944606258849888
 30
0.0
 40
0.0410252915143981
 50
92.2676978885144763
 51
177.7402028965030922
  0
ARC
  5
CC38
  8
0
 10
4808.8065761891966758
 20
245.878079301130299
 30
0.0
 40
0.0409351797632094
 50
2.12292494572766
 51
87.8481927765117092
  0
ARC
  5
CC39
  8
0
 10
4808.8435540429218236
 20
245.8164870302900056
 30
0.0
 40
0.0157458341482547
 50
359.9939957579350107
 51
75.5496509208495439
  0
ARC
  5
CC3A
  8
0
 10
4808.8711104762041941
 20
245.8401835880445958
 30
0.0
 40
0.0118105992208933
 50
109.4984802139838962
 51
180.0006540425164019
  0
ARC
  5
CC3B
  8
0
 10
4828.1424389437297577
 20
245.151269099023807
 30
0.0
 40
24.9566917327478102
 50
178.3220144876486017
 51
181.6779856848370116
  0
ARC
  5
CC3C
  8
0
 10
4805.564539286487161
 20
244.3903018941940957
 30
0.0
 40
0.0067552157642523
 50
272.3879838223170964
 51
304.504446095485207
  0
ARC
  5
CC3D
  8
0
 10
4813.6884519049881419
 20
233.4420927843378024
 30
0.0
 40
13.6263427243989099
 50
126.5354726937517995
 51
126.5775944977829965
  0
ARC
  5
CC3E
  8
0
 10
4806.9429779125493951
 20
242.5551141305572003
 30
0.0
 40
2.28842347523348
 50
122.0767114234506039
 51
126.6670857418568943
  0
ARC
  5
CC3F
  8
0
 10
4806.2816501480538136
 20
243.6524110629262054
 30
0.0
 40
1.0076893837492089
 50
108.5188460567995037
 51
123.3479525286593059
  0
ARC
  5
CC40
  8
0
 10
4806.2734363489589668
 20
243.6027864829054863
 30
0.0
 40
1.0451856095602581
 50
107.7555135395033972
 51
121.4760463532749952
  0
ARC
  5
CC41
  8
0
 10
4806.136348297510267
 20
244.0739818749605092
 30
0.0
 40
0.5618109553883245
 50
90.5817949925944532
 51
108.1231308433406042
  0
ARC
  5
CC42
  8
0
 10
4806.1332989925631409
 20
244.0318991843060132
 30
0.0
 40
0.5937830453626053
 50
90.2562238651361071
 51
107.5044724810665997
  0
ARC
  5
CC43
  8
0
 10
4805.6243778593607203
 20
244.3925961207746127
 30
0.0
 40
0.0090503698562098
 50
272.2201801020311223
 51
296.3203381165465089
  0
ARC
  5
CC44
  8
0
 10
4805.2413045437242545
 20
244.987490444748687
 30
0.0
 40
0.7165559639843129
 50
302.697503867135822
 51
303.6650248036730773
  0
ARC
  5
CC45
  8
0
 10
4806.3871886823471868
 20
243.2996134057399047
 30
0.0
 40
1.3235802881234451
 50
110.5655757500225036
 51
124.4468025060540981
  0
ARC
  5
CC46
  8
0
 10
4806.1375681891113345
 20
243.9419403507841082
 30
0.0
 40
0.6345532658960856
 50
90.6252519999696062
 51
109.836323459881001
  0
LINE
  5
CC47
  8
0
 10
4805.6247284684832266
 20
245.9189856155242921
 30
0.0
 11
4805.5872648006834424
 21
245.9189856155242921
 31
0.0
  0
ARC
  5
CC48
  8
0
 10
4805.5872648006834424
 20
245.9071745919243028
 30
0.0
 40
0.0118110236
 50
90.0000000003126672
 51
156.7523242953091938
  0
ARC
  5
CC49
  8
0
 10
4805.5644700357042893
 20
245.9120286497962979
 30
0.0
 40
0.0069658002208415
 50
55.9935203686391674
 51
87.1140497274353862
  0
ARC
  5
CC4A
  8
0
 10
4813.6884519002769593
 20
256.8604453695404004
 30
0.0
 40
13.6263427164755697
 50
233.4224055021965967
 51
233.4645273061956914
  0
ARC
  5
CC4B
  8
0
 10
4806.9429779125493951
 20
247.7474240296913877
 30
0.0
 40
2.28842347523348
 50
233.3329142581430062
 51
237.9232885765493108
  0
ARC
  5
CC4C
  8
0
 10
4806.2816501480538136
 20
246.6501270973224109
 30
0.0
 40
1.0076893837492089
 50
236.6520474713406941
 51
251.481153943200411
  0
ARC
  5
CC4D
  8
0
 10
4806.2734363489589668
 20
246.6997516773431869
 30
0.0
 40
1.0451856095602581
 50
238.5239536467250048
 51
252.2444864604966028
  0
ARC
  5
CC4E
  8
0
 10
4806.136348297510267
 20
246.2285562852881924
 30
0.0
 40
0.5618109553883245
 50
251.87686915665941
 51
269.4182050074056178
  0
ARC
  5
CC4F
  8
0
 10
4806.1332989925631409
 20
246.2706389759426884
 30
0.0
 40
0.5937830453626053
 50
252.4955275189333861
 51
269.7437761348638787
  0
ARC
  5
CC50
  8
0
 10
4805.6244179255572817
 20
245.9100995670171983
 30
0.0
 40
0.0088914731613627
 50
63.4609969401346419
 51
87.9984848412067038
  0
ARC
  5
CC51
  8
0
 10
4805.2413045437242545
 20
245.315047715499901
 30
0.0
 40
0.7165559639843129
 50
56.3349751963268517
 51
57.3024961328642419
  0
ARC
  5
CC52
  8
0
 10
4806.3871886823471868
 20
247.0029247545087117
 30
0.0
 40
1.3235802881234451
 50
235.5531974939459019
 51
249.4344242499774111
  0
ARC
  5
CC53
  8
0
 10
4806.1375681891113345
 20
246.3605978094645081
 30
0.0
 40
0.6345532658960856
 50
250.1636765401190132
 51
269.3747480000304222
  0
ARC
  5
CC54
  8
0
 10
4804.1220755041576922
 20
245.9109834843989972
 30
0.0
 40
0.0078869543595104
 50
321.763408729335481
 51
90.2046985475244298
  0
ARC
  5
CC55
  8
0
 10
4803.2280194079394278
 20
244.421496687158708
 30
0.0
 40
0.031586672117248
 50
181.8398979214844928
 51
269.4418797291896794
  0
ARC
  5
CC56
  8
0
 10
4803.2291440539329415
 20
245.8798913819879033
 30
0.0
 40
0.0327665853472189
 50
92.5053732876004204
 51
176.2129154699474043
  0
ARC
  5
CC57
  8
0
 10
4804.1220781253578025
 20
244.3915533980220118
 30
0.0
 40
0.0078856861485795
 50
269.7758389341466909
 51
38.160568769908167
  0
LINE
  5
CC58
  8
0
 10
4806.6227696174837547
 20
260.9662306577743038
 30
0.0
 11
4806.6227696174837547
 21
260.9111125474743176
 31
0.0
  0
LINE
  5
CC59
  8
0
 10
4806.6227696174837547
 20
229.4426086104745934
 30
0.0
 11
4806.6227696174846642
 21
244.3911061739518971
 31
0.0
  0
LINE
  5
CC5A
  8
0
 10
4806.6227696174846642
 20
245.9114319862968046
 30
0.0
 11
4806.6227696174837547
 21
260.8874905002742253
 31
0.0
  0
LINE
  5
CC5B
  8
0
 10
4806.6365587980835699
 20
244.3835525447242958
 30
0.0
 11
4806.6740224658842635
 21
244.3835525447242958
 31
0.0
  0
LINE
  5
CC5C
  8
0
 10
4808.8081131943836226
 20
244.3835525447242958
 30
0.0
 11
4806.6964665164832695
 21
244.3835525447242958
 31
0.0
  0
LINE
  5
CC5D
  8
0
 10
4808.8081131943836226
 20
245.9189856156243081
 30
0.0
 11
4806.6964665164832695
 21
245.9189856156243081
 31
0.0
  0
ARC
  5
CC5E
  8
0
 10
4806.5816767445558071
 20
229.4443314047020124
 30
0.0
 40
0.0411289706338111
 50
272.4006855702070879
 51
357.5993144298242896
  0
ARC
  5
CC5F
  8
0
 10
4806.6740224658842635
 20
244.3953635683243135
 30
0.0
 40
0.0118110236
 50
270.0000000003126956
 51
336.752324295309279
  0
ARC
  5
CC60
  8
0
 10
4806.6102663548663259
 20
260.9655384187573759
 30
0.0
 40
0.0125224107472828
 50
3.1689267575581122
 51
86.831073242460775
  0
ARC
  5
CC61
  8
0
 10
4806.6101696647328936
 20
260.9119014766239957
 30
0.0
 40
0.0126246274598018
 50
273.5828211927433813
 51
356.4171788071486731
  0
ARC
  5
CC62
  8
0
 10
4806.6103954062000412
 20
260.8869273125914106
 30
0.0
 40
0.0123870208379698
 50
2.6059054330920399
 51
87.3940945668964844
  0
ARC
  5
CC63
  8
0
 10
4806.6967479800796355
 20
244.3903018941940957
 30
0.0
 40
0.0067552157642523
 50
235.495553904514793
 51
267.6120161776827899
  0
ARC
  5
CC64
  8
0
 10
4798.5728353615777451
 20
233.4420927843378024
 30
0.0
 40
13.6263427243989099
 50
53.4224055022169892
 51
53.4645273062482076
  0
ARC
  5
CC65
  8
0
 10
4805.3183093540174013
 20
242.5551141305572003
 30
0.0
 40
2.28842347523348
 50
53.3329142581430489
 51
57.9232885765493393
  0
ARC
  5
CC66
  8
0
 10
4805.9796371185129829
 20
243.6524110629262054
 30
0.0
 40
1.0076893837492089
 50
56.6520474713406728
 51
71.4811539432004253
  0
ARC
  5
CC67
  8
0
 10
4805.9878509176069201
 20
243.6027864829054863
 30
0.0
 40
1.0451856095602581
 50
58.5239536467249692
 51
72.2444864604966028
  0
ARC
  5
CC68
  8
0
 10
4806.124938969057439
 20
244.0739818749605092
 30
0.0
 40
0.5618109553883245
 50
71.87686915665941
 51
89.4182050074055468
  0
ARC
  5
CC69
  8
0
 10
4806.127988274002746
 20
244.0318991843060132
 30
0.0
 40
0.5937830453626053
 50
72.4955275189333861
 51
89.7437761348638929
  0
ARC
  5
CC6A
  8
0
 10
4806.6369094072060761
 20
244.3925961207746127
 30
0.0
 40
0.0090503698562098
 50
243.6796618834534911
 51
267.7798198979688209
  0
ARC
  5
CC6B
  8
0
 10
4807.0199827228434515
 20
244.987490444748687
 30
0.0
 40
0.7165559639843129
 50
236.3349751963268091
 51
237.3024961328642064
  0
ARC
  5
CC6C
  8
0
 10
4805.8740985842196096
 20
243.2996134057399047
 30
0.0
 40
1.3235802881234451
 50
55.5531974939459232
 51
69.4344242499774253
  0
ARC
  5
CC6D
  8
0
 10
4806.1237190774563715
 20
243.9419403507841082
 30
0.0
 40
0.6345532658960856
 50
70.1636765401190132
 51
89.3747480000303938
  0
LINE
  5
CC6E
  8
0
 10
4806.6365587980835699
 20
245.9189856155242921
 30
0.0
 11
4806.6740224658842635
 21
245.9189856155242921
 31
0.0
  0
ARC
  5
CC6F
  8
0
 10
4806.6740224658842635
 20
245.9071745919243028
 30
0.0
 40
0.0118110236
 50
23.2476757046907494
 51
89.999999999687347
  0
ARC
  5
CC70
  8
0
 10
4806.6968172308615976
 20
245.9120286497962979
 30
0.0
 40
0.0069658002208415
 50
92.8859502725646138
 51
124.0064796313608042
  0
ARC
  5
CC71
  8
0
 10
4798.5728353662889276
 20
256.8604453695404004
 30
0.0
 40
13.6263427164755697
 50
306.5354726938044223
 51
306.5775944978033749
  0
ARC
  5
CC72
  8
0
 10
4805.3183093540174013
 20
247.7474240296913877
 30
0.0
 40
2.28842347523348
 50
302.0767114234506039
 51
306.6670857418570222
  0
ARC
  5
CC73
  8
0
 10
4805.9796371185129829
 20
246.6501270973224109
 30
0.0
 40
1.0076893837492089
 50
288.5188460567500783
 51
303.3479525286593912
  0
ARC
  5
CC74
  8
0
 10
4805.9878509176069201
 20
246.6997516773431869
 30
0.0
 40
1.0451856095602581
 50
287.7555135395033972
 51
301.4760463532742278
  0
ARC
  5
CC75
  8
0
 10
4806.124938969057439
 20
246.2285562852881924
 30
0.0
 40
0.5618109553883245
 50
270.5817949925943822
 51
288.1231308433406184
  0
ARC
  5
CC76
  8
0
 10
4806.127988274002746
 20
246.2706389759426884
 30
0.0
 40
0.5937830453626053
 50
270.2562238651361213
 51
287.5044724810665002
  0
ARC
  5
CC77
  8
0
 10
4806.6368693410086053
 20
245.9100995670171983
 30
0.0
 40
0.0088914731613627
 50
92.0015151587932962
 51
116.5390030598652942
  0
ARC
  5
CC78
  8
0
 10
4807.0199827228434515
 20
245.315047715499901
 30
0.0
 40
0.7165559639843129
 50
122.6975038671356941
 51
123.6650248036731057
  0
ARC
  5
CC79
  8
0
 10
4805.8740985842196096
 20
247.0029247545087117
 30
0.0
 40
1.3235802881234451
 50
290.5655757500225036
 51
304.4468025060539844
  0
ARC
  5
CC7A
  8
0
 10
4806.1237190774563715
 20
246.3605978094645081
 30
0.0
 40
0.6345532658960856
 50
270.6252519999695778
 51
289.8363234598808731
  0
ARC
  5
CC7B
  8
0
 10
4810.0872405776399319
 20
245.894428977846502
 30
0.0
 40
0.0410549117528005
 50
3.90371994241299
 51
87.8058364158313509
  0
ARC
  5
CC7C
  8
0
 10
4785.5682877973549694
 20
245.1517762684538013
 30
0.0
 40
24.5712228292911483
 50
358.2565301274033231
 51
1.7385200463284569
  0
ARC
  5
CC7D
  8
0
 10
4810.0887011723671094
 20
244.4065907823004125
 30
0.0
 40
0.0395065680558634
 50
270.1615709690087215
 51
356.5404317775273171
  0
ARC
  5
CC7E
  8
0
 10
4809.5368460496210901
 20
237.6696523177531901
 30
0.0
 40
8.2244974003731102
 50
90.272881905527214
 51
92.2856955746673151
  0
ARC
  5
CC7F
  8
0
 10
4809.260219312262052
 20
244.9781852678885059
 30
0.0
 40
0.9108714715768929
 50
93.2339698138136441
 51
99.0978558850682845
  0
ARC
  5
CC80
  8
0
 10
4809.1242007101891431
 20
245.7966085726116887
 30
0.0
 40
0.0813842341426238
 50
95.6478939807928867
 51
139.693897295044593
  0
ARC
  5
CC81
  8
0
 10
4809.122267534356979
 20
245.8093305573283942
 30
0.0
 40
0.07217700244586
 50
146.4181312180554073
 51
185.2328806998675077
  0
ARC
  5
CC82
  8
0
 10
4809.5112338000053569
 20
245.8799187865521958
 30
0.0
 40
0.4672591760351531
 50
189.5063478976123861
 51
209.4410834293404093
  0
ARC
  5
CC83
  8
0
 10
4808.5371706899841229
 20
245.4396197424871957
 30
0.0
 40
0.604993901402281
 50
359.8319424917178821
 51
20.374131593841561
  0
ARC
  5
CC84
  8
0
 10
4809.5171560376211346
 20
250.3079370611793877
 30
0.0
 40
5.8927123189668746
 50
267.8170273337320282
 51
269.8105871415157822
  0
ARC
  5
CC85
  8
0
 10
4809.3456132918527146
 20
245.6095093828319023
 30
0.0
 40
1.1911840929640849
 50
262.5521447399806902
 51
267.4539278153591226
  0
ARC
  5
CC86
  8
0
 10
4809.1994063135480246
 20
244.5400600866551031
 30
0.0
 40
0.1119856023767524
 50
228.8860597360121005
 51
265.8014165595977829
  0
ARC
  5
CC87
  8
0
 10
4809.1884696292481749
 20
244.5078381028816068
 30
0.0
 40
0.0815523876253248
 50
174.7659857168642077
 51
219.7505260052649021
  0
ARC
  5
CC88
  8
0
 10
4809.3795497538740165
 20
244.484774687343787
 30
0.0
 40
0.2739956563534855
 50
159.2763036465692039
 51
173.6082212723840996
  0
ARC
  5
CC89
  8
0
 10
4808.709545815079764
 20
244.7088782884102898
 30
0.0
 40
0.4328327497642259
 50
342.917068702391191
 51
1.812593456727289
  0
ARC
  5
CC8A
  8
0
 10
4810.2858893300299314
 20
245.8117703251211879
 30
0.0
 40
0.179354901391592
 50
151.546187287632705
 51
173.4514457529344895
  0
ARC
  5
CC8B
  8
0
 10
4810.3252034803172137
 20
244.5013057282590125
 30
0.0
 40
0.2196904548711681
 50
188.0973737388995914
 51
206.2303248997596086
  0
ARC
  5
CC8C
  8
0
 10
4813.9770116175650401
 20
245.1512892584709107
 30
0.0
 40
3.9287669801249461
 50
170.0190670637724111
 51
189.9808232387570968
  0
ARC
  5
CC8D
  8
0
 10
4809.279676735243811
 20
245.8948559067318911
 30
0.0
 40
0.4132622250997796
 50
183.4611430681893864
 51
190.9935383627183967
  0
ARC
  5
CC8E
  8
0
 10
4805.851890695325892
 20
245.1522348779737968
 30
0.0
 40
3.0941529135215968
 50
347.7484412053802885
 51
12.3884100799248493
  0
ARC
  5
CC8F
  8
0
 10
4809.5233696242112273
 20
244.377206934860709
 30
0.0
 40
0.6585320398379493
 50
169.6391071318631987
 51
175.1780449641780137
  0
LINE
  5
CC90
  8
0
 10
4809.8531889809828499
 20
245.4378452030242954
 30
0.0
 11
4809.8531889805826722
 21
244.7225689818243097
 31
0.0
  0
ARC
  5
CC91
  8
0
 10
4809.4585049202441951
 20
237.6696523177531901
 30
0.0
 40
8.2244974003731102
 50
87.7143044253326707
 51
89.7271180944727433
  0
ARC
  5
CC92
  8
0
 10
4809.7351316576041427
 20
244.9781852678885059
 30
0.0
 40
0.9108714715768929
 50
80.9021441149317297
 51
86.7660301861863701
  0
ARC
  5
CC93
  8
0
 10
4809.8711502596770515
 20
245.7966085726116887
 30
0.0
 40
0.0813842341426238
 50
40.3061027049553715
 51
84.3521060192070991
  0
ARC
  5
CC94
  8
0
 10
4809.8730834355092156
 20
245.8093305573283942
 30
0.0
 40
0.07217700244586
 50
354.7671193001323786
 51
33.5818687819445927
  0
ARC
  5
CC95
  8
0
 10
4809.4841171698608377
 20
245.8799187865521958
 30
0.0
 40
0.4672591760351531
 50
330.5589165706596191
 51
350.4936521023876139
  0
ARC
  5
CC96
  8
0
 10
4810.4581802798820718
 20
245.4396197424871957
 30
0.0
 40
0.604993901402281
 50
159.6258684061583892
 51
180.1680575082820894
  0
ARC
  5
CC97
  8
0
 10
4809.47819493224506
 20
250.3079370611793877
 30
0.0
 40
5.8927123189668746
 50
270.1894128584841042
 51
272.1829726662679718
  0
ARC
  5
CC98
  8
0
 10
4809.6497376780143895
 20
245.6095093828319023
 30
0.0
 40
1.1911840929640849
 50
272.5460721846408774
 51
277.4478552600193098
  0
ARC
  5
CC99
  8
0
 10
4809.79594465631817
 20
244.5400600866551031
 30
0.0
 40
0.1119856023767524
 50
274.1985834404021034
 51
311.1139402639880132
  0
ARC
  5
CC9A
  8
0
 10
4809.8068813406198387
 20
244.5078381028816068
 30
0.0
 40
0.0815523876253248
 50
320.2494739947338758
 51
5.2340142831357586
  0
ARC
  5
CC9B
  8
0
 10
4809.6158012159930877
 20
244.484774687343787
 30
0.0
 40
0.2739956563534855
 50
6.3917787276158817
 51
20.7236963534307606
  0
ARC
  5
CC9C
  8
0
 10
4810.2858051547864306
 20
244.7088782884102898
 30
0.0
 40
0.4328327497642259
 50
178.1874065432726866
 51
197.082931297608809
  0
ARC
  5
CC9E
  8
0
 10
4806.1685571639663976
 20
259.5109421205198146
 30
0.0
 40
1.029511550895627
 50
120.9871367118408045
 51
161.4484204762528066
  0
ARC
  5
CC9F
  8
0
 10
4806.7670427238399498
 20
259.3837163383192888
 30
0.0
 40
1.6388633191681099
 50
163.8893543917932902
 51
177.2217064837898874
  0
ARC
  5
CCA0
  8
0
 10
9952.5661513366212603
 20
143.4469425645650063
 30
0.0
 40
5148.7433034267851326
 50
178.7088496111167899
 51
178.7212171287719116
  0
ARC
  5
CCA1
  8
0
 10
4806.1685571639663976
 20
257.1931727392267248
 30
0.0
 40
1.029511550895627
 50
198.5515795237471082
 51
239.0128632881591955
  0
ARC
  5
CCA2
  8
0
 10
4806.7670427238399498
 20
257.3203985214270801
 30
0.0
 40
1.6388633191681099
 50
182.7782935162101126
 51
196.1106456082065961
  0
ARC
  5
CCA3
  8
0
 10
9952.5661513366212603
 20
373.2571722951814195
 30
0.0
 40
5148.7433034267851326
 50
181.2787828712280032
 51
181.2911503888830964
  0
ARC
  5
CCA4
  8
0
 10
4806.0927301013998658
 20
259.5109421205198146
 30
0.0
 40
1.029511550895627
 50
18.5515795237471508
 51
59.0128632881591884
  0
ARC
  5
CCA5
  8
0
 10
4805.4942445415272232
 20
259.3837163383192888
 30
0.0
 40
1.6388633191681099
 50
2.7782935162100868
 51
16.11064560820666
  0
ARC
  5
CCA6
  8
0
 10
-340.3048640712549968
 20
143.4469425645650063
 30
0.0
 40
5148.7433034267851326
 50
1.27878287122806
 51
1.2911503888831719
  0
ARC
  5
CCA7
  8
0
 10
4806.0927301013998658
 20
257.1931727392267248
 30
0.0
 40
1.029511550895627
 50
300.9871367118407761
 51
341.4484204762529203
  0
ARC
  5
CCA8
  8
0
 10
4805.4942445415272232
 20
257.3203985214270801
 30
0.0
 40
1.6388633191681099
 50
343.8893543917934039
 51
357.2217064837881821
  0
ARC
  5
CCA9
  8
0
 10
-340.3048640712549968
 20
373.2571722951814195
 30
0.0
 40
5148.7433034267851326
 50
358.7088496111168183
 51
358.7212171287719116
  0
ARC
  5
CCAA
  8
0
 10
4806.1685571639663976
 20
233.1093673170697969
 30
0.0
 40
1.029511550895627
 50
120.9871367118408045
 51
161.4484204762528066
  0
ARC
  5
CCAB
  8
0
 10
4806.7670427238399498
 20
232.9821415348694131
 30
0.0
 40
1.6388633191681099
 50
163.8893543917932902
 51
177.2217064837898874
  0
ARC
  5
CCAC
  8
0
 10
9952.5661513366212603
 20
117.0453677611150027
 30
0.0
 40
5148.7433034267851326
 50
178.7088496111167899
 51
178.7212171287719116
  0
ARC
  5
CCAD
  8
0
 10
4806.1685571639663976
 20
230.7915979357767071
 30
0.0
 40
1.029511550895627
 50
198.5515795237471082
 51
239.0128632881591955
  0
ARC
  5
CCAE
  8
0
 10
4806.7670427238399498
 20
230.9188237179770908
 30
0.0
 40
1.6388633191681099
 50
182.7782935162101126
 51
196.1106456082065961
  0
ARC
  5
CCAF
  8
0
 10
9952.5661513366212603
 20
346.8555974917313733
 30
0.0
 40
5148.7433034267851326
 50
181.2787828712280032
 51
181.2911503888830964
  0
ARC
  5
CCB0
  8
0
 10
4806.0927301013998658
 20
233.1093673170697969
 30
0.0
 40
1.029511550895627
 50
18.5515795237471508
 51
59.0128632881591884
  0
ARC
  5
CCB1
  8
0
 10
4805.4942445415272232
 20
232.9821415348694131
 30
0.0
 40
1.6388633191681099
 50
2.7782935162100868
 51
16.11064560820666
  0
ARC
  5
CCB2
  8
0
 10
-340.3048640712549968
 20
117.0453677611150027
 30
0.0
 40
5148.7433034267851326
 50
1.27878287122806
 51
1.2911503888831719
  0
ARC
  5
CCB3
  8
0
 10
4806.0927301013998658
 20
230.7915979357767071
 30
0.0
 40
1.029511550895627
 50
300.9871367118407761
 51
341.4484204762529203
  0
ARC
  5
CCB4
  8
0
 10
4805.4942445415272232
 20
230.9188237179770908
 30
0.0
 40
1.6388633191681099
 50
343.8893543917934039
 51
357.2217064837881821
  0
ARC
  5
CCB5
  8
0
 10
-340.3048640712549968
 20
346.8555974917313733
 30
0.0
 40
5148.7433034267851326
 50
358.7088496111168183
 51
358.7212171287719116
  0
LINE
  5
CCB6
  8
0
 10
4805.7762761604826665
 20
229.0489078230743019
 30
0.0
 11
4806.4849375777830573
 21
229.0489078230743019
 31
0.0
  0
LINE
  5
CCB7
  8
0
 10
4805.7172210422831995
 20
229.1079629412743941
 30
0.0
 11
4806.5439926958842989
 21
229.1079629412743941
 31
0.0
  0
LINE
  5
CCB8
  8
0
 10
4806.5439926958842989
 20
229.3323723900743119
 30
0.0
 11
4805.7172210422831995
 21
229.3323723900743119
 31
0.0
  0
LINE
  5
CCB9
  8
0
 10
4805.7172210422831995
 20
229.1079629412743941
 30
0.0
 11
4805.7762761604826665
 21
229.0489078230743019
 31
0.0
  0
LINE
  5
CCBA
  8
0
 10
4805.7172210422831995
 20
229.3323723900743119
 30
0.0
 11
4805.7172210422831995
 21
229.1079629412743941
 31
0.0
  0
LINE
  5
CCBB
  8
0
 10
4805.7762761604826665
 20
229.4032385317742921
 30
0.0
 11
4805.7762761604826665
 21
229.3323723900743119
 31
0.0
  0
LINE
  5
CCBC
  8
0
 10
4806.4849375777830573
 20
229.4032385317742921
 30
0.0
 11
4806.4849375777830573
 21
229.3323723900743119
 31
0.0
  0
LINE
  5
CCBD
  8
0
 10
4806.5439926958842989
 20
229.3323723900743119
 30
0.0
 11
4806.5439926958842989
 21
229.1079629412743941
 31
0.0
  0
LINE
  5
CCBE
  8
0
 10
4806.5439926958842989
 20
229.1079629412743941
 30
0.0
 11
4806.4849375777830573
 21
229.0489078230743019
 31
0.0
  0
ENDSEC
  0
EOF
