  0
SECTION
  2
HEADER
  9
$ACADVER
  1
AC1009
  9
$INSBASE
 10
4846.2837780773161285
 20
244.4046496574445086
 30
0.0
  9
$EXTMIN
 10
4843.3388816556162055
 20
240.8219724624457001
 30
0.0
  9
$EXTMAX
 10
4850.2926450483546432
 20
244.4095729015882057
 30
0.0
  9
$LIMMIN
 10
0.0
 20
0.0
  9
$LIMMAX
 10
11.6929133858000007
 20
8.2677165353999982
  9
$ORTHOMODE
 70
     1
  9
$REGENMODE
 70
     1
  9
$FILLMODE
 70
     1
  9
$QTEXTMODE
 70
     0
  9
$MIRRTEXT
 70
     0
  9
$DRAGMODE
 70
     2
  9
$LTSCALE
 40
0.6431102362
  9
$OSMODE
 70
  4095
  9
$ATTMODE
 70
     1
  9
$TEXTSIZE
 40
0.2
  9
$TRACEWID
 40
0.05
  9
$TEXTSTYLE
  7
STANDARD
  9
$CLAYER
  8
0
  9
$CELTYPE
  6
BYLAYER
  9
$CECOLOR
 62
   256
  9
$DIMSCALE
 40
1.0
  9
$DIMASZ
 40
0.1875
  9
$DIMEXO
 40
0.0625
  9
$DIMDLI
 40
0.4443307087
  9
$DIMRND
 40
0.0
  9
$DIMDLE
 40
0.0
  9
$DIMEXE
 40
0.125
  9
$DIMTP
 40
0.01
  9
$DIMTM
 40
0.01
  9
$DIMTXT
 40
2.0
  9
$DIMCEN
 40
0.1052362205
  9
$DIMTSZ
 40
0.0
  9
$DIMTOL
 70
     1
  9
$DIMLIM
 70
     0
  9
$DIMTIH
 70
     1
  9
$DIMTOH
 70
     1
  9
$DIMSE1
 70
     0
  9
$DIMSE2
 70
     0
  9
$DIMTAD
 70
     0
  9
$DIMZIN
 70
     0
  9
$DIMBLK
  1

  9
$DIMASO
 70
     1
  9
$DIMSHO
 70
     1
  9
$DIMPOST
  1
\X
  9
$DIMAPOST
  1

  9
$DIMALT
 70
     1
  9
$DIMALTD
 70
     2
  9
$DIMALTF
 40
25.3999999999999986
  9
$DIMLFAC
 40
1.0
  9
$DIMTOFL
 70
     0
  9
$DIMTVP
 40
0.0
  9
$DIMTIX
 70
     0
  9
$DIMSOXD
 70
     0
  9
$DIMSAH
 70
     0
  9
$DIMBLK1
  1

  9
$DIMBLK2
  1

  9
$DIMSTYLE
  2
STANDARD
  9
$DIMCLRD
 70
     0
  9
$DIMCLRE
 70
     0
  9
$DIMCLRT
 70
     0
  9
$DIMTFAC
 40
1.0
  9
$DIMGAP
 40
0.09
  9
$LUNITS
 70
     2
  9
$LUPREC
 70
     4
  9
$SKETCHINC
 40
0.1
  9
$FILLETRAD
 40
0.0
  9
$AUNITS
 70
     0
  9
$AUPREC
 70
     0
  9
$MENU
  1
.
  9
$ELEVATION
 40
0.0
  9
$PELEVATION
 40
0.0
  9
$THICKNESS
 40
0.0
  9
$LIMCHECK
 70
     0
  9
$BLIPMODE
 70
     0
  9
$CHAMFERA
 40
0.0
  9
$CHAMFERB
 40
0.0
  9
$SKPOLY
 70
     0
  9
$TDCREATE
 40
2458060.468368056230247
  9
$TDUPDATE
 40
2459245.7654513888992369
  9
$TDINDWG
 40
0.3577501157
  9
$TDUSRTIMER
 40
0.3577501157
  9
$USRTIMER
 70
     1
  9
$ANGBASE
 50
0.0
  9
$ANGDIR
 70
     0
  9
$PDMODE
 70
     0
  9
$PDSIZE
 40
0.3125
  9
$PLINEWID
 40
0.0
  9
$COORDS
 70
     1
  9
$SPLFRAME
 70
     0
  9
$SPLINETYPE
 70
     6
  9
$SPLINESEGS
 70
     8
  9
$ATTDIA
 70
     1
  9
$ATTREQ
 70
     1
  9
$HANDLING
 70
     1
  9
$HANDSEED
  5
CE77
  9
$SURFTAB1
 70
     6
  9
$SURFTAB2
 70
     6
  9
$SURFTYPE
 70
     6
  9
$SURFU
 70
     6
  9
$SURFV
 70
     6
  9
$UCSNAME
  2

  9
$UCSORG
 10
0.0
 20
0.0
 30
0.0
  9
$UCSXDIR
 10
1.0
 20
0.0
 30
0.0
  9
$UCSYDIR
 10
0.0
 20
1.0
 30
0.0
  9
$PUCSNAME
  2

  9
$PUCSORG
 10
0.0
 20
0.0
 30
0.0
  9
$PUCSXDIR
 10
1.0
 20
0.0
 30
0.0
  9
$PUCSYDIR
 10
0.0
 20
1.0
 30
0.0
  9
$USERI1
 70
     0
  9
$USERI2
 70
     0
  9
$USERI3
 70
     0
  9
$USERI4
 70
     0
  9
$USERI5
 70
     0
  9
$USERR1
 40
0.0
  9
$USERR2
 40
0.0
  9
$USERR3
 40
0.0
  9
$USERR4
 40
0.0
  9
$USERR5
 40
0.0
  9
$WORLDVIEW
 70
     1
  9
$SHADEDGE
 70
     3
  9
$SHADEDIF
 70
    70
  9
$TILEMODE
 70
     1
  9
$MAXACTVP
 70
    64
  9
$PLIMCHECK
 70
     0
  9
$PEXTMIN
 10
1.0000000000000000E+20
 20
1.0000000000000000E+20
 30
1.0000000000000000E+20
  9
$PEXTMAX
 10
-1.0000000000000000E+20
 20
-1.0000000000000000E+20
 30
-1.0000000000000000E+20
  9
$PLIMMIN
 10
0.0
 20
0.0
  9
$PLIMMAX
 10
12.0
 20
9.0
  9
$UNITMODE
 70
     0
  9
$VISRETAIN
 70
     1
  9
$PLINEGEN
 70
     0
  9
$PSLTSCALE
 70
     1
  0
ENDSEC
  0
SECTION
  2
TABLES
  0
TABLE
  2
VPORT
 70
     1
  0
VPORT
  2
*ACTIVE
 70
     0
 10
0.0
 20
0.0
 11
1.0
 21
1.0
 12
0.0
 22
0.0
 13
0.0
 23
0.0
 14
1.0
 24
1.0
 15
0.0
 25
0.0
 16
0.0
 26
0.0
 36
22.1706813021613485
 17
4846.815673828125
 27
242.6157743047978954
 37
0.0
 40
7.8259506422880989
 41
2.1186252771618621
 42
50.0
 43
0.0
 44
0.0
 50
0.0
 51
0.0
 71
     0
 72
   100
 73
     1
 74
     1
 75
     0
 76
     0
 77
     0
 78
     0
  0
ENDTAB
  0
TABLE
  2
LTYPE
 70
     2
  0
LTYPE
  2
CONTINUOUS
 70
     0
  3
Solid line
 72
    65
 73
     0
 40
0.0
  0
LTYPE
  2
PHANTOM2
 70
     0
  3
___ _ _ ___ _ _ ___ _ _ ___ _ _
 72
    65
 73
     6
 40
1.25
 49
0.625
 49
-0.125
 49
0.125
 49
-0.125
 49
0.125
 49
-0.125
  0
ENDTAB
  0
TABLE
  2
LAYER
 70
     2
  0
LAYER
  2
0
 70
     0
 62
   255
  6
CONTINUOUS
  0
LAYER
  2
DEFPOINTS
 70
     0
 62
     7
  6
CONTINUOUS
  0
ENDTAB
  0
TABLE
  2
STYLE
 70
     1
  0
STYLE
  2
STANDARD
 70
     0
 40
0.0
 41
0.8
 50
0.0
 71
     0
 42
0.2
  3
txt
  4

  0
ENDTAB
  0
TABLE
  2
VIEW
 70
     0
  0
ENDTAB
  0
TABLE
  2
UCS
 70
     0
  0
ENDTAB
  0
TABLE
  2
APPID
 70
     9
  0
APPID
  2
ACAD
 70
     0
  0
APPID
  2
ACAD_MLEADERVER
 70
     0
  0
APPID
  2
ACAD_EXEMPT_FROM_CAD_STANDARDS
 70
     0
  0
APPID
  2
ACAD_NAV_VCDISPLAY
 70
     0
  0
APPID
  2
ACAECLAYERSTANDARD
 70
     0
  0
APPID
  2
ACCMTRANSPARENCY
 70
     0
  0
APPID
  2
ACAD_DSTYLE_DIMJAG
 70
     0
  0
APPID
  2
ACAD_DSTYLE_DIMTALN
 70
     0
  0
APPID
  2
ACDBATTR
 70
     0
  0
ENDTAB
  0
TABLE
  2
DIMSTYLE
 70
     1
  0
DIMSTYLE
  2
STANDARD
 70
     0
  3

  4

  5

  6

  7

 40
1.0
 41
0.1875
 42
0.0625
 43
0.38
 44
0.125
 45
0.0
 46
0.0
 47
0.01
 48
0.01
140
0.15625
141
0.09
142
0.0
143
25.3999999999999986
144
1.0
145
0.0
146
1.0
147
0.09
 71
     1
 72
     0
 73
     1
 74
     1
 75
     0
 76
     0
 77
     0
 78
     4
170
     0
171
     2
172
     0
173
     0
174
     0
175
     0
176
     0
177
     0
178
     0
  0
ENDTAB
  0
ENDSEC
  0
SECTION
  2
BLOCKS
  0
BLOCK
  8
0
  2
$MODEL_SPACE
 70
     0
 10
0.0
 20
0.0
 30
0.0
  3
$MODEL_SPACE
  1

  0
ENDBLK
  5
21
  8
0
  0
BLOCK
 67
     1
  8
0
  2
$PAPER_SPACE
 70
     0
 10
0.0
 20
0.0
 30
0.0
  3
$PAPER_SPACE
  1

  0
ENDBLK
  5
1D
 67
     1
  8
0
  0
ENDSEC
  0
SECTION
  2
ENTITIES
  0
ATTDEF
  5
3930
  8
DEFPOINTS
 10
4846.2809493439253856
 20
244.4085729015880872
 30
0.0
 40
0.001
  1
K-26313W
  3

  2
MODELNUMBER
 70
     0
1001
ACDBATTR
1070
     0
1070
     1
  0
ATTDEF
  5
3931
  8
DEFPOINTS
 10
4846.2809493439253856
 20
244.4069062349213937
 30
0.0
 40
0.001
  1

  3

  2
TRADENAME
 70
     0
1001
ACDBATTR
1070
     0
1070
     1
  0
ATTDEF
  5
3932
  8
DEFPOINTS
 10
4846.2809493439253856
 20
244.4052395682548138
 30
0.0
 40
0.001
  1
SLIDEBAR
  3

  2
PRODUCT
 70
     0
1001
ACDBATTR
1070
     0
1070
     1
  0
LINE
  5
CD1E
  8
0
 10
4843.3496391278158626
 20
242.9719795267444908
 30
0.0
 11
4843.3496391278158626
 21
241.5066111267445024
 31
0.0
  0
LINE
  5
CD1F
  8
0
 10
4844.0396690571160434
 20
241.4794528070445097
 30
0.0
 11
4844.0396690571160434
 21
241.5095881300445058
 31
0.0
  0
LINE
  5
CD20
  8
0
 10
4844.0396690571160434
 20
242.9690020474444907
 30
0.0
 11
4844.0396690571160434
 21
242.999137846444512
 31
0.0
  0
LINE
  5
CD21
  8
0
 10
4849.13734236291657
 20
240.8219724921445106
 30
0.0
 11
4849.2559263552157063
 21
240.8219724921445106
 31
0.0
  0
LINE
  5
CD22
  8
0
 10
4845.8507056738162646
 20
242.5158660343444978
 30
0.0
 11
4845.8507056738162646
 21
244.4046496574445086
 31
0.0
  0
LINE
  5
CD23
  8
0
 10
4844.0475430729165964
 20
241.4715787913445126
 30
0.0
 11
4848.9612476390157099
 21
241.4715787913445126
 31
0.0
  0
LINE
  5
CD24
  8
0
 10
4844.0120550314159118
 20
241.4716341469444956
 30
0.0
 11
4843.3809017323173975
 21
241.4760404998444869
 31
0.0
  0
LINE
  5
CD25
  8
0
 10
4846.2601560307166437
 20
243.491263830644499
 30
0.0
 11
4846.2601560307166437
 21
243.6251220984445069
 31
0.0
  0
LINE
  5
CD26
  8
0
 10
4843.3809017323173975
 20
243.0025501536445063
 30
0.0
 11
4844.0120550314159118
 21
243.0069565065444976
 31
0.0
  0
LINE
  5
CD27
  8
0
 10
4845.8507056738162646
 20
243.007011862144509
 30
0.0
 11
4844.0475430729165964
 21
243.007011862144509
 31
0.0
  0
LINE
  5
CD28
  8
0
 10
4849.0596728359159897
 20
243.007011862144509
 30
0.0
 11
4850.1753959623174524
 21
243.007011862144509
 31
0.0
  0
LINE
  5
CD29
  8
0
 10
4846.7168504820174348
 20
244.4046496574445086
 30
0.0
 11
4845.8507056726166411
 21
244.4046496574445086
 31
0.0
  0
LINE
  5
CD2A
  8
0
 10
4849.0006177178156577
 20
242.9676417834444919
 30
0.0
 11
4849.0006177178156577
 21
241.5109488700445013
 31
0.0
  0
LINE
  5
CD2B
  8
0
 10
4849.0124343216157285
 20
241.5503809536444919
 30
0.0
 11
4849.0124343216157285
 21
242.9282095911445083
 31
0.0
  0
LINE
  5
CD2C
  8
0
 10
4849.0203027571160419
 20
242.9676322811444891
 30
0.0
 11
4849.0203027571160419
 21
241.4529725685445101
 31
0.0
  0
LINE
  5
CD2D
  8
0
 10
4849.2952952564173756
 20
241.0018844034445067
 30
0.0
 11
4849.2952964339174287
 21
240.8612632369444952
 31
0.0
  0
ARC
  5
CD2E
  8
0
 10
4843.3811216145159051
 20
241.5075357952445074
 30
0.0
 40
0.031496063
 50
181.6823441022991119
 51
269.6000000000072987
  0
ARC
  5
CD2F
  8
0
 10
4844.011461982052424
 20
241.4806817357292061
 30
0.0
 40
0.0090670044060097
 50
273.7502466642422974
 51
324.0547618155263194
  0
ARC
  5
CD30
  8
0
 10
4844.0475430729165964
 20
241.4794528070445097
 30
0.0
 40
0.0078740157
 50
180.0
 51
270.0
  0
ARC
  5
CD31
  8
0
 10
4843.3811216145159051
 20
242.9710548582445142
 30
0.0
 40
0.031496063
 50
90.3999999999927155
 51
178.3176558977008028
  0
ARC
  5
CD32
  8
0
 10
4844.0121100020160156
 20
242.9990826826445129
 30
0.0
 40
0.0078740157
 50
31.7972017337054211
 51
90.3999999999927155
  0
ARC
  5
CD33
  8
0
 10
4844.0475430729165964
 20
242.999137846444512
 30
0.0
 40
0.0078740157
 50
90.0
 51
180.0
  0
ARC
  5
CD34
  8
0
 10
4845.86251669633657
 20
242.5158660341423058
 30
0.0
 40
0.0118110236211635
 50
179.9999995134388087
 51
326.7199885646033977
  0
ARC
  5
CD35
  8
0
 10
4846.2837780780146204
 20
242.2392953267444966
 30
0.0
 40
0.4921259843000101
 50
90.0000000115684742
 51
269.9999999884315116
  0
ARC
  5
CD36
  8
0
 10
4846.2837780779173045
 20
243.491263830644499
 30
0.0
 40
0.0236220472
 50
180.0
 51
270.0
  0
ARC
  5
CD37
  8
0
 10
4846.2837780779173045
 20
243.6251220984445069
 30
0.0
 40
0.0236220472
 50
90.0
 51
180.0
  0
ARC
  5
CD38
  8
0
 10
4848.9591584771460475
 20
241.5130380319141068
 30
0.0
 40
0.0415118444052841
 50
272.8847367920816964
 51
357.1152632078917009
  0
ARC
  5
CD39
  8
0
 10
4848.9966864119096499
 20
241.5740789849789962
 30
0.0
 40
0.0157479097058524
 50
284.4562017294156249
 51
0.000151591835388
  0
ARC
  5
CD3A
  8
0
 10
4849.0241846089111277
 20
241.550361659736808
 30
0.0
 40
0.0117503031348667
 50
179.9059207271671994
 51
250.7092606718119043
  0
ARC
  5
CD3B
  8
0
 10
4850.1753951526416131
 20
242.9676413470305079
 30
0.0
 40
0.0393705151223251
 50
10.5301651698585008
 51
89.9988216835619852
  0
ARC
  5
CD3C
  8
0
 10
4849.0617767647127039
 20
242.9655383610734987
 30
0.0
 40
0.0415268323794473
 50
92.904095121320637
 51
177.1097318832329108
  0
ARC
  5
CD3D
  8
0
 10
4848.9597969461219691
 20
242.9661910905502964
 30
0.0
 40
0.0408465408990211
 50
2.0353269113402139
 51
87.9646730886867658
  0
ARC
  5
CD3E
  8
0
 10
4848.9966864119096499
 20
242.9045116685099117
 30
0.0
 40
0.0157479097058567
 50
359.9998484081646097
 51
75.5437982705843893
  0
ARC
  5
CD3F
  8
0
 10
4849.0242430293292273
 20
242.9282103865201066
 30
0.0
 40
0.0118087077410764
 50
109.4919940479366005
 51
180.0038591575575992
  0
ARC
  5
CD40
  8
0
 10
4868.2955745690160256
 20
242.2392953267444966
 30
0.0
 40
24.9566929134000013
 50
178.3176558977008028
 51
181.6823441022991119
  0
ARC
  5
CD41
  8
0
 10
4841.4915625237854329
 20
241.4391186432069958
 30
0.0
 40
2.9721019726401021
 50
30.9806092516481009
 51
31.753435323040069
  0
ARC
  5
CD42
  8
0
 10
4842.844266094329214
 20
242.1647238684359991
 30
0.0
 40
1.440781604778671
 50
2.9712907648249631
 51
33.933031132521613
  0
ARC
  5
CD43
  8
0
 10
4842.8284925255757116
 20
242.3191048162586014
 30
0.0
 40
1.456799868140642
 50
326.2423347072181059
 51
356.8639514990153998
  0
ARC
  5
CD44
  8
0
 10
4786.539528629535198
 20
276.5394215235401134
 30
0.0
 40
67.3301966191067436
 50
328.6155701565991194
 51
328.6496835253338986
  0
ARC
  5
CD45
  8
0
 10
4842.1049600122169068
 20
242.7456450191432111
 30
0.0
 40
2.3122157785946751
 50
326.7968050210067759
 51
334.8580830085014099
  0
ARC
  5
CD46
  8
0
 10
4843.2099705138816716
 20
242.2577465522161049
 30
0.0
 40
1.1049563523736179
 50
333.4162669812620265
 51
359.0431961575703212
  0
ARC
  5
CD47
  8
0
 10
4842.1268916947246908
 20
241.7444208460844948
 30
0.0
 40
2.2875821272837098
 50
25.1202060797020899
 51
33.2635145443330416
  0
ARC
  5
CD48
  8
0
 10
4843.2100410890971034
 20
242.2210945782275076
 30
0.0
 40
1.1048816325017621
 50
0.9438777989963748
 51
26.5841681020968501
  0
ARC
  5
CD49
  8
0
 10
4846.2837780779173045
 20
242.2392953267444966
 30
0.0
 40
0.5236937931250151
 50
145.7874358932747043
 51
270.0
  0
ARC
  5
CD4A
  8
0
 10
4846.2837780779173045
 20
242.2392953267444966
 30
0.0
 40
0.5481074183074309
 50
142.197029080526903
 51
270.0
  0
LINE
  5
CD4B
  8
0
 10
4846.7168504820174348
 20
242.5158660343444978
 30
0.0
 11
4846.7168504820174348
 21
244.4046496574445086
 31
0.0
  0
LINE
  5
CD4C
  8
0
 10
4846.3074001251161462
 20
243.491263830644499
 30
0.0
 11
4846.3074001251161462
 21
243.6251220984445069
 31
0.0
  0
LINE
  5
CD4D
  8
0
 10
4846.7168504820174348
 20
243.007011862144509
 30
0.0
 11
4848.9612476390157099
 21
243.007011862144509
 31
0.0
  0
ARC
  5
CD4E
  8
0
 10
4846.7050394594962199
 20
242.5158660341423058
 30
0.0
 40
0.0118110236211635
 50
213.2800114353966023
 51
0.0000004865611534
  0
ARC
  5
CD4F
  8
0
 10
4846.2837780778172601
 20
242.2392953267444966
 30
0.0
 40
0.4921259843000101
 50
270.0000000115684884
 51
89.99999998843154
  0
ARC
  5
CD50
  8
0
 10
4846.2837780779173045
 20
243.491263830644499
 30
0.0
 40
0.0236220472
 50
270.0
 51
0.0
  0
ARC
  5
CD51
  8
0
 10
4846.2837780779173045
 20
243.6251220984445069
 30
0.0
 40
0.0236220472
 50
0.0
 51
90.0
  0
ARC
  5
CD52
  8
0
 10
4846.2837780779173045
 20
242.2392953267444966
 30
0.0
 40
0.5236937931250151
 50
270.0
 51
34.2125641067252531
  0
ARC
  5
CD53
  8
0
 10
4846.2837780779173045
 20
242.2392953267444966
 30
0.0
 40
0.5481074183074309
 50
270.0
 51
37.8029709194731112
  0
ARC
  5
CD54
  8
0
 10
4853.0736469834428135
 20
241.6835430680762045
 30
0.0
 40
4.0598968179432608
 50
183.2557054931183131
 51
191.9016679131244132
  0
ARC
  5
CD55
  8
0
 10
4849.1372940951696364
 20
240.861195861238599
 30
0.0
 40
0.0392233987929298
 50
202.3830631269252081
 51
270.0705073743581011
  0
ARC
  5
CD56
  8
0
 10
4849.2538718763262295
 20
240.863401278128606
 30
0.0
 40
0.0414796961371479
 50
272.8390070926529916
 51
357.0454208627890011
  0
ARC
  5
CD57
  8
0
 10
4848.8341739760653581
 20
241.0024352753646895
 30
0.0
 40
0.4611216093961956
 50
359.9315524517929816
 51
16.18664604439439
  0
ARC
  5
CD58
  8
0
 10
4849.6589123179483067
 20
241.2415997782107979
 30
0.0
 40
0.3975943223403883
 50
91.1676846716232774
 51
196.1540263300288984
  0
LINE
  5
CD59
  8
0
 10
4850.1642774962156182
 20
240.8219724921445106
 30
0.0
 11
4850.0456935039173914
 21
240.8219724921445106
 31
0.0
  0
LINE
  5
CD5A
  8
0
 10
4850.006324602715722
 20
241.0018844034445067
 30
0.0
 11
4850.006323425215669
 21
240.8612632369444952
 31
0.0
  0
ARC
  5
CD5B
  8
0
 10
4843.59960167758436
 20
241.9524828655115982
 30
0.0
 40
6.6930433707722639
 50
350.4865258469627065
 51
8.7862505825526078
  0
ARC
  5
CD5C
  8
0
 10
4850.1643257639616422
 20
240.861195861238599
 30
0.0
 40
0.0392233987929298
 50
269.9294926256418989
 51
337.616936873073314
  0
ARC
  5
CD5D
  8
0
 10
4850.0477479828059586
 20
240.863401278128606
 30
0.0
 40
0.0414796961371479
 50
182.9545791372109989
 51
267.1609929073470084
  0
ARC
  5
CD5E
  8
0
 10
4850.46744588306683
 20
241.0024352753646895
 30
0.0
 40
0.4611216093961956
 50
163.8133539556039864
 51
180.0684475482069047
  0
ARC
  5
CD5F
  8
0
 10
4849.6427075411838814
 20
241.2415997782107979
 30
0.0
 40
0.3975943223403883
 50
343.8459736699709879
 51
88.8323153284288338
  0
ARC
  5
CD60
  8
0
 10
4848.9950522383760472
 20
240.9146551924569053
 30
0.0
 40
0.30028914600527
 50
0.9967783745021236
 51
29.1546343243982307
  0
ARC
  5
CD61
  8
0
 10
4849.6539940828333783
 20
241.2599870277936134
 30
0.0
 40
0.4438305353609965
 50
90.411058037413909
 51
206.6449548685775994
  0
ARC
  5
CD62
  8
0
 10
4850.3065676204187184
 20
240.9146551925641973
 30
0.0
 40
0.3002891456656146
 50
150.8453656628861097
 51
179.0032216504874043
  0
ARC
  5
CD63
  8
0
 10
4849.6476257762906243
 20
241.2599870277936134
 30
0.0
 40
0.4438305353609965
 50
333.3550451314209226
 51
89.5889419625861052
  0
ENDSEC
  0
EOF
