  0
SECTION
  2
HEADER
  9
$ACADVER
  1
AC1009
  9
$INSBASE
 10
4681.0867139974816382
 20
227.237279482461787
 30
0.0
  9
$EXTMIN
 10
4672.1695760261172836
 20
223.2406794824615872
 30
0.0
  9
$EXTMAX
 10
4690.0038519688478118
 20
231.2338794824617878
 30
0.0
  9
$LIMMIN
 10
0.0
 20
0.0
  9
$LIMMAX
 10
11.6929133858000007
 20
8.2677165353999982
  9
$ORTHOMODE
 70
     1
  9
$REGENMODE
 70
     1
  9
$FILLMODE
 70
     1
  9
$QTEXTMODE
 70
     0
  9
$MIRRTEXT
 70
     0
  9
$DRAGMODE
 70
     2
  9
$LTSCALE
 40
0.6431102362
  9
$OSMODE
 70
  4095
  9
$ATTMODE
 70
     1
  9
$TEXTSIZE
 40
0.2
  9
$TRACEWID
 40
0.05
  9
$TEXTSTYLE
  7
STANDARD
  9
$CLAYER
  8
0
  9
$CELTYPE
  6
BYLAYER
  9
$CECOLOR
 62
   256
  9
$DIMSCALE
 40
1.0
  9
$DIMASZ
 40
0.1875
  9
$DIMEXO
 40
0.0625
  9
$DIMDLI
 40
0.4443307087
  9
$DIMRND
 40
0.0
  9
$DIMDLE
 40
0.0
  9
$DIMEXE
 40
0.125
  9
$DIMTP
 40
0.01
  9
$DIMTM
 40
0.01
  9
$DIMTXT
 40
2.0
  9
$DIMCEN
 40
0.1052362205
  9
$DIMTSZ
 40
0.0
  9
$DIMTOL
 70
     1
  9
$DIMLIM
 70
     0
  9
$DIMTIH
 70
     1
  9
$DIMTOH
 70
     1
  9
$DIMSE1
 70
     0
  9
$DIMSE2
 70
     0
  9
$DIMTAD
 70
     0
  9
$DIMZIN
 70
     0
  9
$DIMBLK
  1

  9
$DIMASO
 70
     1
  9
$DIMSHO
 70
     1
  9
$DIMPOST
  1
\X
  9
$DIMAPOST
  1

  9
$DIMALT
 70
     1
  9
$DIMALTD
 70
     2
  9
$DIMALTF
 40
25.3999999999999986
  9
$DIMLFAC
 40
1.0
  9
$DIMTOFL
 70
     0
  9
$DIMTVP
 40
0.0
  9
$DIMTIX
 70
     0
  9
$DIMSOXD
 70
     0
  9
$DIMSAH
 70
     0
  9
$DIMBLK1
  1

  9
$DIMBLK2
  1

  9
$DIMSTYLE
  2
STANDARD
  9
$DIMCLRD
 70
     0
  9
$DIMCLRE
 70
     0
  9
$DIMCLRT
 70
     0
  9
$DIMTFAC
 40
1.0
  9
$DIMGAP
 40
0.09
  9
$LUNITS
 70
     2
  9
$LUPREC
 70
     4
  9
$SKETCHINC
 40
0.1
  9
$FILLETRAD
 40
0.0
  9
$AUNITS
 70
     0
  9
$AUPREC
 70
     0
  9
$MENU
  1
.
  9
$ELEVATION
 40
0.0
  9
$PELEVATION
 40
0.0
  9
$THICKNESS
 40
0.0
  9
$LIMCHECK
 70
     0
  9
$BLIPMODE
 70
     0
  9
$CHAMFERA
 40
0.0
  9
$CHAMFERB
 40
0.0
  9
$SKPOLY
 70
     0
  9
$TDCREATE
 40
2458060.468368056230247
  9
$TDUPDATE
 40
2459246.4730208329856396
  9
$TDINDWG
 40
0.3529931713
  9
$TDUSRTIMER
 40
0.3529931713
  9
$USRTIMER
 70
     1
  9
$ANGBASE
 50
0.0
  9
$ANGDIR
 70
     0
  9
$PDMODE
 70
     0
  9
$PDSIZE
 40
0.3125
  9
$PLINEWID
 40
0.0
  9
$COORDS
 70
     1
  9
$SPLFRAME
 70
     0
  9
$SPLINETYPE
 70
     6
  9
$SPLINESEGS
 70
     8
  9
$ATTDIA
 70
     1
  9
$ATTREQ
 70
     1
  9
$HANDLING
 70
     1
  9
$HANDSEED
  5
C865
  9
$SURFTAB1
 70
     6
  9
$SURFTAB2
 70
     6
  9
$SURFTYPE
 70
     6
  9
$SURFU
 70
     6
  9
$SURFV
 70
     6
  9
$UCSNAME
  2

  9
$UCSORG
 10
0.0
 20
0.0
 30
0.0
  9
$UCSXDIR
 10
1.0
 20
0.0
 30
0.0
  9
$UCSYDIR
 10
0.0
 20
1.0
 30
0.0
  9
$PUCSNAME
  2

  9
$PUCSORG
 10
0.0
 20
0.0
 30
0.0
  9
$PUCSXDIR
 10
1.0
 20
0.0
 30
0.0
  9
$PUCSYDIR
 10
0.0
 20
1.0
 30
0.0
  9
$USERI1
 70
     0
  9
$USERI2
 70
     0
  9
$USERI3
 70
     0
  9
$USERI4
 70
     0
  9
$USERI5
 70
     0
  9
$USERR1
 40
0.0
  9
$USERR2
 40
0.0
  9
$USERR3
 40
0.0
  9
$USERR4
 40
0.0
  9
$USERR5
 40
0.0
  9
$WORLDVIEW
 70
     1
  9
$SHADEDGE
 70
     3
  9
$SHADEDIF
 70
    70
  9
$TILEMODE
 70
     1
  9
$MAXACTVP
 70
    64
  9
$PLIMCHECK
 70
     0
  9
$PEXTMIN
 10
1.0000000000000000E+20
 20
1.0000000000000000E+20
 30
1.0000000000000000E+20
  9
$PEXTMAX
 10
-1.0000000000000000E+20
 20
-1.0000000000000000E+20
 30
-1.0000000000000000E+20
  9
$PLIMMIN
 10
0.0
 20
0.0
  9
$PLIMMAX
 10
12.0
 20
9.0
  9
$UNITMODE
 70
     0
  9
$VISRETAIN
 70
     1
  9
$PLINEGEN
 70
     0
  9
$PSLTSCALE
 70
     1
  0
ENDSEC
  0
SECTION
  2
TABLES
  0
TABLE
  2
VPORT
 70
     1
  0
VPORT
  2
*ACTIVE
 70
     0
 10
0.0
 20
0.0
 11
1.0
 21
1.0
 12
0.0
 22
0.0
 13
0.0
 23
0.0
 14
1.0
 24
1.0
 15
0.0
 25
0.0
 16
0.0
 26
0.0
 36
55.3768792706055919
 17
4681.0866699218740905
 27
227.2372817993164063
 37
0.0
 40
19.5459375684972194
 41
2.1186252771618621
 42
50.0
 43
0.0
 44
0.0
 50
0.0
 51
0.0
 71
     0
 72
   100
 73
     1
 74
     1
 75
     0
 76
     0
 77
     0
 78
     0
  0
ENDTAB
  0
TABLE
  2
LTYPE
 70
     2
  0
LTYPE
  2
CONTINUOUS
 70
     0
  3
Solid line
 72
    65
 73
     0
 40
0.0
  0
LTYPE
  2
PHANTOM2
 70
     0
  3
___ _ _ ___ _ _ ___ _ _ ___ _ _
 72
    65
 73
     6
 40
1.25
 49
0.625
 49
-0.125
 49
0.125
 49
-0.125
 49
0.125
 49
-0.125
  0
ENDTAB
  0
TABLE
  2
LAYER
 70
     2
  0
LAYER
  2
0
 70
     0
 62
   255
  6
CONTINUOUS
  0
LAYER
  2
DEFPOINTS
 70
     0
 62
     7
  6
CONTINUOUS
  0
ENDTAB
  0
TABLE
  2
STYLE
 70
     1
  0
STYLE
  2
STANDARD
 70
     0
 40
0.0
 41
0.8
 50
0.0
 71
     0
 42
0.2
  3
txt
  4

  0
ENDTAB
  0
TABLE
  2
VIEW
 70
     0
  0
ENDTAB
  0
TABLE
  2
UCS
 70
     0
  0
ENDTAB
  0
TABLE
  2
APPID
 70
     9
  0
APPID
  2
ACAD
 70
     0
  0
APPID
  2
ACAD_MLEADERVER
 70
     0
  0
APPID
  2
ACAD_EXEMPT_FROM_CAD_STANDARDS
 70
     0
  0
APPID
  2
ACAD_NAV_VCDISPLAY
 70
     0
  0
APPID
  2
ACAECLAYERSTANDARD
 70
     0
  0
APPID
  2
ACCMTRANSPARENCY
 70
     0
  0
APPID
  2
ACAD_DSTYLE_DIMJAG
 70
     0
  0
APPID
  2
ACAD_DSTYLE_DIMTALN
 70
     0
  0
APPID
  2
ACDBATTR
 70
     0
  0
ENDTAB
  0
TABLE
  2
DIMSTYLE
 70
     1
  0
DIMSTYLE
  2
STANDARD
 70
     0
  3

  4

  5

  6

  7

 40
1.0
 41
0.1875
 42
0.0625
 43
0.38
 44
0.125
 45
0.0
 46
0.0
 47
0.01
 48
0.01
140
0.15625
141
0.09
142
0.0
143
25.3999999999999986
144
1.0
145
0.0
146
1.0
147
0.09
 71
     1
 72
     0
 73
     1
 74
     1
 75
     0
 76
     0
 77
     0
 78
     4
170
     0
171
     2
172
     0
173
     0
174
     0
175
     0
176
     0
177
     0
178
     0
  0
ENDTAB
  0
ENDSEC
  0
SECTION
  2
BLOCKS
  0
BLOCK
  8
0
  2
$MODEL_SPACE
 70
     0
 10
0.0
 20
0.0
 30
0.0
  3
$MODEL_SPACE
  1

  0
ENDBLK
  5
21
  8
0
  0
BLOCK
 67
     1
  8
0
  2
$PAPER_SPACE
 70
     0
 10
0.0
 20
0.0
 30
0.0
  3
$PAPER_SPACE
  1

  0
ENDBLK
  5
1D
 67
     1
  8
0
  0
ENDSEC
  0
SECTION
  2
ENTITIES
  0
ATTDEF
  5
3930
  8
DEFPOINTS
 10
4681.0837010485520295
 20
227.2415025898305885
 30
0.0
 40
0.001
  1
K-26297IN
  3

  2
MODELNUMBER
 70
     0
1001
ACDBATTR
1070
     0
1070
     1
  0
ATTDEF
  5
3931
  8
DEFPOINTS
 10
4681.0837010485520295
 20
227.2398359231638949
 30
0.0
 40
0.001
  1

  3

  2
TRADENAME
 70
     0
1001
ACDBATTR
1070
     0
1070
     1
  0
ATTDEF
  5
3932
  8
DEFPOINTS
 10
4681.0837010485520295
 20
227.2381692564972013
 30
0.0
 40
0.001
  1
SHOWERHEAD
  3

  2
PRODUCT
 70
     0
1001
ACDBATTR
1070
     0
1070
     1
  0
LINE
  5
C6EC
  8
0
 10
4680.4174244764972173
 20
227.4177065870968875
 30
0.0
 11
4680.4174244764972173
 21
227.2687755454616934
 31
0.0
  0
LINE
  5
C6ED
  8
0
 10
4680.889865421398099
 20
227.4177065872277979
 30
0.0
 11
4680.889865421398099
 21
227.2687755454616934
 31
0.0
  0
LINE
  5
C6EE
  8
0
 10
4680.7814240615207382
 20
227.1292543493617018
 30
0.0
 11
4680.525865836473713
 21
227.1292543493617018
 31
0.0
  0
LINE
  5
C6EF
  8
0
 10
4680.8205829264697968
 20
227.2486215570617958
 30
0.0
 11
4680.4867069715255639
 21
227.2486215570617958
 31
0.0
  0
LINE
  5
C6F0
  8
0
 10
4679.5952334925059404
 20
227.2486215570617958
 30
0.0
 11
4679.4994579802887529
 21
227.2486215570617958
 31
0.0
  0
CIRCLE
  5
C6F1
  8
0
 10
4680.6536449489967708
 20
227.2372794824617017
 30
0.0
 40
0.3287401575
  0
CIRCLE
  5
C6F2
  8
0
 10
4680.6536449489967708
 20
227.2372794824617017
 30
0.0
 40
0.2972440945
  0
ARC
  5
C6F3
  8
0
 10
4680.6536449489967708
 20
227.2372794824617017
 30
0.0
 40
0.2854330709
 50
34.1484243696136289
 51
145.8515756661408886
  0
ARC
  5
C6F4
  8
0
 10
4680.6536449489967708
 20
227.2372794824617017
 30
0.0
 40
0.2736220472
 50
30.3097875028166612
 51
149.6902125386785087
  0
ARC
  5
C6F5
  8
0
 10
4680.6536449489967708
 20
227.2687755454616934
 30
0.0
 40
0.2362204724
 50
180.0
 51
0.0
  0
CIRCLE
  5
C6F6
  8
0
 10
4680.6536449489967708
 20
227.2372794824617017
 30
0.0
 40
0.1850393701
  0
CIRCLE
  5
C6F7
  8
0
 10
4680.6536449489967708
 20
227.2372794824617017
 30
0.0
 40
0.1673228346
  0
CIRCLE
  5
C6F8
  8
0
 10
4679.5473448426982941
 20
227.2372845540618016
 30
0.0
 40
0.0846463737
  0
CIRCLE
  5
C6F9
  8
0
 10
4679.5473457363978014
 20
227.2372794824617017
 30
0.0
 40
0.0688976378
  0
CIRCLE
  5
C6FA
  8
0
 10
4679.5473457363978014
 20
227.2372794824617017
 30
0.0
 40
0.0492125984
  0
LINE
  5
C6FB
  8
0
 10
4684.1453634319932462
 20
223.2406794824617862
 30
0.0
 11
4678.0280645629700302
 21
223.2406794824617862
 31
0.0
  0
LINE
  5
C6FC
  8
0
 10
4685.2710026810846102
 20
231.2338794824617878
 30
0.0
 11
4676.9024253138786662
 21
231.2338794824617878
 31
0.0
  0
ARC
  5
C6FD
  8
0
 10
4676.977846325408791
 20
227.442513668327905
 30
0.0
 40
4.8126483709172101
 50
182.4441053645560089
 51
208.2475732894912994
  0
ARC
  5
C6FE
  8
0
 10
4676.0645852352481597
 20
227.2527535201340925
 30
0.0
 40
3.9272921761061301
 50
212.1176359005912104
 51
252.279636333428499
  0
ARC
  5
C6FF
  8
0
 10
4677.4705644756040783
 20
235.314952865875199
 30
0.0
 40
12.08641419178978
 50
257.5710921753540106
 51
265.6263401148747789
  0
ARC
  5
C700
  8
0
 10
4679.3172670281173851
 20
353.4167996437568036
 30
0.0
 40
130.1825038292168131
 50
268.781474026059584
 51
269.4325883631813099
  0
ARC
  5
C701
  8
0
 10
4678.0470554034873203
 20
226.8426147658286993
 30
0.0
 40
5.8907150728890434
 50
158.3745114102804905
 51
176.1584334928029136
  0
ARC
  5
C702
  8
0
 10
4676.0891798912798549
 20
227.2042251598763016
 30
0.0
 40
3.9561984382614859
 50
114.306967662856394
 51
152.7841609332164978
  0
ARC
  5
C703
  8
0
 10
4676.2584258484675956
 20
226.5317443228344985
 30
0.0
 40
4.640350905471446
 50
94.7810660777391547
 51
112.7934182734818052
  0
ARC
  5
C704
  8
0
 10
4680.1168329050342436
 20
181.8620043626943925
 30
0.0
 40
49.4764031534627193
 50
93.7250443781929334
 51
94.9221436228851587
  0
LINE
  5
C705
  8
0
 10
4681.3564076211587235
 20
226.7587087441617939
 30
0.0
 11
4680.8170246043373481
 21
226.7587087441617939
 31
0.0
  0
LINE
  5
C706
  8
0
 10
4681.4497621059472294
 20
227.7158502207618085
 30
0.0
 11
4680.7236701195470232
 21
227.7158502207618085
 31
0.0
  0
LINE
  5
C707
  8
0
 10
4681.3543078763987069
 20
226.790204807161814
 30
0.0
 11
4680.8191243490946363
 21
226.790204807161814
 31
0.0
  0
LINE
  5
C708
  8
0
 10
4681.4371471510703486
 20
227.6843541577617884
 30
0.0
 11
4680.7362850744248135
 21
227.6843541577617884
 31
0.0
  0
ARC
  5
C709
  8
0
 10
4680.7668034689895649
 20
226.4833352685016052
 30
0.0
 40
1.2332694731399969
 50
92.004317023506772
 51
106.610638496664393
  0
ARC
  5
C70A
  8
0
 10
4680.5233483179499672
 20
227.2804071362357945
 30
0.0
 40
0.3999011780600774
 50
105.8312476438168943
 51
142.5426605264094917
  0
ARC
  5
C70B
  8
0
 10
4680.5690536686843188
 20
227.3030868561893101
 30
0.0
 40
0.4248650437543974
 50
148.7311038366800062
 51
172.7115926985601106
  0
ARC
  5
C70C
  8
0
 10
4685.4115579134140717
 20
227.0424945920528046
 30
0.0
 40
5.273322690695176
 50
176.5809449591206999
 51
177.8831351330599091
  0
ARC
  5
C70D
  8
0
 10
4681.3131286707312029
 20
227.261005480557003
 30
0.0
 40
1.1715350131903139
 50
181.1604198884436983
 51
189.1372328632407971
  0
ARC
  5
C70E
  8
0
 10
4680.4571977579398663
 20
227.1240223185554896
 30
0.0
 40
0.3047130279783678
 50
189.2644565366938991
 51
235.2433994273260964
  0
ARC
  5
C70F
  8
0
 10
4680.5876811078833271
 20
227.3244698199266907
 30
0.0
 40
0.543830345448705
 50
235.9883634165838089
 51
262.8188695062318061
  0
ARC
  5
C710
  8
0
 10
4680.9173356097026044
 20
229.5976103215838009
 30
0.0
 40
2.8406732413437581
 50
261.9533236245554804
 51
267.9763274770962767
  0
ARC
  5
C711
  8
0
 10
4681.105922476574051
 20
232.1520902112696092
 30
0.0
 40
5.3695500977931303
 50
264.3110986746083881
 51
266.9382638870537789
  0
ARC
  5
C712
  8
0
 10
4680.6349528288938018
 20
227.4831048710811103
 30
0.0
 40
0.676899767693548
 50
246.4231589129207123
 51
264.8043722921472067
  0
ARC
  5
C713
  8
0
 10
4680.4688982626339566
 20
227.1276822936457904
 30
0.0
 40
0.2849046669032571
 50
205.240165604114992
 51
248.4409912931425879
  0
ARC
  5
C714
  8
0
 10
4680.6390295906076062
 20
227.1828848370039964
 30
0.0
 40
0.4628851140930155
 50
185.4531184828319965
 51
202.4398933676187937
  0
ARC
  5
C715
  8
0
 10
4681.9669358382261635
 20
227.2774671067699899
 30
0.0
 40
1.7940560086115991
 50
181.2835462710237948
 51
184.4298721796739926
  0
ARC
  5
C716
  8
0
 10
4681.2624119860065548
 20
227.2313117026330929
 30
0.0
 40
1.089098350143751
 50
174.2001762724798937
 51
179.6860244317333013
  0
ARC
  5
C717
  8
0
 10
4680.5920135183050661
 20
227.3031191217972946
 30
0.0
 40
0.4148917111529669
 50
154.9726187057283084
 51
174.7103042764011036
  0
ARC
  5
C718
  8
0
 10
4680.4492105061881375
 20
227.3589590926289077
 30
0.0
 40
0.2620578200769506
 50
121.8380012638603063
 51
152.8259474057495879
  0
ARC
  5
C719
  8
0
 10
4680.5884110434162722
 20
227.1449960154641872
 30
0.0
 40
0.517287687433583
 50
97.6871353932322961
 51
122.4347059435888951
  0
ARC
  5
C71A
  8
0
 10
4680.8942302470495633
 20
225.5060997458257077
 30
0.0
 40
2.1839732051181682
 50
94.1472573539912929
 51
99.8873493380127826
  0
CIRCLE
  5
C71B
  8
0
 10
4680.6536449489967708
 20
227.2372794824617017
 30
0.0
 40
0.2047244094000007
  0
LINE
  5
C71C
  8
0
 10
4681.7560077489970354
 20
227.4177065870968875
 30
0.0
 11
4681.7560077489970354
 21
227.2687755454616934
 31
0.0
  0
LINE
  5
C71D
  8
0
 10
4681.2835668040979726
 20
227.4177065872277979
 30
0.0
 11
4681.2835668040979726
 21
227.2687755454616934
 31
0.0
  0
LINE
  5
C71E
  8
0
 10
4681.392008163974424
 20
227.1292543493617018
 30
0.0
 11
4681.6475663890214491
 21
227.1292543493617018
 31
0.0
  0
LINE
  5
C71F
  8
0
 10
4681.3528492990271843
 20
227.2486215570617958
 30
0.0
 11
4681.6867252539686888
 21
227.2486215570617958
 31
0.0
  0
CIRCLE
  5
C720
  8
0
 10
4681.5197872764983913
 20
227.2372794824617017
 30
0.0
 40
0.3287401575
  0
CIRCLE
  5
C721
  8
0
 10
4681.5197872764983913
 20
227.2372794824617017
 30
0.0
 40
0.2972440945
  0
ARC
  5
C722
  8
0
 10
4681.5197872764983913
 20
227.2372794824617017
 30
0.0
 40
0.2854330709
 50
34.1484243338591114
 51
145.8515756303864066
  0
ARC
  5
C723
  8
0
 10
4681.5197872764983913
 20
227.2372794824617017
 30
0.0
 40
0.2736220472
 50
30.3097874613200702
 51
149.6902124971832961
  0
ARC
  5
C724
  8
0
 10
4681.5197872764983913
 20
227.2687755454616934
 30
0.0
 40
0.2362204724
 50
180.0
 51
0.0
  0
CIRCLE
  5
C725
  8
0
 10
4681.5197872764983913
 20
227.2372794824617017
 30
0.0
 40
0.1850393701
  0
CIRCLE
  5
C726
  8
0
 10
4681.5197872764983913
 20
227.2372794824617017
 30
0.0
 40
0.1673228346
  0
ARC
  5
C727
  8
0
 10
4681.4066287565037783
 20
226.4833352685016052
 30
0.0
 40
1.2332694731399969
 50
73.389361503335536
 51
87.9956829764932422
  0
ARC
  5
C728
  8
0
 10
4681.650083907545195
 20
227.2804071362357945
 30
0.0
 40
0.3999011780600774
 50
37.4573394735904515
 51
74.1687523561831057
  0
ARC
  5
C729
  8
0
 10
4681.6043785568108433
 20
227.3030868561893101
 30
0.0
 40
0.4248650437543974
 50
7.2884073014398592
 51
31.26889616332004
  0
ARC
  5
C72A
  8
0
 10
4676.761874312082
 20
227.0424945920528046
 30
0.0
 40
5.273322690695176
 50
2.1168648669400461
 51
3.419055040879257
  0
ARC
  5
C72B
  8
0
 10
4680.8603035547648687
 20
227.261005480557003
 30
0.0
 40
1.1715350131903139
 50
350.8627671367576113
 51
358.8395801115561881
  0
ARC
  5
C72C
  8
0
 10
4681.7162344675571148
 20
227.1240223185554896
 30
0.0
 40
0.3047130279783678
 50
304.7566005726740173
 51
350.7355434633061009
  0
ARC
  5
C72D
  8
0
 10
4681.5857511176136541
 20
227.3244698199266907
 30
0.0
 40
0.543830345448705
 50
277.1811304937680802
 51
304.0116365834161911
  0
ARC
  5
C72E
  8
0
 10
4681.2560966157925577
 20
229.5976103215838009
 30
0.0
 40
2.8406732413437581
 50
272.0236725229037233
 51
278.0466763754445196
  0
ARC
  5
C72F
  8
0
 10
4681.0675097489202017
 20
232.1520902112696092
 30
0.0
 40
5.3695500977931303
 50
273.0617361129462211
 51
275.6889013253916119
  0
ARC
  5
C730
  8
0
 10
4681.5384793966013603
 20
227.4831048710811103
 30
0.0
 40
0.676899767693548
 50
275.1956277078527933
 51
293.5768410870792877
  0
ARC
  5
C731
  8
0
 10
4681.704533962862115
 20
227.1276822936457904
 30
0.0
 40
0.2849046669032571
 50
291.5590087068574121
 51
334.7598343958849227
  0
ARC
  5
C732
  8
0
 10
4681.5344026348866464
 20
227.1828848370039964
 30
0.0
 40
0.4628851140930155
 50
337.5601066323811779
 51
354.5468815171680035
  0
ARC
  5
C733
  8
0
 10
4680.2064963872699082
 20
227.2774671067699899
 30
0.0
 40
1.7940560086115991
 50
355.5701278203259221
 51
358.7164537289762052
  0
ARC
  5
C734
  8
0
 10
4680.9110202394904263
 20
227.2313117026330929
 30
0.0
 40
1.089098350143751
 50
0.3139755682666739
 51
5.7998237275201161
  0
ARC
  5
C735
  8
0
 10
4681.5814187071910055
 20
227.3031191217972946
 30
0.0
 40
0.4148917111529669
 50
5.2896957235988724
 51
25.0273812942717093
  0
ARC
  5
C736
  8
0
 10
4681.7242217193061151
 20
227.3589590926289077
 30
0.0
 40
0.2620578200769506
 50
27.1740525942504298
 51
58.1619987361396866
  0
ARC
  5
C737
  8
0
 10
4681.5850211820797995
 20
227.1449960154641872
 30
0.0
 40
0.517287687433583
 50
57.5652940564110622
 51
82.3128646067677323
  0
ARC
  5
C738
  8
0
 10
4681.2792019784474178
 20
225.5060997458257077
 30
0.0
 40
2.1839732051181682
 50
80.1126506619872174
 51
85.8527426460087071
  0
CIRCLE
  5
C739
  8
0
 10
4681.5197872764983913
 20
227.2372794824617017
 30
0.0
 40
0.2047244094000007
  0
CIRCLE
  5
C73A
  8
0
 10
4679.5473457363978014
 20
227.2372794824617017
 30
0.0
 40
0.1331031978453224
  0
LINE
  5
C73B
  8
0
 10
4682.6739736500057916
 20
227.2486215570617958
 30
0.0
 11
4682.5781981377904231
 21
227.2486215570617958
 31
0.0
  0
CIRCLE
  5
C73C
  8
0
 10
4682.6260850001972358
 20
227.2372845540618016
 30
0.0
 40
0.0846463737
  0
CIRCLE
  5
C73D
  8
0
 10
4682.6260858938976526
 20
227.2372794824617017
 30
0.0
 40
0.0688976378
  0
CIRCLE
  5
C73E
  8
0
 10
4682.6260858938976526
 20
227.2372794824617017
 30
0.0
 40
0.0492125984
  0
CIRCLE
  5
C73F
  8
0
 10
4682.6260858938976526
 20
227.2372794824617017
 30
0.0
 40
0.1331031978453224
  0
LINE
  5
C740
  8
0
 10
4681.1346035712049343
 20
228.3234247066617968
 30
0.0
 11
4681.0388280589895658
 21
228.3234247066617968
 31
0.0
  0
CIRCLE
  5
C741
  8
0
 10
4681.0867149213981975
 20
228.3120877036616889
 30
0.0
 40
0.0846463737
  0
CIRCLE
  5
C742
  8
0
 10
4681.0867158150967953
 20
228.3120826320617027
 30
0.0
 40
0.0688976378
  0
CIRCLE
  5
C743
  8
0
 10
4681.0867158150967953
 20
228.3120826320617027
 30
0.0
 40
0.0492125984
  0
CIRCLE
  5
C744
  8
0
 10
4681.0867158150967953
 20
228.3120826320617027
 30
0.0
 40
0.1331031978453224
  0
LINE
  5
C745
  8
0
 10
4681.1346035712049343
 20
226.1738184074617948
 30
0.0
 11
4681.0388280589895658
 21
226.1738184074617948
 31
0.0
  0
CIRCLE
  5
C746
  8
0
 10
4681.0867149213981975
 20
226.1624814044616869
 30
0.0
 40
0.0846463737
  0
CIRCLE
  5
C747
  8
0
 10
4681.0867158150967953
 20
226.1624763328617007
 30
0.0
 40
0.0688976378
  0
CIRCLE
  5
C748
  8
0
 10
4681.0867158150967953
 20
226.1624763328617007
 30
0.0
 40
0.0492125984
  0
CIRCLE
  5
C749
  8
0
 10
4681.0867158150967953
 20
226.1624763328617007
 30
0.0
 40
0.1331031978453224
  0
ARC
  5
C74A
  8
0
 10
4685.1955816695572139
 20
227.442513668327905
 30
0.0
 40
4.8126483709172101
 50
331.7524267105087006
 51
357.5558946354440195
  0
ARC
  5
C74B
  8
0
 10
4686.1088427597169357
 20
227.2527535201340925
 30
0.0
 40
3.9272921761061301
 50
287.7203636665714725
 51
327.8823640994087896
  0
ARC
  5
C74C
  8
0
 10
4684.7028635193610171
 20
235.314952865875199
 30
0.0
 40
12.08641419178978
 50
274.3736598851252211
 51
282.4289078246461031
  0
ARC
  5
C74D
  8
0
 10
4682.8561609668477104
 20
353.4167996437568036
 30
0.0
 40
130.1825038292168131
 50
270.5674116368185764
 51
271.218525973940416
  0
ARC
  5
C74E
  8
0
 10
4684.1263725914768656
 20
226.8426147658286993
 30
0.0
 40
5.8907150728890434
 50
3.8415665071971121
 51
21.6254885897195201
  0
ARC
  5
C74F
  8
0
 10
4686.0842481036852405
 20
227.2042251598763016
 30
0.0
 40
3.9561984382614859
 50
27.2158390667835199
 51
65.6930323371435634
  0
ARC
  5
C750
  8
0
 10
4685.9150021464984093
 20
226.5317443228344985
 30
0.0
 40
4.640350905471446
 50
67.2065817265181806
 51
85.2189339222608311
  0
ARC
  5
C751
  8
0
 10
4682.0565950899308518
 20
181.8620043626943925
 30
0.0
 40
49.4764031534627193
 50
85.0778563771148555
 51
86.2749556218070666
  0
ENDSEC
  0
EOF
