  0
SECTION
  2
HEADER
  9
$ACADVER
  1
AC1009
  9
$INSBASE
 10
4663.8344468947943824
 20
211.2928806621160902
 30
0.0
  9
$EXTMIN
 10
4659.8378503260582875
 20
207.8794948353161089
 30
0.0
  9
$EXTMAX
 10
4667.8310434635313868
 20
211.3060730248745926
 30
0.0
  9
$LIMMIN
 10
0.0
 20
0.0
  9
$LIMMAX
 10
11.6929133858000007
 20
8.2677165353999982
  9
$ORTHOMODE
 70
     1
  9
$REGENMODE
 70
     1
  9
$FILLMODE
 70
     1
  9
$QTEXTMODE
 70
     0
  9
$MIRRTEXT
 70
     0
  9
$DRAGMODE
 70
     2
  9
$LTSCALE
 40
0.6431102362
  9
$OSMODE
 70
  4095
  9
$ATTMODE
 70
     1
  9
$TEXTSIZE
 40
0.2
  9
$TRACEWID
 40
0.05
  9
$TEXTSTYLE
  7
STANDARD
  9
$CLAYER
  8
0
  9
$CELTYPE
  6
BYLAYER
  9
$CECOLOR
 62
   256
  9
$DIMSCALE
 40
1.0
  9
$DIMASZ
 40
0.1875
  9
$DIMEXO
 40
0.0625
  9
$DIMDLI
 40
0.4443307087
  9
$DIMRND
 40
0.0
  9
$DIMDLE
 40
0.0
  9
$DIMEXE
 40
0.125
  9
$DIMTP
 40
0.01
  9
$DIMTM
 40
0.01
  9
$DIMTXT
 40
2.0
  9
$DIMCEN
 40
0.1052362205
  9
$DIMTSZ
 40
0.0
  9
$DIMTOL
 70
     1
  9
$DIMLIM
 70
     0
  9
$DIMTIH
 70
     1
  9
$DIMTOH
 70
     1
  9
$DIMSE1
 70
     0
  9
$DIMSE2
 70
     0
  9
$DIMTAD
 70
     0
  9
$DIMZIN
 70
     0
  9
$DIMBLK
  1

  9
$DIMASO
 70
     1
  9
$DIMSHO
 70
     1
  9
$DIMPOST
  1
\X
  9
$DIMAPOST
  1

  9
$DIMALT
 70
     1
  9
$DIMALTD
 70
     2
  9
$DIMALTF
 40
25.3999999999999986
  9
$DIMLFAC
 40
1.0
  9
$DIMTOFL
 70
     0
  9
$DIMTVP
 40
0.0
  9
$DIMTIX
 70
     0
  9
$DIMSOXD
 70
     0
  9
$DIMSAH
 70
     0
  9
$DIMBLK1
  1

  9
$DIMBLK2
  1

  9
$DIMSTYLE
  2
STANDARD
  9
$DIMCLRD
 70
     0
  9
$DIMCLRE
 70
     0
  9
$DIMCLRT
 70
     0
  9
$DIMTFAC
 40
1.0
  9
$DIMGAP
 40
0.09
  9
$LUNITS
 70
     2
  9
$LUPREC
 70
     4
  9
$SKETCHINC
 40
0.1
  9
$FILLETRAD
 40
0.0
  9
$AUNITS
 70
     0
  9
$AUPREC
 70
     0
  9
$MENU
  1
.
  9
$ELEVATION
 40
0.0
  9
$PELEVATION
 40
0.0
  9
$THICKNESS
 40
0.0
  9
$LIMCHECK
 70
     0
  9
$BLIPMODE
 70
     0
  9
$CHAMFERA
 40
0.0
  9
$CHAMFERB
 40
0.0
  9
$SKPOLY
 70
     0
  9
$TDCREATE
 40
2458060.468368056230247
  9
$TDUPDATE
 40
2459241.4946990739554167
  9
$TDINDWG
 40
0.3679005787
  9
$TDUSRTIMER
 40
0.3679005787
  9
$USRTIMER
 70
     1
  9
$ANGBASE
 50
0.0
  9
$ANGDIR
 70
     0
  9
$PDMODE
 70
     0
  9
$PDSIZE
 40
0.3125
  9
$PLINEWID
 40
0.0
  9
$COORDS
 70
     1
  9
$SPLFRAME
 70
     0
  9
$SPLINETYPE
 70
     6
  9
$SPLINESEGS
 70
     8
  9
$ATTDIA
 70
     1
  9
$ATTREQ
 70
     1
  9
$HANDLING
 70
     1
  9
$HANDSEED
  5
C70D
  9
$SURFTAB1
 70
     6
  9
$SURFTAB2
 70
     6
  9
$SURFTYPE
 70
     6
  9
$SURFU
 70
     6
  9
$SURFV
 70
     6
  9
$UCSNAME
  2

  9
$UCSORG
 10
0.0
 20
0.0
 30
0.0
  9
$UCSXDIR
 10
1.0
 20
0.0
 30
0.0
  9
$UCSYDIR
 10
0.0
 20
1.0
 30
0.0
  9
$PUCSNAME
  2

  9
$PUCSORG
 10
0.0
 20
0.0
 30
0.0
  9
$PUCSXDIR
 10
1.0
 20
0.0
 30
0.0
  9
$PUCSYDIR
 10
0.0
 20
1.0
 30
0.0
  9
$USERI1
 70
     0
  9
$USERI2
 70
     0
  9
$USERI3
 70
     0
  9
$USERI4
 70
     0
  9
$USERI5
 70
     0
  9
$USERR1
 40
0.0
  9
$USERR2
 40
0.0
  9
$USERR3
 40
0.0
  9
$USERR4
 40
0.0
  9
$USERR5
 40
0.0
  9
$WORLDVIEW
 70
     1
  9
$SHADEDGE
 70
     3
  9
$SHADEDIF
 70
    70
  9
$TILEMODE
 70
     1
  9
$MAXACTVP
 70
    64
  9
$PLIMCHECK
 70
     0
  9
$PEXTMIN
 10
1.0000000000000000E+20
 20
1.0000000000000000E+20
 30
1.0000000000000000E+20
  9
$PEXTMAX
 10
-1.0000000000000000E+20
 20
-1.0000000000000000E+20
 30
-1.0000000000000000E+20
  9
$PLIMMIN
 10
0.0
 20
0.0
  9
$PLIMMAX
 10
12.0
 20
9.0
  9
$UNITMODE
 70
     0
  9
$VISRETAIN
 70
     1
  9
$PLINEGEN
 70
     0
  9
$PSLTSCALE
 70
     1
  0
ENDSEC
  0
SECTION
  2
TABLES
  0
TABLE
  2
VPORT
 70
     1
  0
VPORT
  2
*ACTIVE
 70
     0
 10
0.0
 20
0.0
 11
1.0
 21
1.0
 12
0.0
 22
0.0
 13
0.0
 23
0.0
 14
1.0
 24
1.0
 15
0.0
 25
0.0
 16
0.0
 26
0.0
 36
24.6418107765733687
 17
4663.83447265625
 27
209.5927871838239867
 37
0.0
 40
8.6976243760505056
 41
2.1186252771618621
 42
50.0
 43
0.0
 44
0.0
 50
0.0
 51
0.0
 71
     0
 72
   100
 73
     1
 74
     1
 75
     0
 76
     0
 77
     0
 78
     0
  0
ENDTAB
  0
TABLE
  2
LTYPE
 70
     2
  0
LTYPE
  2
CONTINUOUS
 70
     0
  3
Solid line
 72
    65
 73
     0
 40
0.0
  0
LTYPE
  2
PHANTOM2
 70
     0
  3
___ _ _ ___ _ _ ___ _ _ ___ _ _
 72
    65
 73
     6
 40
1.25
 49
0.625
 49
-0.125
 49
0.125
 49
-0.125
 49
0.125
 49
-0.125
  0
ENDTAB
  0
TABLE
  2
LAYER
 70
     2
  0
LAYER
  2
0
 70
     0
 62
   255
  6
CONTINUOUS
  0
LAYER
  2
DEFPOINTS
 70
     0
 62
     7
  6
CONTINUOUS
  0
ENDTAB
  0
TABLE
  2
STYLE
 70
     1
  0
STYLE
  2
STANDARD
 70
     0
 40
0.0
 41
0.8
 50
0.0
 71
     0
 42
0.2
  3
txt
  4

  0
ENDTAB
  0
TABLE
  2
VIEW
 70
     0
  0
ENDTAB
  0
TABLE
  2
UCS
 70
     0
  0
ENDTAB
  0
TABLE
  2
APPID
 70
     9
  0
APPID
  2
ACAD
 70
     0
  0
APPID
  2
ACAD_MLEADERVER
 70
     0
  0
APPID
  2
ACAD_EXEMPT_FROM_CAD_STANDARDS
 70
     0
  0
APPID
  2
ACAD_NAV_VCDISPLAY
 70
     0
  0
APPID
  2
ACAECLAYERSTANDARD
 70
     0
  0
APPID
  2
ACCMTRANSPARENCY
 70
     0
  0
APPID
  2
ACAD_DSTYLE_DIMJAG
 70
     0
  0
APPID
  2
ACAD_DSTYLE_DIMTALN
 70
     0
  0
APPID
  2
ACDBATTR
 70
     0
  0
ENDTAB
  0
TABLE
  2
DIMSTYLE
 70
     1
  0
DIMSTYLE
  2
STANDARD
 70
     0
  3

  4

  5

  6

  7

 40
1.0
 41
0.1875
 42
0.0625
 43
0.38
 44
0.125
 45
0.0
 46
0.0
 47
0.01
 48
0.01
140
0.15625
141
0.09
142
0.0
143
25.3999999999999986
144
1.0
145
0.0
146
1.0
147
0.09
 71
     1
 72
     0
 73
     1
 74
     1
 75
     0
 76
     0
 77
     0
 78
     4
170
     0
171
     2
172
     0
173
     0
174
     0
175
     0
176
     0
177
     0
178
     0
  0
ENDTAB
  0
ENDSEC
  0
SECTION
  2
BLOCKS
  0
BLOCK
  8
0
  2
$MODEL_SPACE
 70
     0
 10
0.0
 20
0.0
 30
0.0
  3
$MODEL_SPACE
  1

  0
ENDBLK
  5
21
  8
0
  0
BLOCK
 67
     1
  8
0
  2
$PAPER_SPACE
 70
     0
 10
0.0
 20
0.0
 30
0.0
  3
$PAPER_SPACE
  1

  0
ENDBLK
  5
1D
 67
     1
  8
0
  0
ENDSEC
  0
SECTION
  2
ENTITIES
  0
ATTDEF
  5
3930
  8
DEFPOINTS
 10
4663.830956297290868
 20
211.3050730248745026
 30
0.0
 40
0.001
  1
K-26295W
  3

  2
MODELNUMBER
 70
     0
1001
ACDBATTR
1070
     0
1070
     1
  0
ATTDEF
  5
3931
  8
DEFPOINTS
 10
4663.830956297290868
 20
211.3034063582078943
 30
0.0
 40
0.001
  1

  3

  2
TRADENAME
 70
     0
1001
ACDBATTR
1070
     0
1070
     1
  0
ATTDEF
  5
3932
  8
DEFPOINTS
 10
4663.830956297290868
 20
211.3017396915412007
 30
0.0
 40
0.001
  1
SHOWERHEAD
  3

  2
PRODUCT
 70
     0
1001
ACDBATTR
1070
     0
1070
     1
  0
LINE
  5
C623
  8
0
 10
4663.3558761564945598
 20
210.4985308915161113
 30
0.0
 11
4663.3558761564945598
 21
210.8558727881161019
 31
0.0
  0
LINE
  5
C624
  8
0
 10
4663.3558761564945598
 20
210.9424869613160922
 30
0.0
 11
4663.3558761564945598
 21
211.2869751503160956
 31
0.0
  0
LINE
  5
C625
  8
0
 10
4664.3130176330942049
 20
210.4985308915161966
 30
0.0
 11
4664.3130176330942049
 21
211.2869751503160956
 31
0.0
  0
LINE
  5
C626
  8
0
 10
4659.8535213234936236
 20
207.8794948353161089
 30
0.0
 11
4667.8153724660942316
 21
207.8794948353161089
 31
0.0
  0
ARC
  5
C627
  8
0
 10
4659.8544408793177354
 20
207.8953670443794124
 30
0.0
 40
0.0158988239647022
 50
182.8165520955458874
 51
266.6842775929014806
  0
ARC
  5
C628
  8
0
 10
4678.6916713894206623
 20
208.0583148162272096
 30
0.0
 40
18.8538210633611598
 50
176.1840633035268127
 51
180.4975701913689932
  0
ARC
  5
C629
  8
0
 10
4660.9294708112956869
 20
209.273591423363996
 30
0.0
 40
1.0505632795927571
 50
121.0746366789375941
 51
177.8467510552397925
  0
LINE
  5
C62A
  8
0
 10
4664.5737899628093146
 20
210.4985308915161966
 30
0.0
 11
4663.0951038267803597
 21
210.4985308915161113
 31
0.0
  0
ARC
  5
C62B
  8
0
 10
4664.1954427482332903
 20
163.926235592374411
 30
0.0
 40
46.5852920477324517
 50
91.3534451977041044
 51
93.2894004149295739
  0
ARC
  5
C62C
  8
0
 10
4661.8796810686981189
 20
205.1680212286138953
 30
0.0
 40
5.2788586364265138
 50
93.8807258522335957
 51
100.8367748498669982
  0
ARC
  5
C62D
  8
0
 10
4661.1890298477137549
 20
208.7247132806292882
 30
0.0
 40
1.655771347193741
 50
100.5033737718499935
 51
118.9635218849836065
  0
ARC
  5
C62E
  8
0
 10
4667.8144529102701199
 20
207.8953670443794124
 30
0.0
 40
0.0158988239647022
 50
273.3157224070985194
 51
357.1834479044539989
  0
ARC
  5
C62F
  8
0
 10
4648.9772224001681025
 20
208.0583148162272096
 30
0.0
 40
18.8538210633611598
 50
359.5024298086310068
 51
3.8159366964731611
  0
ARC
  5
C630
  8
0
 10
4666.7394229782930779
 20
209.273591423363996
 30
0.0
 40
1.0505632795927571
 50
2.1532489447602341
 51
58.9253633210623633
  0
ARC
  5
C631
  8
0
 10
4663.4734510413536555
 20
163.926235592374411
 30
0.0
 40
46.5852920477324517
 50
86.7105995850704261
 51
88.646554802295924
  0
ARC
  5
C632
  8
0
 10
4665.7892127208906459
 20
205.1680212286138953
 30
0.0
 40
5.2788586364265138
 50
79.1632251501330018
 51
86.1192741477664185
  0
ARC
  5
C633
  8
0
 10
4666.4798639418741004
 20
208.7247132806292882
 30
0.0
 40
1.655771347193741
 50
61.0364781150164433
 51
79.4966262281499638
  0
LINE
  5
C634
  8
0
 10
4663.3558761564945598
 20
211.2869751503160956
 30
0.0
 11
4664.3130176330942049
 21
211.2869751503160956
 31
0.0
  0
LINE
  5
C635
  8
0
 10
4663.3913092273942311
 20
211.2869751503160956
 30
0.0
 11
4663.3913092273942311
 21
211.2928806621160902
 31
0.0
  0
LINE
  5
C636
  8
0
 10
4663.3913092273942311
 20
211.2928806621160902
 30
0.0
 11
4664.2775845621954431
 21
211.2928806621160902
 31
0.0
  0
LINE
  5
C637
  8
0
 10
4664.2775845621954431
 20
211.2869751503160956
 30
0.0
 11
4664.2775845621954431
 21
211.2928806621160902
 31
0.0
  0
LINE
  5
C638
  8
0
 10
4663.4486201231948144
 20
210.8598097959161066
 30
0.0
 11
4663.4486201231948144
 21
210.9385499534160999
 31
0.0
  0
LINE
  5
C639
  8
0
 10
4663.4575737057948572
 20
210.8558727881161019
 30
0.0
 11
4663.3558761564945598
 21
210.8558727881161019
 31
0.0
  0
LINE
  5
C63A
  8
0
 10
4663.4486201231948144
 20
210.8598097959161066
 30
0.0
 11
4663.4695619719950628
 21
210.8598097959161066
 31
0.0
  0
LINE
  5
C63B
  8
0
 10
4663.4695498199944268
 20
210.9385499534160999
 30
0.0
 11
4663.4486201231948144
 21
210.9385499534160999
 31
0.0
  0
LINE
  5
C63C
  8
0
 10
4663.3558761564945598
 20
210.9424869613160922
 30
0.0
 11
4663.4575737057948572
 21
210.9424869613160922
 31
0.0
  0
ARC
  5
C63D
  8
0
 10
4663.4569462729650695
 20
210.8780040905278952
 30
0.0
 40
0.022140194633232
 50
271.6239273032908272
 51
304.7369609259188792
  0
ARC
  5
C63E
  8
0
 10
4663.4390179592892309
 20
210.8991751617340924
 30
0.0
 40
0.0498253824682708
 50
307.8082730186679896
 51
52.209411942322312
  0
ARC
  5
C63F
  8
0
 10
4663.4570338901776267
 20
210.9206611060182865
 30
0.0
 40
0.0218325298667114
 50
55.02144562708515
 51
88.5832008962088224
  0
ENDSEC
  0
EOF
