  0
SECTION
  2
HEADER
  9
$ACADVER
  1
AC1009
  9
$INSBASE
 10
4051.6484207431831237
 20
142.0581296972337952
 30
0.0
  9
$EXTMIN
 10
4044.6997608667829809
 20
138.0936493822337923
 30
0.0
  9
$EXTMAX
 10
4058.5970806179821011
 20
142.0581296972337952
 30
0.0
  9
$LIMMIN
 10
0.0
 20
0.0
  9
$LIMMAX
 10
11.6929133858000007
 20
8.2677165353999982
  9
$ORTHOMODE
 70
     1
  9
$REGENMODE
 70
     1
  9
$FILLMODE
 70
     1
  9
$QTEXTMODE
 70
     0
  9
$MIRRTEXT
 70
     0
  9
$DRAGMODE
 70
     2
  9
$LTSCALE
 40
0.6431102362
  9
$OSMODE
 70
  4095
  9
$ATTMODE
 70
     1
  9
$TEXTSIZE
 40
0.2
  9
$TRACEWID
 40
0.05
  9
$TEXTSTYLE
  7
STANDARD
  9
$CLAYER
  8
0
  9
$CELTYPE
  6
BYLAYER
  9
$CECOLOR
 62
   256
  9
$DIMSCALE
 40
1.0
  9
$DIMASZ
 40
0.1875
  9
$DIMEXO
 40
0.0625
  9
$DIMDLI
 40
0.4443307087
  9
$DIMRND
 40
0.0
  9
$DIMDLE
 40
0.0
  9
$DIMEXE
 40
0.125
  9
$DIMTP
 40
0.01
  9
$DIMTM
 40
0.01
  9
$DIMTXT
 40
2.0
  9
$DIMCEN
 40
0.1052362205
  9
$DIMTSZ
 40
0.0
  9
$DIMTOL
 70
     1
  9
$DIMLIM
 70
     0
  9
$DIMTIH
 70
     1
  9
$DIMTOH
 70
     1
  9
$DIMSE1
 70
     0
  9
$DIMSE2
 70
     0
  9
$DIMTAD
 70
     0
  9
$DIMZIN
 70
     0
  9
$DIMBLK
  1

  9
$DIMASO
 70
     1
  9
$DIMSHO
 70
     1
  9
$DIMPOST
  1
\X
  9
$DIMAPOST
  1

  9
$DIMALT
 70
     1
  9
$DIMALTD
 70
     2
  9
$DIMALTF
 40
25.3999999999999986
  9
$DIMLFAC
 40
1.0
  9
$DIMTOFL
 70
     0
  9
$DIMTVP
 40
0.0
  9
$DIMTIX
 70
     0
  9
$DIMSOXD
 70
     0
  9
$DIMSAH
 70
     0
  9
$DIMBLK1
  1

  9
$DIMBLK2
  1

  9
$DIMSTYLE
  2
STANDARD
  9
$DIMCLRD
 70
     0
  9
$DIMCLRE
 70
     0
  9
$DIMCLRT
 70
     0
  9
$DIMTFAC
 40
1.0
  9
$DIMGAP
 40
0.09
  9
$LUNITS
 70
     2
  9
$LUPREC
 70
     4
  9
$SKETCHINC
 40
0.1
  9
$FILLETRAD
 40
0.0
  9
$AUNITS
 70
     0
  9
$AUPREC
 70
     0
  9
$MENU
  1
.
  9
$ELEVATION
 40
0.0
  9
$PELEVATION
 40
0.0
  9
$THICKNESS
 40
0.0
  9
$LIMCHECK
 70
     0
  9
$BLIPMODE
 70
     0
  9
$CHAMFERA
 40
0.0
  9
$CHAMFERB
 40
0.0
  9
$SKPOLY
 70
     0
  9
$TDCREATE
 40
2458060.468368056230247
  9
$TDUPDATE
 40
2459062.4094907408580184
  9
$TDINDWG
 40
0.3034561343
  9
$TDUSRTIMER
 40
0.3034561343
  9
$USRTIMER
 70
     1
  9
$ANGBASE
 50
0.0
  9
$ANGDIR
 70
     0
  9
$PDMODE
 70
     0
  9
$PDSIZE
 40
0.3125
  9
$PLINEWID
 40
0.0
  9
$COORDS
 70
     1
  9
$SPLFRAME
 70
     0
  9
$SPLINETYPE
 70
     6
  9
$SPLINESEGS
 70
     8
  9
$ATTDIA
 70
     1
  9
$ATTREQ
 70
     1
  9
$HANDLING
 70
     1
  9
$HANDSEED
  5
68B5
  9
$SURFTAB1
 70
     6
  9
$SURFTAB2
 70
     6
  9
$SURFTYPE
 70
     6
  9
$SURFU
 70
     6
  9
$SURFV
 70
     6
  9
$UCSNAME
  2

  9
$UCSORG
 10
0.0
 20
0.0
 30
0.0
  9
$UCSXDIR
 10
1.0
 20
0.0
 30
0.0
  9
$UCSYDIR
 10
0.0
 20
1.0
 30
0.0
  9
$PUCSNAME
  2

  9
$PUCSORG
 10
0.0
 20
0.0
 30
0.0
  9
$PUCSXDIR
 10
1.0
 20
0.0
 30
0.0
  9
$PUCSYDIR
 10
0.0
 20
1.0
 30
0.0
  9
$USERI1
 70
     0
  9
$USERI2
 70
     0
  9
$USERI3
 70
     0
  9
$USERI4
 70
     0
  9
$USERI5
 70
     0
  9
$USERR1
 40
0.0
  9
$USERR2
 40
0.0
  9
$USERR3
 40
0.0
  9
$USERR4
 40
0.0
  9
$USERR5
 40
0.0
  9
$WORLDVIEW
 70
     1
  9
$SHADEDGE
 70
     3
  9
$SHADEDIF
 70
    70
  9
$TILEMODE
 70
     1
  9
$MAXACTVP
 70
    64
  9
$PLIMCHECK
 70
     0
  9
$PEXTMIN
 10
1.0000000000000000E+20
 20
1.0000000000000000E+20
 30
1.0000000000000000E+20
  9
$PEXTMAX
 10
-1.0000000000000000E+20
 20
-1.0000000000000000E+20
 30
-1.0000000000000000E+20
  9
$PLIMMIN
 10
0.0
 20
0.0
  9
$PLIMMAX
 10
12.0
 20
9.0
  9
$UNITMODE
 70
     0
  9
$VISRETAIN
 70
     1
  9
$PLINEGEN
 70
     0
  9
$PSLTSCALE
 70
     1
  0
ENDSEC
  0
SECTION
  2
TABLES
  0
TABLE
  2
VPORT
 70
     1
  0
VPORT
  2
*ACTIVE
 70
     0
 10
0.0
 20
0.0
 11
1.0
 21
1.0
 12
0.0
 22
0.0
 13
0.0
 23
0.0
 14
1.0
 24
1.0
 15
0.0
 25
0.0
 16
0.0
 26
0.0
 36
41.4024594201006266
 17
4051.6484374999990905
 27
140.0758895874022869
 37
0.0
 40
14.4520544861966993
 41
2.1481900452488678
 42
50.0
 43
0.0
 44
0.0
 50
0.0
 51
0.0
 71
     0
 72
   100
 73
     1
 74
     1
 75
     0
 76
     0
 77
     0
 78
     0
  0
ENDTAB
  0
TABLE
  2
LTYPE
 70
     2
  0
LTYPE
  2
CONTINUOUS
 70
     0
  3
Solid line
 72
    65
 73
     0
 40
0.0
  0
LTYPE
  2
PHANTOM2
 70
     0
  3
___ _ _ ___ _ _ ___ _ _ ___ _ _
 72
    65
 73
     6
 40
1.25
 49
0.625
 49
-0.125
 49
0.125
 49
-0.125
 49
0.125
 49
-0.125
  0
ENDTAB
  0
TABLE
  2
LAYER
 70
     2
  0
LAYER
  2
0
 70
     0
 62
   255
  6
CONTINUOUS
  0
LAYER
  2
DEFPOINTS
 70
     0
 62
     7
  6
CONTINUOUS
  0
ENDTAB
  0
TABLE
  2
STYLE
 70
     1
  0
STYLE
  2
STANDARD
 70
     0
 40
0.0
 41
0.8
 50
0.0
 71
     0
 42
0.2
  3
txt
  4

  0
ENDTAB
  0
TABLE
  2
VIEW
 70
     0
  0
ENDTAB
  0
TABLE
  2
UCS
 70
     0
  0
ENDTAB
  0
TABLE
  2
APPID
 70
     9
  0
APPID
  2
ACAD
 70
     0
  0
APPID
  2
ACAD_MLEADERVER
 70
     0
  0
APPID
  2
ACAD_EXEMPT_FROM_CAD_STANDARDS
 70
     0
  0
APPID
  2
ACAD_NAV_VCDISPLAY
 70
     0
  0
APPID
  2
ACAECLAYERSTANDARD
 70
     0
  0
APPID
  2
ACCMTRANSPARENCY
 70
     0
  0
APPID
  2
ACAD_DSTYLE_DIMJAG
 70
     0
  0
APPID
  2
ACAD_DSTYLE_DIMTALN
 70
     0
  0
APPID
  2
ACDBATTR
 70
     0
  0
ENDTAB
  0
TABLE
  2
DIMSTYLE
 70
     1
  0
DIMSTYLE
  2
STANDARD
 70
     0
  3

  4

  5

  6

  7

 40
1.0
 41
0.1875
 42
0.0625
 43
0.38
 44
0.125
 45
0.0
 46
0.0
 47
0.01
 48
0.01
140
0.15625
141
0.09
142
0.0
143
25.3999999999999986
144
1.0
145
0.0
146
1.0
147
0.09
 71
     1
 72
     0
 73
     1
 74
     1
 75
     0
 76
     0
 77
     0
 78
     4
170
     0
171
     2
172
     0
173
     0
174
     0
175
     0
176
     0
177
     0
178
     0
  0
ENDTAB
  0
ENDSEC
  0
SECTION
  2
BLOCKS
  0
BLOCK
  8
0
  2
$MODEL_SPACE
 70
     0
 10
0.0
 20
0.0
 30
0.0
  3
$MODEL_SPACE
  1

  0
ENDBLK
  5
21
  8
0
  0
BLOCK
 67
     1
  8
0
  2
$PAPER_SPACE
 70
     0
 10
0.0
 20
0.0
 30
0.0
  3
$PAPER_SPACE
  1

  0
ENDBLK
  5
1D
 67
     1
  8
0
  0
ENDSEC
  0
SECTION
  2
ENTITIES
  0
ATTDEF
  5
3930
  8
DEFPOINTS
 10
4051.6441131753190348
 20
142.0562248634593914
 30
0.0
 40
0.001
  1
K-26294W
  3

  2
MODELNUMBER
 70
     0
1001
ACDBATTR
1070
     0
1070
     1
  0
ATTDEF
  5
3931
  8
DEFPOINTS
 10
4051.6441131753190348
 20
142.0545581967926978
 30
0.0
 40
0.001
  1

  3

  2
TRADENAME
 70
     0
1001
ACDBATTR
1070
     0
1070
     1
  0
ATTDEF
  5
3932
  8
DEFPOINTS
 10
4051.6441131753190348
 20
142.0528915301260042
 30
0.0
 40
0.001
  1
SHOWERHEAD
  3

  2
PRODUCT
 70
     0
1001
ACDBATTR
1070
     0
1070
     1
  0
LINE
  5
66E7
  8
0
 10
4058.5852700429818469
 20
138.0936493822337923
 30
0.0
 11
4044.7115714417827803
 21
138.0936493822337923
 31
0.0
  0
LINE
  5
66E8
  8
0
 10
4050.7390904938820313
 20
140.7530194610338015
 30
0.0
 11
4050.7390904938820313
 21
140.8317596185337948
 31
0.0
  0
LINE
  5
66E9
  8
0
 10
4051.1534207423828775
 20
142.0381296972338134
 30
0.0
 11
4051.1534207423828775
 21
141.3069529039337908
 31
0.0
  0
LINE
  5
66EA
  8
0
 10
4051.4515709640818386
 20
141.3069529042338104
 30
0.0
 11
4051.4515709640818386
 21
141.883987561533786
 31
0.0
  0
LINE
  5
66EB
  8
0
 10
4050.7784605725819347
 20
140.8711296972338118
 30
0.0
 11
4052.5183809137829485
 21
140.8711296972338118
 31
0.0
  0
LINE
  5
66EC
  8
0
 10
4052.123419805182948
 20
142.0581296972337952
 30
0.0
 11
4051.1734216811828446
 21
142.0581296972337952
 31
0.0
  0
ARC
  5
66ED
  8
0
 10
4051.6736667723021128
 20
141.2856105170284025
 30
0.0
 40
0.6467746181139629
 50
92.2370365962082843
 51
108.7299779773575068
  0
ARC
  5
66EE
  8
0
 10
4051.3834207423819862
 20
141.3069529039337908
 30
0.0
 40
0.23
 50
180.0
 51
247.4596895364923057
  0
ARC
  5
66EF
  8
0
 10
4051.2684207423708358
 20
141.0298698839253859
 30
0.0
 40
0.0700000000118527
 50
309.4534837533632867
 51
67.4596895310172613
  0
ARC
  5
66F0
  8
0
 10
4050.7866105126408911
 20
140.7584988354516895
 30
0.0
 40
0.0478348798144872
 50
186.5775365138991901
 51
249.6315338108572917
  0
ARC
  5
66F1
  8
0
 10
4050.7784605725819347
 20
140.8317596185337948
 30
0.0
 40
0.0393700787
 50
90.0
 51
180.0
  0
ARC
  5
66F2
  8
0
 10
4051.1749944413400044
 20
142.0365559244289955
 30
0.0
 40
0.0216310251154583
 50
94.1695714977622345
 51
175.8277391014572117
  0
ARC
  5
66F3
  8
0
 10
4051.6467430229440652
 20
140.5699080281275997
 30
0.0
 40
0.5255607948794596
 50
129.4354484464705024
 51
145.0302874531834902
  0
ARC
  5
66F4
  8
0
 10
4044.7126914674850013
 20
138.1065707117130898
 30
0.0
 40
0.0129697807647743
 50
184.4546466794340915
 51
265.0459628711017217
  0
LINE
  5
66F5
  8
0
 10
4055.082053883818844
 20
140.7136548941269893
 30
0.0
 11
4048.2147876009448737
 21
140.7136548941269893
 31
0.0
  0
ARC
  5
66F6
  8
0
 10
4088.6940841561818161
 20
137.3302841378780101
 30
0.0
 40
44.001153843373487
 50
177.0445437124276111
 51
178.9904236236768043
  0
ARC
  5
66F7
  8
0
 10
4045.9317710246468778
 20
139.3762236469445952
 30
0.0
 40
1.201148924000043
 50
98.6726206405981685
 51
169.3132100483161935
  0
ARC
  5
66F8
  8
0
 10
4049.3410675957929925
 20
101.900895325624802
 30
0.0
 40
38.8290974907884632
 50
91.6621592248054355
 51
95.3055563523826521
  0
ARC
  5
66F9
  8
0
 10
4051.4743863903568126
 20
141.8751581429598048
 30
0.0
 40
0.0244643068257091
 50
110.0927071210128929
 51
158.8438931883976863
  0
ARC
  5
66FA
  8
0
 10
4051.6599973941151802
 20
141.5333034612638983
 30
0.0
 40
0.3588776018014179
 50
252.015349062216103
 51
268.1514356865866944
  0
ARC
  5
66FB
  8
0
 10
4051.6035145200089573
 20
141.3498239535288974
 30
0.0
 40
0.166948947044449
 50
218.7057287978178977
 51
251.0102701237381098
  0
ARC
  5
66FC
  8
0
 10
4051.5534050176652272
 20
141.3082305241844949
 30
0.0
 40
0.1018420679435006
 50
180.7188008834665993
 51
218.0735464865036874
  0
LINE
  5
66FD
  8
0
 10
4051.2429357480818908
 20
140.7530194610338015
 30
0.0
 11
4051.2429357480818908
 21
140.8317596185337948
 31
0.0
  0
ARC
  5
66FE
  8
0
 10
4051.2844150586838623
 20
140.7537615430705955
 30
0.0
 40
0.0414859481481317
 50
181.0249358726726996
 51
255.1841344520802011
  0
ARC
  5
66FF
  8
0
 10
4051.282297333527822
 20
140.8317681117889038
 30
0.0
 40
0.0393615863612957
 50
89.9876369903899445
 51
180.0123630096198042
  0
LINE
  5
6700
  8
0
 10
4052.5577509924819424
 20
140.7530194610338015
 30
0.0
 11
4052.5577509924819424
 21
140.8317596185337948
 31
0.0
  0
LINE
  5
6701
  8
0
 10
4052.1434207439820057
 20
142.0381296972338134
 30
0.0
 11
4052.1434207439820057
 21
141.3069529039337908
 31
0.0
  0
LINE
  5
6702
  8
0
 10
4051.8452705222821351
 20
141.3069529042338104
 30
0.0
 11
4051.8452705222821351
 21
141.883987561533786
 31
0.0
  0
ARC
  5
6703
  8
0
 10
4051.6231747140618609
 20
141.2856105170284025
 30
0.0
 40
0.6467746181139629
 50
71.270022022642479
 51
87.7629634037917015
  0
ARC
  5
6704
  8
0
 10
4051.9134207439819875
 20
141.3069529039337908
 30
0.0
 40
0.23
 50
292.5403104635075806
 51
0.0
  0
ARC
  5
6705
  8
0
 10
4052.0284207439931379
 20
141.0298698839253859
 30
0.0
 40
0.0700000000118527
 50
112.5403104689826961
 51
230.5465162466367133
  0
ARC
  5
6706
  8
0
 10
4052.5102309737230826
 20
140.7584988354516895
 30
0.0
 40
0.0478348798144872
 50
290.3684661891427936
 51
353.4224634861008099
  0
ARC
  5
6707
  8
0
 10
4052.5183809137829485
 20
140.8317596185337948
 30
0.0
 40
0.0393700787
 50
0.0
 51
90.0
  0
ARC
  5
6708
  8
0
 10
4052.1218470450248788
 20
142.0365559244289955
 30
0.0
 40
0.0216310251154583
 50
4.1722608985427598
 51
85.8304285022377655
  0
ARC
  5
6709
  8
0
 10
4051.650098463420818
 20
140.5699080281275997
 30
0.0
 40
0.5255607948794596
 50
34.9697125468164813
 51
50.5645515535295118
  0
ARC
  5
670A
  8
0
 10
4051.822455096007161
 20
141.8751581429598048
 30
0.0
 40
0.0244643068257091
 50
21.1561068116022888
 51
69.9072928789870787
  0
ARC
  5
670B
  8
0
 10
4051.6368440922501577
 20
141.5333034612638983
 30
0.0
 40
0.3588776018014179
 50
271.8485643134131919
 51
287.984650937783897
  0
ARC
  5
670C
  8
0
 10
4051.6933269663559258
 20
141.3498239535288974
 30
0.0
 40
0.166948947044449
 50
288.9897298762618902
 51
321.2942712021820739
  0
ARC
  5
670D
  8
0
 10
4051.7434364687001107
 20
141.3082305241844949
 30
0.0
 40
0.1018420679435006
 50
321.9264535134963126
 51
359.2811991165334007
  0
LINE
  5
670E
  8
0
 10
4052.0539057382820829
 20
140.7530194610338015
 30
0.0
 11
4052.0539057382820829
 21
140.8317596185337948
 31
0.0
  0
ARC
  5
670F
  8
0
 10
4052.0124264276810209
 20
140.7537615430705955
 30
0.0
 40
0.0414859481481317
 50
284.8158655479198273
 51
358.9750641273273004
  0
ARC
  5
6710
  8
0
 10
4052.0145441528379706
 20
140.8317681117889038
 30
0.0
 40
0.0393615863612957
 50
359.9876369903802242
 51
90.0123630096100698
  0
LINE
  5
6711
  8
0
 10
4051.4515709640818386
 20
141.883987561533786
 30
0.0
 11
4051.8452705222821351
 21
141.883987561533786
 31
0.0
  0
ARC
  5
6713
  8
0
 10
4058.5841500172809901
 20
138.1065707117130898
 30
0.0
 40
0.0129697807647743
 50
274.9540371288982783
 51
355.5453533205659937
  0
ARC
  5
6714
  8
0
 10
4014.6027573285828112
 20
137.3302841378780101
 30
0.0
 40
44.001153843373487
 50
1.0095763763232379
 51
2.9554562875723769
  0
ARC
  5
6715
  8
0
 10
4057.3650704601191137
 20
139.3762236469445952
 30
0.0
 40
1.201148924000043
 50
10.6867899516837799
 51
81.3273793594018173
  0
ARC
  5
6716
  8
0
 10
4053.955773888972999
 20
101.900895325624802
 30
0.0
 40
38.8290974907884632
 50
84.6944436476173621
 51
88.3378407751945645
  0
ENDSEC
  0
EOF
