  0
SECTION
  2
HEADER
  9
$ACADVER
  1
AC1009
  9
$INSBASE
 10
437.1721482968218879
 20
34.3277120255952966
 30
0.0
  9
$EXTMIN
 10
413.101836266303394
 20
34.326613070647312
 30
-0.0015258207003583
  9
$EXTMAX
 10
437.1849329142276019
 20
64.8409168156026965
 30
0.0000000349246037
  9
$LIMMIN
 10
0.0
 20
0.0
  9
$LIMMAX
 10
22.0
 20
17.0
  9
$ORTHOMODE
 70
     0
  9
$REGENMODE
 70
     1
  9
$FILLMODE
 70
     1
  9
$QTEXTMODE
 70
     0
  9
$MIRRTEXT
 70
     0
  9
$DRAGMODE
 70
     2
  9
$LTSCALE
 40
1.2099999999999991
  9
$OSMODE
 70
     7
  9
$ATTMODE
 70
     1
  9
$TEXTSIZE
 40
0.2
  9
$TRACEWID
 40
0.05
  9
$TEXTSTYLE
  7
STANDARD
  9
$CLAYER
  8
0
  9
$CELTYPE
  6
BYLAYER
  9
$CECOLOR
 62
   256
  9
$DIMSCALE
 40
1.0
  9
$DIMASZ
 40
0.1875
  9
$DIMEXO
 40
0.0625
  9
$DIMDLI
 40
0.38
  9
$DIMRND
 40
0.0
  9
$DIMDLE
 40
0.0
  9
$DIMEXE
 40
0.125
  9
$DIMTP
 40
1.5
  9
$DIMTM
 40
1.5
  9
$DIMTXT
 40
1.5
  9
$DIMCEN
 40
0.09
  9
$DIMTSZ
 40
0.0
  9
$DIMTOL
 70
     0
  9
$DIMLIM
 70
     0
  9
$DIMTIH
 70
     1
  9
$DIMTOH
 70
     1
  9
$DIMSE1
 70
     0
  9
$DIMSE2
 70
     0
  9
$DIMTAD
 70
     0
  9
$DIMZIN
 70
     4
  9
$DIMBLK
  1

  9
$DIMASO
 70
     1
  9
$DIMSHO
 70
     1
  9
$DIMPOST
  1

  9
$DIMAPOST
  1

  9
$DIMALT
 70
     0
  9
$DIMALTD
 70
     2
  9
$DIMALTF
 40
25.3999999999999986
  9
$DIMLFAC
 40
1.0
  9
$DIMTOFL
 70
     0
  9
$DIMTVP
 40
0.0
  9
$DIMTIX
 70
     0
  9
$DIMSOXD
 70
     0
  9
$DIMSAH
 70
     0
  9
$DIMBLK1
  1

  9
$DIMBLK2
  1

  9
$DIMSTYLE
  2
STANDARD
  9
$DIMCLRD
 70
     0
  9
$DIMCLRE
 70
     0
  9
$DIMCLRT
 70
     0
  9
$DIMTFAC
 40
1.0
  9
$DIMGAP
 40
0.09
  9
$LUNITS
 70
     2
  9
$LUPREC
 70
     4
  9
$SKETCHINC
 40
0.1
  9
$FILLETRAD
 40
0.0
  9
$AUNITS
 70
     0
  9
$AUPREC
 70
     0
  9
$MENU
  1
.
  9
$ELEVATION
 40
0.0
  9
$PELEVATION
 40
0.0
  9
$THICKNESS
 40
0.0
  9
$LIMCHECK
 70
     0
  9
$BLIPMODE
 70
     0
  9
$CHAMFERA
 40
0.0
  9
$CHAMFERB
 40
0.0
  9
$SKPOLY
 70
     0
  9
$TDCREATE
 40
2457827.4934837957844138
  9
$TDUPDATE
 40
2459537.8304050927981734
  9
$TDINDWG
 40
0.5160436343
  9
$TDUSRTIMER
 40
0.5160436343
  9
$USRTIMER
 70
     1
  9
$ANGBASE
 50
0.0
  9
$ANGDIR
 70
     0
  9
$PDMODE
 70
     0
  9
$PDSIZE
 40
0.3125
  9
$PLINEWID
 40
0.0
  9
$COORDS
 70
     1
  9
$SPLFRAME
 70
     0
  9
$SPLINETYPE
 70
     6
  9
$SPLINESEGS
 70
     8
  9
$ATTDIA
 70
     1
  9
$ATTREQ
 70
     1
  9
$HANDLING
 70
     1
  9
$HANDSEED
  5
1486B
  9
$SURFTAB1
 70
     6
  9
$SURFTAB2
 70
     6
  9
$SURFTYPE
 70
     6
  9
$SURFU
 70
     6
  9
$SURFV
 70
     6
  9
$UCSNAME
  2

  9
$UCSORG
 10
0.0
 20
0.0
 30
0.0
  9
$UCSXDIR
 10
1.0
 20
0.0
 30
0.0
  9
$UCSYDIR
 10
0.0
 20
1.0
 30
0.0
  9
$PUCSNAME
  2

  9
$PUCSORG
 10
0.0
 20
0.0
 30
0.0
  9
$PUCSXDIR
 10
1.0
 20
0.0
 30
0.0
  9
$PUCSYDIR
 10
0.0
 20
1.0
 30
0.0
  9
$USERI1
 70
     0
  9
$USERI2
 70
     0
  9
$USERI3
 70
     0
  9
$USERI4
 70
     0
  9
$USERI5
 70
     0
  9
$USERR1
 40
0.0
  9
$USERR2
 40
0.0
  9
$USERR3
 40
0.0
  9
$USERR4
 40
0.0
  9
$USERR5
 40
0.0
  9
$WORLDVIEW
 70
     1
  9
$SHADEDGE
 70
     3
  9
$SHADEDIF
 70
    70
  9
$TILEMODE
 70
     1
  9
$MAXACTVP
 70
    48
  9
$PLIMCHECK
 70
     0
  9
$PEXTMIN
 10
1.0000000000000000E+20
 20
1.0000000000000000E+20
 30
1.0000000000000000E+20
  9
$PEXTMAX
 10
-1.0000000000000000E+20
 20
-1.0000000000000000E+20
 30
-1.0000000000000000E+20
  9
$PLIMMIN
 10
0.0
 20
0.0
  9
$PLIMMAX
 10
12.0
 20
9.0
  9
$UNITMODE
 70
     0
  9
$VISRETAIN
 70
     1
  9
$PLINEGEN
 70
     0
  9
$PSLTSCALE
 70
     1
  0
ENDSEC
  0
SECTION
  2
TABLES
  0
TABLE
  2
VPORT
 70
     1
  0
VPORT
  2
*ACTIVE
 70
     0
 10
0.0
 20
0.0
 11
1.0
 21
1.0
 12
214.1644569779608958
 22
42.3813157575644368
 13
0.0
 23
0.0
 14
1.0
 24
1.0
 15
0.0
 25
0.0
 16
-0.0000000000000284
 26
0.0
 36
157.2215818301446859
 17
210.9789276123046875
 27
7.2024491855605604
 37
0.0
 40
30.7327832467092392
 41
2.2831541218637992
 42
50.0
 43
0.0
 44
0.0
 50
0.0
 51
0.0
 71
     0
 72
   100
 73
     1
 74
     1
 75
     0
 76
     0
 77
     0
 78
     0
  0
ENDTAB
  0
TABLE
  2
LTYPE
 70
     2
  0
LTYPE
  2
CONTINUOUS
 70
     0
  3
Solid line
 72
    65
 73
     0
 40
0.0
  0
LTYPE
  2
PHANTOM2
 70
     0
  3
___ _ _ ___ _ _ ___ _ _ ___ _ _
 72
    65
 73
     6
 40
1.25
 49
0.625
 49
-0.125
 49
0.125
 49
-0.125
 49
0.125
 49
-0.125
  0
ENDTAB
  0
TABLE
  2
LAYER
 70
     2
  0
LAYER
  2
0
 70
     0
 62
     7
  6
CONTINUOUS
  0
LAYER
  2
DEFPOINTS
 70
     0
 62
     7
  6
CONTINUOUS
  0
ENDTAB
  0
TABLE
  2
STYLE
 70
     1
  0
STYLE
  2
STANDARD
 70
     0
 40
0.0
 41
0.8
 50
0.0
 71
     0
 42
0.2
  3
txt
  4

  0
ENDTAB
  0
TABLE
  2
VIEW
 70
     0
  0
ENDTAB
  0
TABLE
  2
UCS
 70
     0
  0
ENDTAB
  0
TABLE
  2
APPID
 70
    10
  0
APPID
  2
ACAD
 70
     0
  0
APPID
  2
ACAD_MLEADERVER
 70
     0
  0
APPID
  2
ACAD_EXEMPT_FROM_CAD_STANDARDS
 70
     0
  0
APPID
  2
ACAD_NAV_VCDISPLAY
 70
     0
  0
APPID
  2
ACADANNOMONITORALERTICONDI
 70
     0
  0
APPID
  2
ACAD_DSTYLE_DIMJAG
 70
     0
  0
APPID
  2
ACAD_DSTYLE_DIMTALN
 70
     0
  0
APPID
  2
ACDBATTR
 70
     0
  0
APPID
  2
DCO15
 70
     0
  0
APPID
  2
ACAD_PSEXT
 70
     0
  0
ENDTAB
  0
TABLE
  2
DIMSTYLE
 70
     1
  0
DIMSTYLE
  2
STANDARD
 70
     0
  3

  4

  5

  6

  7

 40
1.0
 41
0.1875
 42
0.0625
 43
0.38
 44
0.125
 45
0.0
 46
0.0
 47
1.5
 48
1.5
140
1.5
141
0.09
142
0.0
143
25.3999999999999986
144
1.0
145
0.0
146
1.0
147
0.09
 71
     0
 72
     0
 73
     1
 74
     1
 75
     0
 76
     0
 77
     0
 78
     4
170
     0
171
     2
172
     0
173
     0
174
     0
175
     0
176
     0
177
     0
178
     0
  0
ENDTAB
  0
ENDSEC
  0
SECTION
  2
BLOCKS
  0
BLOCK
  8
0
  2
$MODEL_SPACE
 70
     0
 10
0.0
 20
0.0
 30
0.0
  3
$MODEL_SPACE
  1

  0
ENDBLK
  5
21
  8
0
  0
BLOCK
 67
     1
  8
0
  2
$PAPER_SPACE
 70
     0
 10
0.0
 20
0.0
 30
0.0
  3
$PAPER_SPACE
  1

  0
ENDBLK
  5
1D
 67
     1
  8
0
  0
ENDSEC
  0
SECTION
  2
ENTITIES
  0
ATTDEF
  5
4EF9
  8
DEFPOINTS
 10
437.1721257532262825
 20
34.3310618902487121
 30
0.0
 40
0.001
  1
K-26064K
  3

  2
MODELNUMBER
 70
     0
1001
ACDBATTR
1070
     0
1070
     1
  0
ATTDEF
  5
4EFA
  8
DEFPOINTS
 10
437.1721257532262825
 20
34.3293952235820328
 30
0.0
 40
0.001
  1

  3

  2
TRADENAME
 70
     0
1001
ACDBATTR
1070
     0
1070
     1
  0
ATTDEF
  5
4EFB
  8
DEFPOINTS
 10
437.1721257532262825
 20
34.3277285569153534
 30
0.0
 40
0.001
  1
TOILET
  3

  2
PRODUCT
 70
     0
1001
ACDBATTR
1070
     0
1070
     1
  0
LINE
  5
1470B
  8
0
 10
418.135677833157672
 20
34.3277120255952966
 30
0.0
 11
436.9755940278507182
 21
34.3277120255952966
 31
0.0
  0
LINE
  5
1470C
  8
0
 10
437.1720381471581049
 20
50.3513336534176901
 30
0.0
 11
437.1720381471581049
 21
34.524562000045357
 31
0.0
  0
LINE
  5
1470D
  8
0
 10
437.1720381471581049
 20
50.6661835862817824
 30
0.0
 11
437.1720381471581049
 21
62.9181840472436704
 31
0.0
  0
LINE
  5
1470E
  8
0
 10
413.4220401451487987
 20
50.0757431023453066
 30
0.0
 11
431.4734230750738107
 21
50.0757431023453066
 31
0.0
  0
LINE
  5
1470F
  8
0
 10
431.655724919413899
 20
50.5481846991453025
 30
0.0
 11
437.0540392600136101
 21
50.5481846991453025
 31
0.0
  0
LINE
  5
14710
  8
0
 10
431.0985958126814239
 20
62.9881840472453121
 30
0.0
 11
437.113103654184215
 21
62.9881840472453121
 31
0.0
  0
ARC
  5
14711
  8
0
 10
413.4220401451484008
 20
49.8395219576400024
 30
0.0
 40
0.2362211447052971
 50
89.999999999875925
 51
196.4954676409653018
  0
ARC
  5
14712
  8
0
 10
447.9188500306204901
 20
60.0550182055394473
 30
0.0
 40
36.2138010503248182
 50
196.4955341622533069
 51
203.080663339590302
  0
ARC
  5
14713
  8
0
 10
469.7773113233545814
 20
70.0455193186689655
 30
0.0
 40
60.242327653948081
 50
203.6719658008204021
 51
207.1765462349605968
  0
ARC
  5
14714
  8
0
 10
383.1510280057768796
 20
26.0821689041350417
 30
0.0
 40
36.9030655336446074
 50
23.9475728376584698
 51
26.4697744633729286
  0
ARC
  5
14715
  8
0
 10
403.8594579136640732
 20
35.1896216257593366
 30
0.0
 40
14.2807901371254893
 50
13.7592120899764492
 51
24.2769872450525384
  0
ARC
  5
14716
  8
0
 10
406.8502657558169062
 20
36.0765011567821716
 30
0.0
 40
11.1658785159689593
 50
2.6636068589525528
 51
12.9890300609546294
  0
ARC
  5
14717
  8
0
 10
404.539582953178126
 20
35.9869558742396691
 30
0.0
 40
13.4782381202856101
 50
353.8640062449143215
 51
2.587372080963128
  0
ARC
  5
14718
  8
0
 10
418.1362581201206012
 20
34.524566799825088
 30
0.0
 40
0.1968556295106013
 50
173.666070228531197
 51
269.8311044388651112
  0
CIRCLE
  5
14719
  8
0
 10
424.3767625566081279
 20
35.8243059302453091
 30
0.0
 40
0.5386973849999999
  0
CIRCLE
  5
1471A
  8
0
 10
424.3767625566081279
 20
35.8243059302453091
 30
0.0
 40
0.5424976163999995
  0
ARC
  5
1471B
  8
0
 10
431.6559523328157866
 20
50.6658810618563606
 30
0.0
 40
0.1176965824154042
 50
181.7126091636642116
 51
269.8892929940673753
  0
ARC
  5
1471C
  8
0
 10
431.2092224170580721
 20
62.9181840472453118
 30
0.0
 40
0.0700000000000007
 50
90.0001112163024004
 51
181.8640788516005102
  0
ARC
  5
1471D
  8
0
 10
2135.6562937126350334
 20
112.2919346892258972
 30
0.0
 40
1705.2320405625080184
 50
181.6592659524434907
 51
182.071204043679387
  0
ARC
  5
1471E
  8
0
 10
431.8717907528751994
 20
50.3513336535024365
 30
0.0
 40
0.1968503937428618
 50
90.0000000049765276
 51
176.9999999855645001
  0
LINE
  5
1471F
  8
0
 10
431.6752101357581068
 20
50.3616360071453002
 30
0.0
 11
431.6700036920581169
 21
50.2622911424453065
 31
0.0
  0
ARC
  5
14720
  8
0
 10
431.4734230750738107
 20
50.2725934959482501
 30
0.0
 40
0.1968503936029267
 50
269.9999999663173185
 51
357.0000000242147848
  0
ARC
  5
14721
  8
0
 10
436.975183310718478
 20
50.3513318190718024
 30
0.0
 40
0.1968548364480742
 50
0.0005339053958841
 51
89.7445587979061372
  0
ARC
  5
14722
  8
0
 10
437.0540392600232167
 20
50.6661835862802477
 30
0.0
 40
0.1179988871349309
 50
269.9999999953394081
 51
0.0000000007458274
  0
LINE
  5
14723
  8
0
 10
433.5144532954994929
 20
64.8398627299453096
 30
0.0
 11
435.3254769170167151
 21
64.8398627299453096
 31
0.0
  0
LINE
  5
14724
  8
0
 10
433.4750832164580743
 20
64.7584867921453053
 30
0.0
 11
435.3648469960580769
 21
64.7584867921453053
 31
0.0
  0
LINE
  5
14725
  8
0
 10
435.3648469960580769
 20
64.800492650903891
 30
0.0
 11
435.3648469960580769
 21
64.7584867921453053
 31
0.0
  0
LINE
  5
14726
  8
0
 10
433.4750832164580743
 20
64.800492650903891
 30
0.0
 11
433.4750832164580743
 21
64.7584867921453053
 31
0.0
  0
ARC
  5
14727
  8
0
 10
433.5144532954994929
 20
64.800492650903891
 30
0.0
 40
0.0393700790414222
 50
89.9999999147477041
 51
179.9999996486567113
  0
ARC
  5
14728
  8
0
 10
435.3254769170167151
 20
64.800492650903891
 30
0.0
 40
0.0393700790414222
 50
0.0000003513433061
 51
90.0000000852490558
  0
ARC
  5
14729
  8
0
 10
434.9677454079745758
 20
33.3650085845891269
 30
0.0
 40
31.4289438954968112
 50
92.7221858907251288
 51
96.4683778327001136
  0
ARC
  5
1472A
  8
0
 10
431.4624910472543888
 20
64.2819292919360805
 30
0.0
 40
0.313950818883021
 50
96.4683778327001136
 51
175.1548483534650984
  0
LINE
  5
1472B
  8
0
 10
431.1496620977346197
 20
64.3084465508374876
 30
0.0
 11
431.0397281821581146
 21
63.0523844120452992
 31
0.0
  0
ARC
  5
1472C
  8
0
 10
431.0986358007775721
 20
63.047309823216203
 30
0.0
 40
0.0591257894933259
 50
175.0764180224435052
 51
269.9612495549870914
  0
ARC
  5
1472D
  8
0
 10
437.1020381471540759
 20
62.9181840472436704
 30
0.0
 40
0.0700000000039794
 50
359.9999981187726235
 51
90.0004684588423345
  0
ARC
  5
1472E
  8
0
 10
437.113093177245787
 20
63.0472391658921012
 30
0.0
 40
0.0590551195761469
 50
270.0101648149126277
 51
3.500639885897316
  0
LINE
  5
1472F
  8
0
 10
437.1720381068579968
 20
63.0508450532453182
 30
0.0
 11
437.0929254822581242
 21
64.3443250305453205
 31
0.0
  0
ARC
  5
14730
  8
0
 10
436.7782797974797973
 20
64.3290777940684393
 30
0.0
 40
0.3150148967426131
 50
2.7742934356287292
 51
84.130511071547204
  0
ARC
  5
14731
  8
0
 10
433.4909863097614107
 20
32.3520657126704521
 30
0.0
 40
32.4605526917192222
 50
84.130511071547204
 51
86.6906284605163222
  0
ARC
  5
14732
  8
0
 10
436.9751877534579876
 20
34.5245620000453286
 30
0.0
 40
0.1968503937000338
 50
270.1182513487108849
 51
0.0000000000016284
  0
LINE
  5
14734
  8
0
 10
413.4072562428632978
 20
50.3080265665453013
 30
0.0
 11
426.5612873902181263
 21
50.3080265665453013
 31
0.0
  0
LINE
  5
14735
  8
0
 10
413.1288412102267102
 20
50.5048769606452908
 30
0.0
 11
428.2863215251217071
 21
50.5048769606452908
 31
0.0
  0
LINE
  5
14736
  8
0
 10
429.5835454649218832
 20
51.9853834165452895
 30
0.0
 11
429.6315150807772056
 21
51.437088198487892
 31
0.0
  0
ARC
  5
14737
  8
0
 10
429.0763166886864042
 20
51.166774991325191
 30
0.0
 40
0.6175066676132329
 50
344.0396245682986773
 51
25.9603754427478499
  0
ARC
  5
14738
  8
0
 10
429.0737230999217786
 20
51.1662942834453105
 30
0.0
 40
0.6198692117999993
 50
276.040959018800379
 51
344.1482640088995026
  0
ARC
  5
14739
  8
0
 10
428.2831105292855227
 20
58.6472866796972383
 30
0.0
 40
8.1425226919229221
 50
273.0280169282165161
 51
276.0334098328925734
  0
ARC
  5
1473A
  8
0
 10
428.2863215251217071
 20
58.6067648580488978
 30
0.0
 40
8.1018878975036017
 50
270.0
 51
273.020478439148917
  0
LINE
  5
1473B
  8
0
 10
428.4337282006197825
 20
50.5062180384981403
 30
0.0
 11
427.790394165021894
 21
50.4045486526452891
 31
0.0
  0
ARC
  5
1473C
  8
0
 10
426.5612873902388742
 20
58.1819756197572886
 30
0.0
 40
7.8739490532119971
 50
269.9999999998469207
 51
278.9804753854469936
  0
LINE
  5
1473D
  8
0
 10
429.8827782181925272
 20
50.4497588503452974
 30
0.0
 11
428.2646679816510868
 21
50.4497588503452974
 31
0.0
  0
LINE
  5
1473E
  8
0
 10
429.9615183755217913
 20
50.3710186930159907
 30
0.0
 11
429.9615183755217913
 21
50.0757431023453066
 31
0.0
  0
LINE
  5
1473F
  8
0
 10
428.1859278243218228
 20
50.3710186930160191
 30
0.0
 11
428.1859278243218228
 21
50.0757431023453066
 31
0.0
  0
LINE
  5
14740
  8
0
 10
429.2312034149218221
 20
50.5667629747340186
 30
0.0
 11
429.2312034149218221
 21
50.4497588503452974
 31
0.0
  0
LINE
  5
14741
  8
0
 10
428.9162427850218933
 20
50.5294163102453027
 30
0.0
 11
428.9162427850218933
 21
50.4497588503452974
 31
0.0
  0
ARC
  5
14742
  8
0
 10
428.2646679816510868
 20
50.3710186930160191
 30
0.0
 40
0.078740157329281
 50
89.9999998757757709
 51
180.0000000514596081
  0
ARC
  5
14743
  8
0
 10
429.8827782181925272
 20
50.3710186930159907
 30
0.0
 40
0.0787401573292854
 50
359.9999999485550006
 51
90.0000001242209748
  0
ARC
  5
14744
  8
0
 10
452.4854288190446141
 20
49.474288444044511
 30
0.0
 40
39.3700787515228399
 50
177.0474165560005986
 51
178.4999999996429096
  0
ARC
  5
14745
  8
0
 10
416.8280274137177912
 20
49.8070794623791286
 30
0.0
 40
3.4572566298326182
 50
168.3556789714199908
 51
171.6686686793360934
  0
LINE
  5
14746
  8
0
 10
415.6371584805355042
 20
50.130861212545291
 30
0.0
 11
416.8658233177778243
 21
50.130861212545291
 31
0.0
  0
LINE
  5
14747
  8
0
 10
417.8044527276928193
 20
50.130861212545291
 30
0.0
 11
423.5406076613542155
 21
50.130861212545291
 31
0.0
  0
LINE
  5
14748
  8
0
 10
423.9787754816036909
 20
50.130861212545291
 30
0.0
 11
426.2237199235216849
 21
50.130861212545291
 31
0.0
  0
ARC
  5
14749
  8
0
 10
415.6371964392175187
 20
50.3277619621117012
 30
0.0
 40
0.1969007532252535
 50
196.1511045615534101
 51
269.9889544705495155
  0
ARC
  5
1474A
  8
0
 10
415.0886654843998826
 20
50.1700251459542486
 30
0.0
 40
0.373859896825068
 50
15.98643039786276
 51
21.6617275705574599
  0
LINE
  5
1474B
  8
0
 10
417.0213642031417862
 20
50.0914911338453024
 30
0.0
 11
417.6590451449683883
 21
50.0914911338453024
 31
0.0
  0
LINE
  5
1474C
  8
0
 10
423.6895387390558767
 20
50.0914911338453024
 30
0.0
 11
423.8115090141467931
 21
50.0914911338453024
 31
0.0
  0
ARC
  5
1474D
  8
0
 10
417.0668932396686728
 20
50.5073353781534706
 30
0.0
 40
0.4291822285762822
 50
207.6708831602988994
 51
223.3944256598310005
  0
ARC
  5
1474E
  8
0
 10
417.0366248110909737
 20
50.4787175259007697
 30
0.0
 40
0.3875269859755318
 50
223.3944256598310005
 51
267.7431389179508869
  0
ARC
  5
1474F
  8
0
 10
417.6171451205684093
 20
50.4967612991117889
 30
0.0
 40
0.4118928943361683
 50
307.8736469970619964
 51
332.7281359407863874
  0
ARC
  5
14750
  8
0
 10
417.6311684181828241
 20
50.4826554919054189
 30
0.0
 40
0.3921564316862157
 50
274.0763504127813803
 51
307.5215837713590759
  0
ARC
  5
14751
  8
0
 10
426.2237044603267009
 20
50.3277373435246531
 30
0.0
 40
0.1968761315866142
 50
270.0045001687636841
 51
327.6073434540077187
  0
ARC
  5
14752
  8
0
 10
426.8179480588801198
 20
49.9507257163258629
 30
0.0
 40
0.5068732708747188
 50
135.1775969141891949
 51
147.6073434540043081
  0
ARC
  5
14753
  8
0
 10
423.7123546480336245
 20
50.4835191192282196
 30
0.0
 40
0.3922994951519909
 50
206.5733604865033044
 51
231.1305870012309072
  0
ARC
  5
14754
  8
0
 10
423.7144868778755153
 20
50.4872431418839582
 30
0.0
 40
0.3965375915309958
 50
231.2283914706713119
 51
266.3928571034035144
  0
ARC
  5
14755
  8
0
 10
423.8071331805488171
 20
50.4836447344213681
 30
0.0
 40
0.3924539617867078
 50
307.6495875057639182
 51
333.4174136699450059
  0
ARC
  5
14756
  8
0
 10
423.8072174090324893
 20
50.4847308543278999
 30
0.0
 40
0.3932631379111047
 50
270.6252702514875068
 51
307.5432132918231218
  0
ARC
  5
14757
  8
0
 10
413.5214761314442171
 20
51.4839666027300282
 30
0.0
 40
0.3543330154504005
 50
92.0184328646834047
 51
177.0468820812614865
  0
ARC
  5
14758
  8
0
 10
430.057934821591175
 20
-417.7988122006327103
 30
0.0
 40
469.9283750444071188
 50
90.0769935452917139
 51
92.0181382597290991
  0
ARC
  5
14759
  8
0
 10
429.426660369282672
 20
51.9716539942161901
 30
0.0
 40
0.1574846985302625
 50
5.0013609326833111
 51
90.0766989403343956
  0
ENDSEC
  0
EOF
