  0
SECTION
  2
HEADER
  9
$ACADVER
  1
AC1009
  9
$INSBASE
 10
418.9683478478019083
 20
46.9146691625394894
 30
0.0
  9
$EXTMIN
 10
410.9138525489119047
 20
22.8547449422981686
 30
0.0
  9
$EXTMAX
 10
427.0228431466920256
 20
46.9190144515096392
 30
0.0
  9
$LIMMIN
 10
0.0
 20
0.0
  9
$LIMMAX
 10
22.0
 20
17.0
  9
$ORTHOMODE
 70
     0
  9
$REGENMODE
 70
     1
  9
$FILLMODE
 70
     1
  9
$QTEXTMODE
 70
     0
  9
$MIRRTEXT
 70
     0
  9
$DRAGMODE
 70
     2
  9
$LTSCALE
 40
1.2099999999999991
  9
$OSMODE
 70
     7
  9
$ATTMODE
 70
     1
  9
$TEXTSIZE
 40
0.2
  9
$TRACEWID
 40
0.05
  9
$TEXTSTYLE
  7
STANDARD
  9
$CLAYER
  8
0
  9
$CELTYPE
  6
BYLAYER
  9
$CECOLOR
 62
   256
  9
$DIMSCALE
 40
1.0
  9
$DIMASZ
 40
0.1875
  9
$DIMEXO
 40
0.0625
  9
$DIMDLI
 40
0.38
  9
$DIMRND
 40
0.0
  9
$DIMDLE
 40
0.0
  9
$DIMEXE
 40
0.125
  9
$DIMTP
 40
1.5
  9
$DIMTM
 40
1.5
  9
$DIMTXT
 40
1.5
  9
$DIMCEN
 40
0.09
  9
$DIMTSZ
 40
0.0
  9
$DIMTOL
 70
     0
  9
$DIMLIM
 70
     0
  9
$DIMTIH
 70
     1
  9
$DIMTOH
 70
     1
  9
$DIMSE1
 70
     0
  9
$DIMSE2
 70
     0
  9
$DIMTAD
 70
     0
  9
$DIMZIN
 70
     4
  9
$DIMBLK
  1

  9
$DIMASO
 70
     1
  9
$DIMSHO
 70
     1
  9
$DIMPOST
  1

  9
$DIMAPOST
  1

  9
$DIMALT
 70
     0
  9
$DIMALTD
 70
     2
  9
$DIMALTF
 40
25.3999999999999986
  9
$DIMLFAC
 40
1.0
  9
$DIMTOFL
 70
     0
  9
$DIMTVP
 40
0.0
  9
$DIMTIX
 70
     0
  9
$DIMSOXD
 70
     0
  9
$DIMSAH
 70
     0
  9
$DIMBLK1
  1

  9
$DIMBLK2
  1

  9
$DIMSTYLE
  2
STANDARD
  9
$DIMCLRD
 70
     0
  9
$DIMCLRE
 70
     0
  9
$DIMCLRT
 70
     0
  9
$DIMTFAC
 40
1.0
  9
$DIMGAP
 40
0.09
  9
$LUNITS
 70
     2
  9
$LUPREC
 70
     4
  9
$SKETCHINC
 40
0.1
  9
$FILLETRAD
 40
0.0
  9
$AUNITS
 70
     0
  9
$AUPREC
 70
     0
  9
$MENU
  1
.
  9
$ELEVATION
 40
0.0
  9
$PELEVATION
 40
0.0
  9
$THICKNESS
 40
0.0
  9
$LIMCHECK
 70
     0
  9
$BLIPMODE
 70
     0
  9
$CHAMFERA
 40
0.0
  9
$CHAMFERB
 40
0.0
  9
$SKPOLY
 70
     0
  9
$TDCREATE
 40
2457827.4934837957844138
  9
$TDUPDATE
 40
2459531.6545138889923692
  9
$TDINDWG
 40
0.4993075231
  9
$TDUSRTIMER
 40
0.4993075231
  9
$USRTIMER
 70
     1
  9
$ANGBASE
 50
0.0
  9
$ANGDIR
 70
     0
  9
$PDMODE
 70
     0
  9
$PDSIZE
 40
0.3125
  9
$PLINEWID
 40
0.0
  9
$COORDS
 70
     1
  9
$SPLFRAME
 70
     0
  9
$SPLINETYPE
 70
     6
  9
$SPLINESEGS
 70
     8
  9
$ATTDIA
 70
     1
  9
$ATTREQ
 70
     1
  9
$HANDLING
 70
     1
  9
$HANDSEED
  5
143F9
  9
$SURFTAB1
 70
     6
  9
$SURFTAB2
 70
     6
  9
$SURFTYPE
 70
     6
  9
$SURFU
 70
     6
  9
$SURFV
 70
     6
  9
$UCSNAME
  2

  9
$UCSORG
 10
0.0
 20
0.0
 30
0.0
  9
$UCSXDIR
 10
1.0
 20
0.0
 30
0.0
  9
$UCSYDIR
 10
0.0
 20
1.0
 30
0.0
  9
$PUCSNAME
  2

  9
$PUCSORG
 10
0.0
 20
0.0
 30
0.0
  9
$PUCSXDIR
 10
1.0
 20
0.0
 30
0.0
  9
$PUCSYDIR
 10
0.0
 20
1.0
 30
0.0
  9
$USERI1
 70
     0
  9
$USERI2
 70
     0
  9
$USERI3
 70
     0
  9
$USERI4
 70
     0
  9
$USERI5
 70
     0
  9
$USERR1
 40
0.0
  9
$USERR2
 40
0.0
  9
$USERR3
 40
0.0
  9
$USERR4
 40
0.0
  9
$USERR5
 40
0.0
  9
$WORLDVIEW
 70
     1
  9
$SHADEDGE
 70
     3
  9
$SHADEDIF
 70
    70
  9
$TILEMODE
 70
     1
  9
$MAXACTVP
 70
    48
  9
$PLIMCHECK
 70
     0
  9
$PEXTMIN
 10
1.0000000000000000E+20
 20
1.0000000000000000E+20
 30
1.0000000000000000E+20
  9
$PEXTMAX
 10
-1.0000000000000000E+20
 20
-1.0000000000000000E+20
 30
-1.0000000000000000E+20
  9
$PLIMMIN
 10
0.0
 20
0.0
  9
$PLIMMAX
 10
12.0
 20
9.0
  9
$UNITMODE
 70
     0
  9
$VISRETAIN
 70
     1
  9
$PLINEGEN
 70
     0
  9
$PSLTSCALE
 70
     1
  0
ENDSEC
  0
SECTION
  2
TABLES
  0
TABLE
  2
VPORT
 70
     1
  0
VPORT
  2
*ACTIVE
 70
     0
 10
0.0
 20
0.0
 11
1.0
 21
1.0
 12
207.9882008736483954
 22
27.6847660786546896
 13
0.0
 23
0.0
 14
1.0
 24
1.0
 15
0.0
 25
0.0
 16
-0.0000000000000284
 26
0.0
 36
157.2215818301446859
 17
210.9789276123046875
 27
7.2024491855605604
 37
0.0
 40
24.2432409104915507
 41
2.2118055555555549
 42
50.0
 43
0.0
 44
0.0
 50
0.0
 51
0.0
 71
     0
 72
   100
 73
     1
 74
     1
 75
     0
 76
     0
 77
     0
 78
     0
  0
ENDTAB
  0
TABLE
  2
LTYPE
 70
     2
  0
LTYPE
  2
CONTINUOUS
 70
     0
  3
Solid line
 72
    65
 73
     0
 40
0.0
  0
LTYPE
  2
PHANTOM2
 70
     0
  3
___ _ _ ___ _ _ ___ _ _ ___ _ _
 72
    65
 73
     6
 40
1.25
 49
0.625
 49
-0.125
 49
0.125
 49
-0.125
 49
0.125
 49
-0.125
  0
ENDTAB
  0
TABLE
  2
LAYER
 70
     2
  0
LAYER
  2
0
 70
     0
 62
     7
  6
CONTINUOUS
  0
LAYER
  2
DEFPOINTS
 70
     0
 62
     7
  6
CONTINUOUS
  0
ENDTAB
  0
TABLE
  2
STYLE
 70
     1
  0
STYLE
  2
STANDARD
 70
     0
 40
0.0
 41
0.8
 50
0.0
 71
     0
 42
0.2
  3
txt
  4

  0
ENDTAB
  0
TABLE
  2
VIEW
 70
     0
  0
ENDTAB
  0
TABLE
  2
UCS
 70
     0
  0
ENDTAB
  0
TABLE
  2
APPID
 70
    10
  0
APPID
  2
ACAD
 70
     0
  0
APPID
  2
ACAD_MLEADERVER
 70
     0
  0
APPID
  2
ACAD_EXEMPT_FROM_CAD_STANDARDS
 70
     0
  0
APPID
  2
ACAD_NAV_VCDISPLAY
 70
     0
  0
APPID
  2
ACADANNOMONITORALERTICONDI
 70
     0
  0
APPID
  2
ACAD_DSTYLE_DIMJAG
 70
     0
  0
APPID
  2
ACAD_DSTYLE_DIMTALN
 70
     0
  0
APPID
  2
ACDBATTR
 70
     0
  0
APPID
  2
DCO15
 70
     0
  0
APPID
  2
ACAD_PSEXT
 70
     0
  0
ENDTAB
  0
TABLE
  2
DIMSTYLE
 70
     1
  0
DIMSTYLE
  2
STANDARD
 70
     0
  3

  4

  5

  6

  7

 40
1.0
 41
0.1875
 42
0.0625
 43
0.38
 44
0.125
 45
0.0
 46
0.0
 47
1.5
 48
1.5
140
1.5
141
0.09
142
0.0
143
25.3999999999999986
144
1.0
145
0.0
146
1.0
147
0.09
 71
     0
 72
     0
 73
     1
 74
     1
 75
     0
 76
     0
 77
     0
 78
     4
170
     0
171
     2
172
     0
173
     0
174
     0
175
     0
176
     0
177
     0
178
     0
  0
ENDTAB
  0
ENDSEC
  0
SECTION
  2
BLOCKS
  0
BLOCK
  8
0
  2
$MODEL_SPACE
 70
     0
 10
0.0
 20
0.0
 30
0.0
  3
$MODEL_SPACE
  1

  0
ENDBLK
  5
21
  8
0
  0
BLOCK
 67
     1
  8
0
  2
$PAPER_SPACE
 70
     0
 10
0.0
 20
0.0
 30
0.0
  3
$PAPER_SPACE
  1

  0
ENDBLK
  5
1D
 67
     1
  8
0
  0
ENDSEC
  0
SECTION
  2
ENTITIES
  0
ATTDEF
  5
4EF9
  8
DEFPOINTS
 10
418.9683569266520067
 20
46.9180144515096416
 30
0.0
 40
0.001
  1
K-26055H
  3

  2
MODELNUMBER
 70
     0
1001
ACDBATTR
1070
     0
1070
     1
  0
ATTDEF
  5
4EFA
  8
DEFPOINTS
 10
418.9683569266520067
 20
46.9163477848429693
 30
0.0
 40
0.001
  1

  3

  2
TRADENAME
 70
     0
1001
ACDBATTR
1070
     0
1070
     1
  0
ATTDEF
  5
4EFB
  8
DEFPOINTS
 10
418.9683569266520067
 20
46.9146811181762899
 30
0.0
 40
0.001
  1
TOILET
  3

  2
PRODUCT
 70
     0
1001
ACDBATTR
1070
     0
1070
     1
  0
ARC
  5
142B9
  8
0
 10
411.4190312636168869
 20
46.5974912342993619
 30
0.0
 40
0.3171795655299738
 50
90.184097546427509
 51
117.496636551561906
  0
ARC
  5
142BA
  8
0
 10
411.41785827858331
 20
46.6007632731996893
 30
0.0
 40
0.3137359321153797
 50
117.5825077369728007
 51
170.075816026723686
  0
ARC
  5
142BB
  8
0
 10
411.623792596527494
 20
46.5727099383343628
 30
0.0
 40
0.5214828458049489
 50
170.9392320805677059
 51
176.9445553713426875
  0
ARC
  5
142BC
  8
0
 10
429.2491344805575864
 20
44.0965774575116001
 30
0.0
 40
18.1461301294755906
 50
180.1300273805912866
 51
183.7228356409482046
  0
ARC
  5
142BD
  8
0
 10
413.0858692993035106
 20
43.0329957434486019
 30
0.0
 40
1.9479500489401551
 50
183.3741062125857013
 51
264.1098408111989215
  0
LINE
  5
142BE
  8
0
 10
411.744675786116602
 20
41.6202999682190082
 30
0.0
 11
411.7481146420906839
 21
38.6766530417174224
 31
0.0
  0
ARC
  5
142BF
  8
0
 10
805.8609365351055658
 20
34.9997719385327386
 30
0.0
 40
394.1132352839728128
 50
180.0829865375490897
 51
180.7129176740396872
  0
LINE
  5
142C0
  8
0
 10
411.7888454656118142
 20
38.6306153506154715
 30
0.0
 11
411.7888454656118142
 21
38.6226364861022518
 31
0.0
  0
LINE
  5
142C1
  8
0
 10
411.7942043303312971
 20
38.7033729876095478
 30
0.0
 11
411.7942043303312971
 21
38.6748348608934904
 31
0.0
  0
LINE
  5
142C2
  8
0
 10
411.98479287307498
 20
38.8256239639174296
 30
0.0
 11
414.6341850767478263
 21
38.8256239639174296
 31
0.0
  0
ARC
  5
142C3
  8
0
 10
411.9852126316433782
 20
38.6292525173871013
 30
0.0
 40
0.1963718951623989
 50
90.1224738024840946
 51
179.602360515771494
  0
LINE
  5
142C4
  8
0
 10
411.9914607499118802
 20
38.9005818827174323
 30
0.0
 11
412.1371242853107901
 21
38.9005818827174323
 31
0.0
  0
ARC
  5
142C5
  8
0
 10
411.9915288663345905
 20
38.7032573245727107
 30
0.0
 40
0.1973245699016133
 50
90.019778498026966
 51
179.9664157168099052
  0
ARC
  5
142C6
  8
0
 10
414.6020671633608004
 20
38.8382859313356832
 30
0.0
 40
0.0791170432638141
 50
5.2327560170815461
 51
89.2847046138238483
  0
ARC
  5
142C7
  8
0
 10
414.4758127184830983
 20
38.8257377708674412
 30
0.0
 40
0.205992065999601
 50
2.223443989106205
 51
5.5056785246362159
  0
LINE
  5
142C8
  8
0
 10
414.7058657858132165
 20
38.9177172462674434
 30
0.0
 11
414.7011216980118888
 21
38.8422285166174319
 31
0.0
  0
ARC
  5
142C9
  8
0
 10
414.6871101764637046
 20
38.8534249436377976
 30
0.0
 40
0.0179355154404663
 50
287.9737267708142099
 51
321.3720971918430109
  0
ARC
  5
142CA
  8
0
 10
414.5822735680396818
 20
39.2726296199422222
 30
0.0
 40
0.4500098457306318
 50
276.6241811699297841
 51
284.1974293035045207
  0
LINE
  5
142CB
  8
0
 10
414.7058657858132165
 20
38.9177172462674434
 30
0.0
 11
415.2275194128924909
 21
38.9177172462674434
 31
0.0
  0
ARC
  5
142CC
  8
0
 10
414.1982893687351748
 20
-3.5257042367046689
 30
0.0
 40
42.4450310577523098
 50
89.4536061108242393
 51
90.2485996156317611
  0
ARC
  5
142CD
  8
0
 10
407.3493732190536889
 20
624.7885540485524416
 30
0.0
 40
585.9075340775768836
 50
270.4681984211849226
 51
270.6517588827920804
  0
LINE
  5
142CE
  8
0
 10
415.2275194128924909
 20
38.9177172462674434
 30
0.0
 11
415.2323296153118122
 21
38.840228499017428
 31
0.0
  0
ARC
  5
142CF
  8
0
 10
415.2382928006505267
 20
38.841868555707542
 30
0.0
 40
0.0061846071282503
 50
195.3778655738956047
 51
239.2184750633302031
  0
ARC
  5
142D0
  8
0
 10
415.3047781832261194
 20
39.0393428422338218
 30
0.0
 40
0.2144155109391829
 50
251.0441977213206997
 51
265.9737071394080203
  0
LINE
  5
142D1
  8
0
 10
415.3504901670117988
 20
38.8219817612174367
 30
0.0
 11
422.5862055285920178
 21
38.8219817612174367
 31
0.0
  0
ARC
  5
142D2
  8
0
 10
414.9606268124805979
 20
32.5370967082775095
 30
0.0
 40
6.2969654250181444
 50
86.4503822572593634
 51
87.0042036406091484
  0
ARC
  5
142D3
  8
0
 10
416.2997329778912103
 20
37.8444550427052633
 30
0.0
 40
1.0881016787769451
 50
90.7223287341522848
 51
99.8520504388483232
  0
LINE
  5
142D4
  8
0
 10
415.271884294216818
 20
38.9165103389174405
 30
0.0
 11
422.6648114013869986
 21
38.9165103389174405
 31
0.0
  0
ARC
  5
142D5
  8
0
 10
415.271884294216818
 20
38.8771402614123929
 30
0.0
 40
0.0393700775050405
 50
89.9999982609488285
 51
180.0000007203275061
  0
LINE
  5
142D6
  8
0
 10
415.2325142166118894
 20
38.8771402609174217
 30
0.0
 11
415.2325142166118894
 21
38.8396646201735081
 31
0.0
  0
LINE
  5
142D7
  8
0
 10
411.7888454656118142
 20
38.6226364861022518
 30
0.0
 11
411.803812126949083
 21
29.9235169541999291
 31
0.0
  0
ARC
  5
142D9
  8
0
 10
418.97267169701189
 20
-1134.5795414319120482
 30
0.0
 40
1173.5150871162300064
 50
89.8693517820037044
 51
90.1311735911649237
  0
ARC
  5
142DA
  8
0
 10
418.9683478478019083
 20
30.0199293393238484
 30
0.0
 40
7.1651843970256772
 50
180.7709765946021889
 51
359.229023405398209
  0
ARC
  5
142DB
  8
0
 10
418.97267169701189
 20
30.1267046505198799
 30
0.0
 40
7.1945274242640851
 50
180.2441935813668863
 51
194.0280061053645113
  0
ARC
  5
142DC
  8
0
 10
418.9683478478019083
 20
99.9802671305506578
 30
0.0
 40
59.1982362535487283
 50
264.1026820203026091
 51
275.8973179796973909
  0
CIRCLE
  5
142DD
  8
0
 10
418.97267169701189
 20
44.1624860112174176
 30
0.0
 40
0.9448818898000004
  0
CIRCLE
  5
142DE
  8
0
 10
418.97267169701189
 20
44.1624860112174176
 30
0.0
 40
0.6822648631999968
  0
ARC
  5
142DF
  8
0
 10
418.97267169701189
 20
44.1624860112174176
 30
0.0
 40
0.6692913385999973
 50
269.7014644439287849
 51
90.2985340690373732
  0
ARC
  5
142E0
  8
0
 10
422.6833016183118161
 20
44.1624860112174176
 30
0.0
 40
3.8162633976999998
 50
170.2012010616780913
 51
189.930806539199807
  0
ARC
  5
142E1
  8
0
 10
422.6833016183118161
 20
44.1624860112174176
 30
0.0
 40
3.8282233706999991
 50
170.3333571122001899
 51
189.6666428880647004
  0
ARC
  5
142E2
  8
0
 10
418.9653382173319756
 20
44.8248660702003576
 30
0.0
 40
0.0079014988922865
 50
60.8714501076894621
 51
90.5832397172938926
  0
ARC
  5
142E3
  8
0
 10
418.972671697012288
 20
44.162486011201473
 30
0.0
 40
0.6703221495159563
 50
90.6337169144248236
 51
92.7348443357747527
  0
ARC
  5
142E4
  8
0
 10
418.941590531785323
 20
44.8131508110879366
 30
0.0
 40
0.0189154250778503
 50
92.7348443357616929
 51
183.5746275479037877
  0
ARC
  5
142E5
  8
0
 10
418.9653442233249052
 20
43.5000822753142629
 30
0.0
 40
0.0078778868116217
 50
269.3712912374027724
 51
299.1741056285276272
  0
LINE
  5
142E6
  8
0
 10
418.9652577807087823
 20
43.4922048627764326
 30
0.0
 11
418.9406880027942748
 21
43.4929273301337602
 31
0.0
  0
ARC
  5
142E7
  8
0
 10
418.9415905319559101
 20
43.5118212115621787
 30
0.0
 40
0.0189154253010257
 50
203.3042331825334941
 51
267.2651551719330882
  0
ARC
  5
142E8
  8
0
 10
418.97267169701189
 20
44.1624860112174176
 30
0.0
 40
0.6692913385999999
 50
97.4942612180879564
 51
262.5041814510116183
  0
ARC
  5
142E9
  8
0
 10
418.8879672983268279
 20
44.8042010701306594
 30
0.0
 40
0.0214946949805036
 50
2.9412028513130641
 51
54.3486332196647624
  0
ARC
  5
142EA
  8
0
 10
418.8879263519602887
 20
44.8066215299511086
 30
0.0
 40
0.0196050009520894
 50
50.1245852055858592
 51
97.4683872515486058
  0
ARC
  5
142EB
  8
0
 10
418.887967298311878
 20
43.5207709523174131
 30
0.0
 40
0.0214946949999717
 50
306.3048905884992905
 51
357.0587970695002014
  0
ARC
  5
142EC
  8
0
 10
418.8879183817836065
 20
43.5184561142745991
 30
0.0
 40
0.0197086826055526
 50
262.5416117965065155
 51
310.4074384380073752
  0
ARC
  5
142ED
  8
0
 10
418.8456572771117976
 20
44.5592774035174202
 30
0.0
 40
0.0357824095000002
 50
320.8625746388461835
 51
27.3312379796186988
  0
ARC
  5
142EE
  8
0
 10
418.5888134293119265
 20
44.1624860112174176
 30
0.0
 40
0.2791457053000003
 50
343.1228359609133918
 51
355.5059677665109916
  0
ARC
  5
142EF
  8
0
 10
418.5888134293119265
 20
44.1624860112174176
 30
0.0
 40
0.2791457053000003
 50
4.4940322334889613
 51
16.8771640390865088
  0
ARC
  5
142F0
  8
0
 10
418.8456561894118977
 20
43.7657020899174185
 30
0.0
 40
0.0357789404999998
 50
332.6779444074027765
 51
39.1280189281021009
  0
ARC
  5
142F1
  8
0
 10
418.8046940609117996
 20
44.7893870839174184
 30
0.0
 40
0.0333271255000007
 50
109.020361809477393
 51
158.6860800395500064
  0
ARC
  5
142F2
  8
0
 10
418.8046940609117996
 20
44.7893870839174184
 30
0.0
 40
0.0333271255000007
 50
51.3139199495042035
 51
100.9796381795786004
  0
ARC
  5
142F3
  8
0
 10
418.513748260511818
 20
44.6214094477174186
 30
0.0
 40
0.0333271254999983
 50
81.3139200298712552
 51
130.9796390631391034
  0
ARC
  5
142F4
  8
0
 10
418.513748260511818
 20
44.6214094477174186
 30
0.0
 40
0.0333271254999983
 50
139.0203609368545017
 51
188.6860799701368876
  0
ARC
  5
142F5
  8
0
 10
418.3457706243117968
 20
44.3304636474174174
 30
0.0
 40
0.0333271254999996
 50
111.3139198950162978
 51
160.9796375147294043
  0
ARC
  5
142F6
  8
0
 10
418.3457706243117968
 20
44.3304636474174174
 30
0.0
 40
0.0333271254999996
 50
169.0203624791622019
 51
218.6860800988777953
  0
ARC
  5
142F7
  8
0
 10
418.5888134293119265
 20
44.1624860112174176
 30
0.0
 40
0.2969642898999998
 50
158.7033731452958136
 51
201.2966268547041011
  0
ARC
  5
142F8
  8
0
 10
418.3457706243117968
 20
43.9945083750174177
 30
0.0
 40
0.0333271255000002
 50
199.0203624852827886
 51
248.6860801049838869
  0
ARC
  5
142F9
  8
0
 10
418.3457706243117968
 20
43.9945083750174177
 30
0.0
 40
0.0333271255000002
 50
141.3139199011222047
 51
190.9796375208246957
  0
ARC
  5
142FA
  8
0
 10
418.513748260511818
 20
43.7035625747174095
 30
0.0
 40
0.0333271255000004
 50
229.0203609371721996
 51
278.6860799701551059
  0
ARC
  5
142FB
  8
0
 10
418.513748260511818
 20
43.7035625747174095
 30
0.0
 40
0.0333271255000004
 50
171.3139200298388118
 51
220.9796390628335132
  0
ARC
  5
142FC
  8
0
 10
418.8046940609117996
 20
43.5355849385174167
 30
0.0
 40
0.0333271254999981
 50
201.3139199604389091
 51
250.9796381904124871
  0
ARC
  5
142FD
  8
0
 10
418.8046940609117996
 20
43.5355849385174167
 30
0.0
 40
0.0333271254999981
 50
259.0203618205308089
 51
308.6860800505003226
  0
ARC
  5
142FE
  8
0
 10
419.0291170501118927
 20
43.51731267331742
 30
0.0
 40
0.0343579363999978
 50
222.8970343023943883
 51
327.1029657019353181
  0
ARC
  5
142FF
  8
0
 10
419.3802433676117971
 20
43.6591769141174311
 30
0.0
 40
0.0343579364000014
 50
256.8970341731712779
 51
1.102965827737912
  0
ARC
  5
14300
  8
0
 10
419.5920108008118063
 20
43.973135045017429
 30
0.0
 40
0.0343579363999998
 50
290.8970341821333818
 51
35.1029658278159431
  0
ARC
  5
14301
  8
0
 10
419.356529964811898
 20
44.1624860112174176
 30
0.0
 40
0.2969642899000004
 50
338.7033730538793179
 51
21.2966269461207389
  0
ARC
  5
14302
  8
0
 10
419.5920108008118063
 20
44.3518369774174204
 30
0.0
 40
0.0343579364000006
 50
324.8970341721831119
 51
69.1029658178770347
  0
ARC
  5
14303
  8
0
 10
419.3802433676117971
 20
44.6657951083174325
 30
0.0
 40
0.0343579363999976
 50
358.8970341722621242
 51
103.1029658268220004
  0
ARC
  5
14304
  8
0
 10
419.0291170501118927
 20
44.8076593491174222
 30
0.0
 40
0.0343579363999972
 50
32.897034298066778
 51
137.1029656976056117
  0
LINE
  5
14305
  8
0
 10
418.9230291509437052
 20
44.8167933990597831
 30
0.0
 11
418.9063656681225893
 21
44.8153151108522678
 31
0.0
  0
LINE
  5
14306
  8
0
 10
418.923554770014789
 20
43.5081390410667481
 30
0.0
 11
418.9063657183933174
 21
43.5096569948020928
 31
0.0
  0
LINE
  5
14307
  8
0
 10
426.518683562541014
 20
46.9146691625394894
 30
0.0
 11
411.4180121330638826
 21
46.9146691625394894
 31
0.0
  0
LINE
  5
14308
  8
0
 10
411.7481146420906839
 20
38.6766530417174224
 30
0.0
 11
411.7481146420906839
 21
34.4289431333039317
 31
0.0
  0
LINE
  5
14309
  8
0
 10
411.1030510791904931
 20
46.6005061717173987
 30
0.0
 11
411.1030510791904931
 21
44.0553965579166587
 31
0.0
  0
ARC
  5
1430A
  8
0
 10
426.5176644319869865
 20
46.5974912342993619
 30
0.0
 40
0.3171795655299738
 50
62.5033634484381224
 51
89.815902453572491
  0
ARC
  5
1430B
  8
0
 10
426.5188374170206203
 20
46.6007632731996893
 30
0.0
 40
0.3137359321153797
 50
9.9241839732762926
 51
62.4174922630271709
  0
ARC
  5
1430C
  8
0
 10
426.3129030990763226
 20
46.5727099383343628
 30
0.0
 40
0.5214828458049489
 50
3.0554446286572992
 51
9.0607679194323172
  0
ARC
  5
1430D
  8
0
 10
408.6875612150461734
 20
44.0965774575116001
 30
0.0
 40
18.1461301294755906
 50
356.2771643590518238
 51
359.8699726194085997
  0
ARC
  5
1430E
  8
0
 10
424.850826396300306
 20
43.0329957434486019
 30
0.0
 40
1.9479500489401551
 50
275.8901591888010785
 51
356.6258937874143271
  0
LINE
  5
1430F
  8
0
 10
426.1920199094872146
 20
41.6202999682190082
 30
0.0
 11
426.1885810535130759
 21
38.6766530417174224
 31
0.0
  0
ARC
  5
14310
  8
0
 10
32.0757591604983077
 20
34.9997719385327386
 30
0.0
 40
394.1132352839728128
 50
359.2870823259602275
 51
359.917013462450825
  0
LINE
  5
14311
  8
0
 10
426.1478502299921161
 20
38.6306153506154715
 30
0.0
 11
426.1478502299921161
 21
38.6226364861022518
 31
0.0
  0
LINE
  5
14312
  8
0
 10
426.1424913652725195
 20
38.7033729876095478
 30
0.0
 11
426.1424913652725195
 21
38.6748348608934904
 31
0.0
  0
LINE
  5
14313
  8
0
 10
425.9519028225288935
 20
38.8256239639174296
 30
0.0
 11
423.3025106188559903
 21
38.8256239639174296
 31
0.0
  0
ARC
  5
14314
  8
0
 10
425.9514830639604952
 20
38.6292525173871013
 30
0.0
 40
0.1963718951623989
 50
0.39763948422846
 51
89.8775261975159054
  0
LINE
  5
14315
  8
0
 10
425.9452349456918796
 20
38.9005818827174323
 30
0.0
 11
425.7995714102930833
 21
38.9005818827174323
 31
0.0
  0
ARC
  5
14316
  8
0
 10
425.9451668292692261
 20
38.7032573245727107
 30
0.0
 40
0.1973245699016133
 50
0.0335842831900999
 51
89.980221501973034
  0
ARC
  5
14317
  8
0
 10
423.3346285322430163
 20
38.8382859313356832
 30
0.0
 40
0.0791170432638141
 50
90.7152953861728832
 51
174.7672439829188136
  0
ARC
  5
14318
  8
0
 10
423.4608829771207184
 20
38.8257377708674412
 30
0.0
 40
0.205992065999601
 50
174.4943214753637903
 51
177.7765560108938132
  0
LINE
  5
14319
  8
0
 10
423.2308299097906001
 20
38.9177172462674434
 30
0.0
 11
423.2355739975919846
 21
38.8422285166174319
 31
0.0
  0
ARC
  5
1431A
  8
0
 10
423.249585519140112
 20
38.8534249436377976
 30
0.0
 40
0.0179355154404663
 50
218.6279028081569891
 51
252.0262732291857901
  0
ARC
  5
1431B
  8
0
 10
423.354422127564078
 20
39.2726296199422222
 30
0.0
 40
0.4500098457306318
 50
255.8025706964955077
 51
263.3758188300701022
  0
LINE
  5
1431C
  8
0
 10
423.2308299097906001
 20
38.9177172462674434
 30
0.0
 11
422.7091762827113257
 21
38.9177172462674434
 31
0.0
  0
ARC
  5
1431D
  8
0
 10
423.7384063268686987
 20
-3.5257042367046689
 30
0.0
 40
42.4450310577523098
 50
89.7514003843682389
 51
90.5463938891725064
  0
ARC
  5
1431E
  8
0
 10
430.5873224765501845
 20
624.7885540485524416
 30
0.0
 40
585.9075340775768836
 50
269.3482411172079196
 51
269.5318015788150774
  0
LINE
  5
1431F
  8
0
 10
422.7091762827113257
 20
38.9177172462674434
 30
0.0
 11
422.7043660802920044
 21
38.840228499017428
 31
0.0
  0
ARC
  5
14320
  8
0
 10
422.6984028949532899
 20
38.841868555707542
 30
0.0
 40
0.0061846071282503
 50
300.7815249366697117
 51
344.6221344261044237
  0
ARC
  5
14321
  8
0
 10
422.6319175123776972
 20
39.0393428422338218
 30
0.0
 40
0.2144155109391829
 50
274.0262928605919797
 51
288.9558022786791867
  0
ARC
  5
14322
  8
0
 10
422.9760688831232187
 20
32.5370967082775095
 30
0.0
 40
6.2969654250181444
 50
92.9957963593908374
 51
93.5496177427406366
  0
ARC
  5
14323
  8
0
 10
421.6369627177126063
 20
37.8444550427052633
 30
0.0
 40
1.0881016787769451
 50
80.147949561151691
 51
89.388932305804957
  0
ARC
  5
14324
  8
0
 10
422.6648114013869986
 20
38.8771402614123929
 30
0.0
 40
0.0393700775050405
 50
359.9999992796725223
 51
90.0000017390511573
  0
LINE
  5
14325
  8
0
 10
422.704181478991984
 20
38.8771402609174217
 30
0.0
 11
422.704181478991984
 21
38.8396646201735081
 31
0.0
  0
LINE
  5
14326
  8
0
 10
426.1478502299921161
 20
38.6226364861022518
 30
0.0
 11
426.1328835686546768
 21
29.9235169541999291
 31
0.0
  0
ARC
  5
14327
  8
0
 10
418.9640239985919834
 20
30.1267046505198799
 30
0.0
 40
7.1945274242640851
 50
345.9719938946307138
 51
359.7558064186330853
  0
LINE
  5
14328
  8
0
 10
426.1885810535130759
 20
38.6766530417174224
 30
0.0
 11
426.1885810535130759
 21
34.4289431333039317
 31
0.0
  0
LINE
  5
14329
  8
0
 10
426.8336446164133235
 20
46.6005061717173987
 30
0.0
 11
426.8336446164133235
 21
44.0553965579166587
 31
0.0
  0
LINE
  5
1432A
  8
0
 10
411.1030510791904931
 20
45.4615884599174294
 30
0.0
 11
410.9532226277117957
 21
45.4615884599174294
 31
0.0
  0
LINE
  5
1432B
  8
0
 10
411.103079753755992
 20
44.0442656253174221
 30
0.0
 11
410.9532226277007112
 21
44.0442656253174221
 31
0.0
  0
ARC
  5
1432C
  8
0
 10
417.3114903350120244
 20
44.7529270425674071
 30
0.0
 40
6.3976377861000717
 50
173.6403397508680939
 51
186.3596602491319061
  0
LINE
  5
1432D
  8
0
 10
410.9532226277117957
 20
45.4615884599174294
 30
0.0
 11
410.9532226277117957
 21
44.0442656253174221
 31
0.0
  0
LINE
  5
1432E
  8
0
 10
426.8336446164133235
 20
45.4615884599174294
 30
0.0
 11
426.9834730678920209
 21
45.4615884599174294
 31
0.0
  0
LINE
  5
1432F
  8
0
 10
426.8336159418478246
 20
44.0442656253174221
 30
0.0
 11
426.9834730679032191
 21
44.0442656253174221
 31
0.0
  0
ARC
  5
14330
  8
0
 10
420.6252053605919059
 20
44.7529270425674071
 30
0.0
 40
6.3976377861000717
 50
353.6403397508681223
 51
6.3596602491318741
  0
LINE
  5
14331
  8
0
 10
426.9834730678920209
 20
45.4615884599174294
 30
0.0
 11
426.9834730678920209
 21
44.0442656253174221
 31
0.0
  0
ENDSEC
  0
EOF
