  0
SECTION
  2
HEADER
  9
$ACADVER
  1
AC1009
  9
$INSBASE
 10
4565.5628092808319707
 20
311.9964508053793111
 30
0.0
  9
$EXTMIN
 10
4562.3058997022690164
 20
308.0843237659620968
 30
-0.0000000000112498
  9
$EXTMAX
 10
4568.9181336588590057
 20
312.0125735071263762
 30
0.0000000000002956
  9
$LIMMIN
 10
0.0
 20
0.0
  9
$LIMMAX
 10
11.6929133858000007
 20
8.2677165353999982
  9
$ORTHOMODE
 70
     0
  9
$REGENMODE
 70
     1
  9
$FILLMODE
 70
     1
  9
$QTEXTMODE
 70
     0
  9
$MIRRTEXT
 70
     0
  9
$DRAGMODE
 70
     2
  9
$LTSCALE
 40
0.6431102362
  9
$OSMODE
 70
  4095
  9
$ATTMODE
 70
     1
  9
$TEXTSIZE
 40
0.2
  9
$TRACEWID
 40
0.05
  9
$TEXTSTYLE
  7
STANDARD
  9
$CLAYER
  8
0
  9
$CELTYPE
  6
BYLAYER
  9
$CECOLOR
 62
   256
  9
$DIMSCALE
 40
1.0
  9
$DIMASZ
 40
0.1875
  9
$DIMEXO
 40
0.0625
  9
$DIMDLI
 40
0.4443307087
  9
$DIMRND
 40
0.0
  9
$DIMDLE
 40
0.0
  9
$DIMEXE
 40
0.125
  9
$DIMTP
 40
0.01
  9
$DIMTM
 40
0.01
  9
$DIMTXT
 40
2.0
  9
$DIMCEN
 40
0.1052362205
  9
$DIMTSZ
 40
0.0
  9
$DIMTOL
 70
     1
  9
$DIMLIM
 70
     0
  9
$DIMTIH
 70
     1
  9
$DIMTOH
 70
     1
  9
$DIMSE1
 70
     0
  9
$DIMSE2
 70
     0
  9
$DIMTAD
 70
     0
  9
$DIMZIN
 70
     0
  9
$DIMBLK
  1

  9
$DIMASO
 70
     1
  9
$DIMSHO
 70
     1
  9
$DIMPOST
  1
\X
  9
$DIMAPOST
  1

  9
$DIMALT
 70
     1
  9
$DIMALTD
 70
     2
  9
$DIMALTF
 40
25.3999999999999986
  9
$DIMLFAC
 40
1.0
  9
$DIMTOFL
 70
     0
  9
$DIMTVP
 40
0.0
  9
$DIMTIX
 70
     0
  9
$DIMSOXD
 70
     0
  9
$DIMSAH
 70
     0
  9
$DIMBLK1
  1

  9
$DIMBLK2
  1

  9
$DIMSTYLE
  2
STANDARD
  9
$DIMCLRD
 70
     0
  9
$DIMCLRE
 70
     0
  9
$DIMCLRT
 70
     0
  9
$DIMTFAC
 40
1.0
  9
$DIMGAP
 40
0.09
  9
$LUNITS
 70
     2
  9
$LUPREC
 70
     4
  9
$SKETCHINC
 40
0.1
  9
$FILLETRAD
 40
0.0
  9
$AUNITS
 70
     0
  9
$AUPREC
 70
     0
  9
$MENU
  1
.
  9
$ELEVATION
 40
0.0
  9
$PELEVATION
 40
0.0
  9
$THICKNESS
 40
0.0
  9
$LIMCHECK
 70
     0
  9
$BLIPMODE
 70
     0
  9
$CHAMFERA
 40
0.0
  9
$CHAMFERB
 40
0.0
  9
$SKPOLY
 70
     0
  9
$TDCREATE
 40
2458060.468368056230247
  9
$TDUPDATE
 40
2459409.4910069438628852
  9
$TDINDWG
 40
0.5690232639
  9
$TDUSRTIMER
 40
0.5690232639
  9
$USRTIMER
 70
     1
  9
$ANGBASE
 50
0.0
  9
$ANGDIR
 70
     0
  9
$PDMODE
 70
     0
  9
$PDSIZE
 40
0.3125
  9
$PLINEWID
 40
0.0
  9
$COORDS
 70
     1
  9
$SPLFRAME
 70
     0
  9
$SPLINETYPE
 70
     6
  9
$SPLINESEGS
 70
     8
  9
$ATTDIA
 70
     1
  9
$ATTREQ
 70
     1
  9
$HANDLING
 70
     1
  9
$HANDSEED
  5
212D3
  9
$SURFTAB1
 70
     6
  9
$SURFTAB2
 70
     6
  9
$SURFTYPE
 70
     6
  9
$SURFU
 70
     6
  9
$SURFV
 70
     6
  9
$UCSNAME
  2

  9
$UCSORG
 10
0.0
 20
0.0
 30
0.0
  9
$UCSXDIR
 10
1.0
 20
0.0
 30
0.0
  9
$UCSYDIR
 10
0.0
 20
1.0
 30
0.0
  9
$PUCSNAME
  2

  9
$PUCSORG
 10
0.0
 20
0.0
 30
0.0
  9
$PUCSXDIR
 10
1.0
 20
0.0
 30
0.0
  9
$PUCSYDIR
 10
0.0
 20
1.0
 30
0.0
  9
$USERI1
 70
     0
  9
$USERI2
 70
     0
  9
$USERI3
 70
     0
  9
$USERI4
 70
     0
  9
$USERI5
 70
     0
  9
$USERR1
 40
0.0
  9
$USERR2
 40
0.0
  9
$USERR3
 40
0.0
  9
$USERR4
 40
0.0
  9
$USERR5
 40
0.0
  9
$WORLDVIEW
 70
     1
  9
$SHADEDGE
 70
     3
  9
$SHADEDIF
 70
    70
  9
$TILEMODE
 70
     1
  9
$MAXACTVP
 70
    64
  9
$PLIMCHECK
 70
     0
  9
$PEXTMIN
 10
1.0000000000000000E+20
 20
1.0000000000000000E+20
 30
1.0000000000000000E+20
  9
$PEXTMAX
 10
-1.0000000000000000E+20
 20
-1.0000000000000000E+20
 30
-1.0000000000000000E+20
  9
$PLIMMIN
 10
0.0
 20
0.0
  9
$PLIMMAX
 10
12.0
 20
9.0
  9
$UNITMODE
 70
     0
  9
$VISRETAIN
 70
     1
  9
$PLINEGEN
 70
     0
  9
$PSLTSCALE
 70
     1
  0
ENDSEC
  0
SECTION
  2
TABLES
  0
TABLE
  2
VPORT
 70
     1
  0
VPORT
  2
*ACTIVE
 70
     0
 10
0.0
 20
0.0
 11
1.0
 21
1.0
 12
654.246660235251511
 22
177.4688435340052024
 13
0.0
 23
0.0
 14
1.0
 24
1.0
 15
0.0
 25
0.0
 16
0.0
 26
0.0
 36
60.4960186965801583
 17
3911.3653564453120453
 27
132.5796051025390057
 37
0.0
 40
3.961859450608646
 41
2.0410052910052912
 42
50.0
 43
0.0
 44
0.0
 50
0.0
 51
0.0
 71
     0
 72
   100
 73
     1
 74
     1
 75
     0
 76
     0
 77
     0
 78
     0
  0
ENDTAB
  0
TABLE
  2
LTYPE
 70
     2
  0
LTYPE
  2
CONTINUOUS
 70
     0
  3
Solid line
 72
    65
 73
     0
 40
0.0
  0
LTYPE
  2
PHANTOM2
 70
     0
  3
___ _ _ ___ _ _ ___ _ _ ___ _ _
 72
    65
 73
     6
 40
1.25
 49
0.625
 49
-0.125
 49
0.125
 49
-0.125
 49
0.125
 49
-0.125
  0
ENDTAB
  0
TABLE
  2
LAYER
 70
     2
  0
LAYER
  2
0
 70
     0
 62
   255
  6
CONTINUOUS
  0
LAYER
  2
DEFPOINTS
 70
     0
 62
     7
  6
CONTINUOUS
  0
ENDTAB
  0
TABLE
  2
STYLE
 70
     1
  0
STYLE
  2
STANDARD
 70
     0
 40
0.0
 41
0.8
 50
0.0
 71
     0
 42
0.2
  3
txt
  4

  0
ENDTAB
  0
TABLE
  2
VIEW
 70
     0
  0
ENDTAB
  0
TABLE
  2
UCS
 70
     0
  0
ENDTAB
  0
TABLE
  2
APPID
 70
    11
  0
APPID
  2
ACAD
 70
     0
  0
APPID
  2
ACAD_MLEADERVER
 70
     0
  0
APPID
  2
ACAD_EXEMPT_FROM_CAD_STANDARDS
 70
     0
  0
APPID
  2
ACAD_NAV_VCDISPLAY
 70
     0
  0
APPID
  2
ACAECLAYERSTANDARD
 70
     0
  0
APPID
  2
ACCMTRANSPARENCY
 70
     0
  0
APPID
  2
ACAD_DSTYLE_DIMJAG
 70
     0
  0
APPID
  2
ACAD_DSTYLE_DIMTALN
 70
     0
  0
APPID
  2
ACDBATTR
 70
     0
  0
APPID
  2
ACADANNOTATIVE
 70
     0
  0
APPID
  2
DCO15
 70
     0
  0
ENDTAB
  0
TABLE
  2
DIMSTYLE
 70
     1
  0
DIMSTYLE
  2
STANDARD
 70
     0
  3

  4

  5

  6

  7

 40
1.0
 41
0.1875
 42
0.0625
 43
0.38
 44
0.125
 45
0.0
 46
0.0
 47
0.01
 48
0.01
140
0.15625
141
0.09
142
0.0
143
25.3999999999999986
144
1.0
145
0.0
146
1.0
147
0.09
 71
     1
 72
     0
 73
     1
 74
     1
 75
     0
 76
     0
 77
     0
 78
     4
170
     0
171
     2
172
     0
173
     0
174
     0
175
     0
176
     0
177
     0
178
     0
  0
ENDTAB
  0
ENDSEC
  0
SECTION
  2
BLOCKS
  0
BLOCK
  8
0
  2
$MODEL_SPACE
 70
     0
 10
0.0
 20
0.0
 30
0.0
  3
$MODEL_SPACE
  1

  0
ENDBLK
  5
21
  8
0
  0
BLOCK
 67
     1
  8
0
  2
$PAPER_SPACE
 70
     0
 10
0.0
 20
0.0
 30
0.0
  3
$PAPER_SPACE
  1

  0
ENDBLK
  5
1D
 67
     1
  8
0
  0
ENDSEC
  0
SECTION
  2
ENTITIES
  0
ATTDEF
  5
20106
  8
DEFPOINTS
 10
4565.558490124740274
 20
312.0011585099019271
 30
0.0
 40
0.001
  1
K-25553A
  3

  2
MODELNUMBER
 70
     0
1001
ACDBATTR
1070
     0
1070
     1
  0
ATTDEF
  5
20107
  8
DEFPOINTS
 10
4565.558364315083054
 20
311.9994916695226834
 30
0.0
 40
0.001
  1
PURIST
  3

  2
TRADENAME
 70
     0
1001
ACDBATTR
1070
     0
1070
     1
  0
ATTDEF
  5
20108
  8
DEFPOINTS
 10
4565.558490124740274
 20
311.9978251765684831
 30
0.0
 40
0.001
  1
VALVE TRIM
  3

  2
PRODUCT
 70
     0
1001
ACDBATTR
1070
     0
1070
     1
  0
LINE
  5
21216
  8
0
 10
4568.7124155800320295
 20
311.8778267896292959
 30
0.0
 11
4568.7124155800320295
 21
311.9966220652293032
 31
0.0
  0
LINE
  5
21217
  8
0
 10
4562.4132029816328213
 20
311.8774842699293117
 30
0.0
 11
4562.4132029816328213
 21
311.996279545529319
 31
0.0
  0
LINE
  5
21218
  8
0
 10
4564.598242351731642
 20
310.5302627721162025
 30
0.0
 11
4564.598242351731642
 21
309.6001141911293075
 31
0.0
  0
LINE
  5
21219
  8
0
 10
4562.4132029816328213
 20
311.996279545529319
 30
0.0
 11
4568.7124155800320295
 21
311.9966220652293032
 31
0.0
  0
LINE
  5
2121A
  8
0
 10
4562.4322029816312352
 20
311.8584842699293063
 30
0.0
 11
4568.6934155800327062
 21
311.8588267896292905
 31
0.0
  0
ARC
  5
2121B
  8
0
 10
4562.4322029816312352
 20
311.8774842699293117
 30
0.0
 40
0.019
 50
180.0
 51
270.0
  0
ARC
  5
2121C
  8
0
 10
4568.6934155800327062
 20
311.8778267896292959
 30
0.0
 40
0.019
 50
270.0
 51
0.0
  0
LINE
  5
2121D
  8
0
 10
4564.6282423517332063
 20
309.570114191129278
 30
0.0
 11
4566.497376210031689
 21
309.570114191129278
 31
0.0
  0
LINE
  5
2121E
  8
0
 10
4565.2928092808324436
 20
309.1701141911293007
 30
0.0
 11
4565.2928092808324436
 21
308.5501141911292962
 31
0.0
  0
LINE
  5
2121F
  8
0
 10
4565.303197879855361
 20
308.5501141911292962
 30
0.0
 11
4565.2928092808324436
 21
308.5501141911292962
 31
0.0
  0
ARC
  5
21220
  8
0
 10
4564.8928092808828296
 20
309.1701141911293007
 30
0.0
 40
0.3999999999999992
 50
0.0
 51
90.0
  0
ARC
  5
21221
  8
0
 10
4564.6282423517332063
 20
309.6001141911293075
 30
0.0
 40
0.03
 50
180.0000000000098055
 51
270.0
  0
LINE
  5
21222
  8
0
 10
4564.6179273911320706
 20
310.6970275770293028
 30
0.0
 11
4566.5076911705318707
 21
310.6970275770293028
 31
0.0
  0
ARC
  5
21223
  8
0
 10
4564.6289211582552525
 20
310.7277006156480752
 30
0.0
 40
0.030680548829352
 50
179.3893896120160036
 51
268.7322284965150061
  0
ARC
  5
21224
  8
0
 10
4565.6037514247882427
 20
313.1470596833091236
 30
0.0
 40
3.0066139449563378
 50
257.6777133770054888
 51
269.2197586396544011
  0
ARC
  5
21225
  8
0
 10
4565.1406705164326922
 20
310.9353535812049927
 30
0.0
 40
0.7472902042587714
 50
234.1989172412826008
 51
256.1756733885918038
  0
ARC
  5
21226
  8
0
 10
4564.8534135339778004
 20
310.5370125986084986
 30
0.0
 40
0.2561770725472077
 50
185.0790796103640048
 51
234.1903845678029086
  0
ARC
  5
21227
  8
0
 10
4564.6430679013228655
 20
310.5302886432274931
 30
0.0
 40
0.0448255570560531
 50
90.0366171949366958
 51
180.0330683133931871
  0
ARC
  5
21228
  8
0
 10
4564.6430343222928059
 20
310.5326619953136742
 30
0.0
 40
0.0424521961020342
 50
1.221159925893291
 51
89.993344260366456
  0
ARC
  5
21229
  8
0
 10
4564.6375934627512834
 20
310.6722445404017776
 30
0.0
 40
0.0196567473593563
 50
179.9365831542422995
 51
255.0628945295630103
  0
ARC
  5
2122A
  8
0
 10
4564.6770413000976987
 20
310.559783496824025
 30
0.0
 40
0.0787600607592229
 50
1.0958263604780929
 51
74.9931075330354417
  0
ARC
  5
2122B
  8
0
 10
4565.5510568817098829
 20
312.5889450778175274
 30
0.0
 40
2.399666125817026
 50
259.3453966707918994
 51
270.2806080214172084
  0
ARC
  5
2122C
  8
0
 10
4565.2339963447429909
 20
311.0271403258518035
 30
0.0
 40
0.8064901759852569
 50
235.139073617219708
 51
260.9679108316045131
  0
ARC
  5
2122D
  8
0
 10
4564.9040581457720691
 20
310.5425228302835876
 30
0.0
 40
0.2203423377907059
 50
186.0465776357534935
 51
233.5077644896942104
  0
ARC
  5
2122E
  8
0
 10
4564.767614190292079
 20
310.5233455310569184
 30
0.0
 40
0.0827708343568008
 50
172.9065618962185908
 51
182.7927543473838909
  0
ARC
  5
2122F
  8
0
 10
4565.6292035172909891
 20
310.5819237607050241
 30
0.0
 40
0.8740246751586234
 50
183.9712685027951125
 51
194.8751807522980926
  0
LINE
  5
21230
  8
0
 10
4564.6974350553709883
 20
310.6358574208496748
 30
0.0
 11
4564.6325267675319992
 21
310.6532520072292982
 31
0.0
  0
LINE
  5
21231
  8
0
 10
4564.6179273911320706
 20
310.6970275770293028
 30
0.0
 11
4564.6179369647652493
 21
310.6721455268198042
 31
0.0
  0
LINE
  5
21232
  8
0
 10
4564.5982423516816198
 20
310.7280275770293088
 30
0.0
 11
4564.5982423516816198
 21
311.8584842699293063
 31
0.0
  0
LINE
  5
21233
  8
0
 10
4566.5273762100323438
 20
310.5302627721162025
 30
0.0
 11
4566.5273762100323438
 21
309.6001141911293075
 31
0.0
  0
LINE
  5
21234
  8
0
 10
4565.8328092808324072
 20
309.1701141911293007
 30
0.0
 11
4565.8328092808324072
 21
308.5501141911292962
 31
0.0
  0
LINE
  5
21235
  8
0
 10
4565.8224206818103994
 20
308.5501141911292962
 30
0.0
 11
4565.8328092808324072
 21
308.5501141911292962
 31
0.0
  0
ARC
  5
21236
  8
0
 10
4566.2328092808820657
 20
309.1701141911293007
 30
0.0
 40
0.3999999999999992
 50
90.0
 51
180.0
  0
ARC
  5
21237
  8
0
 10
4566.497376210031689
 20
309.6001141911293075
 30
0.0
 40
0.03
 50
270.0
 51
359.9999999999902229
  0
ARC
  5
21238
  8
0
 10
4566.4966974034086888
 20
310.7277006156480752
 30
0.0
 40
0.0306805488293515
 50
271.2677715034849939
 51
0.6106103879839861
  0
ARC
  5
21239
  8
0
 10
4565.5557178302924513
 20
312.8523009608990719
 30
0.0
 40
2.711585720612335
 50
270.1498424517964168
 51
282.9526855315504008
  0
ARC
  5
2123A
  8
0
 10
4565.9849480453312935
 20
310.9353535812049927
 30
0.0
 40
0.7472902042587714
 50
283.8243266114081962
 51
305.8010827587174845
  0
ARC
  5
2123B
  8
0
 10
4566.2722050277861854
 20
310.5370125986084986
 30
0.0
 40
0.2561770725472077
 50
305.8096154321971198
 51
354.9209203896327267
  0
ARC
  5
2123C
  8
0
 10
4566.4818679997051731
 20
310.5296068122660813
 30
0.0
 40
0.0455129376170636
 50
0.8258098509307339
 51
89.1045046407455033
  0
ARC
  5
2123D
  8
0
 10
4566.4828595973003758
 20
310.5323807379506889
 30
0.0
 40
0.0427343723791571
 50
90.3757983672419556
 51
178.4096974464706875
  0
ARC
  5
2123E
  8
0
 10
4566.488025098912658
 20
310.6722445404017776
 30
0.0
 40
0.0196567473593563
 50
284.9371054704370181
 51
0.0634168457576603
  0
ARC
  5
2123F
  8
0
 10
4566.4485655443731957
 20
310.5598011520438035
 30
0.0
 40
0.078739973971005
 50
105.0019836739995043
 51
179.2820648426217929
  0
ARC
  5
21240
  8
0
 10
4565.5745616800550124
 20
312.5889450778175274
 30
0.0
 40
2.399666125817026
 50
269.7193919785827916
 51
280.6546033292081006
  0
ARC
  5
21241
  8
0
 10
4565.8916222170219044
 20
311.0271403258518035
 30
0.0
 40
0.8064901759852569
 50
279.0320891683954869
 51
304.860926382780292
  0
ARC
  5
21242
  8
0
 10
4566.2215604159919167
 20
310.5425228302835876
 30
0.0
 40
0.2203423377907059
 50
306.492235510305818
 51
353.9534223642464781
  0
ARC
  5
21243
  8
0
 10
4566.3580043714728163
 20
310.5233455310569184
 30
0.0
 40
0.0827708343568008
 50
357.2072456526159954
 51
7.0934381037814198
  0
ARC
  5
21244
  8
0
 10
4565.5500098841048384
 20
310.5732353684011855
 30
0.0
 40
0.8199716698127129
 50
344.7468712753722002
 51
356.381056676517403
  0
LINE
  5
21245
  8
0
 10
4566.4281835062929531
 20
310.6358574208496748
 30
0.0
 11
4566.4930917941319422
 21
310.6532520072292982
 31
0.0
  0
LINE
  5
21246
  8
0
 10
4566.5076911705318707
 20
310.6970275770293028
 30
0.0
 11
4566.5076815968986921
 21
310.6721455268198042
 31
0.0
  0
LINE
  5
21247
  8
0
 10
4566.5273762099823216
 20
310.7280275770293088
 30
0.0
 11
4566.5273762099823216
 21
311.8584842699293063
 31
0.0
  0
LINE
  5
21249
  8
0
 10
4564.7572774585296429
 20
310.5213921091374232
 30
0.0
 11
4566.3683464597816055
 21
310.5214783572371857
 31
0.0
  0
LINE
  5
2124A
  8
0
 10
4564.6430392537058651
 20
310.5751141911292734
 30
0.0
 11
4564.7542896779241346
 21
310.5751141911292734
 31
0.0
  0
LINE
  5
2124B
  8
0
 10
4566.3713289317138333
 20
310.5751141911292734
 30
0.0
 11
4566.4825793080335643
 21
310.5751141911292734
 31
0.0
  0
CIRCLE
  5
2124C
  8
0
 10
4565.5628092808319707
 20
308.4001141911293189
 30
0.0
 40
0.2998300844097752
  0
ARC
  5
2124D
  8
0
 10
4565.5625657256341583
 20
310.5714528543742858
 30
0.0
 40
0.8068427798204805
 50
180.7217245567472901
 51
183.5572145839360871
  0
LINE
  5
2124E
  8
0
 10
4566.3698317517728356
 20
310.5607877642656263
 30
0.0
 11
4566.3683464597816055
 21
310.5214783572371857
 31
0.0
  0
ENDSEC
  0
EOF
