  0
SECTION
  2
HEADER
  9
$ACADVER
  1
AC1009
  9
$INSBASE
 10
4559.4494457931214129
 20
310.2816076686087854
 30
0.0
  9
$EXTMIN
 10
4556.2593759678184142
 20
307.1265437398915878
 30
-0.0000000349181948
  9
$EXTMAX
 10
4562.8603289834600218
 20
313.437068051362985
 30
0.0000000814935746
  9
$LIMMIN
 10
0.0
 20
0.0
  9
$LIMMAX
 10
11.6929133858000007
 20
8.2677165353999982
  9
$ORTHOMODE
 70
     0
  9
$REGENMODE
 70
     1
  9
$FILLMODE
 70
     1
  9
$QTEXTMODE
 70
     0
  9
$MIRRTEXT
 70
     0
  9
$DRAGMODE
 70
     2
  9
$LTSCALE
 40
0.6431102362
  9
$OSMODE
 70
  4095
  9
$ATTMODE
 70
     1
  9
$TEXTSIZE
 40
0.2
  9
$TRACEWID
 40
0.05
  9
$TEXTSTYLE
  7
STANDARD
  9
$CLAYER
  8
0
  9
$CELTYPE
  6
BYLAYER
  9
$CECOLOR
 62
   256
  9
$DIMSCALE
 40
1.0
  9
$DIMASZ
 40
0.1875
  9
$DIMEXO
 40
0.0625
  9
$DIMDLI
 40
0.4443307087
  9
$DIMRND
 40
0.0
  9
$DIMDLE
 40
0.0
  9
$DIMEXE
 40
0.125
  9
$DIMTP
 40
0.01
  9
$DIMTM
 40
0.01
  9
$DIMTXT
 40
2.0
  9
$DIMCEN
 40
0.1052362205
  9
$DIMTSZ
 40
0.0
  9
$DIMTOL
 70
     1
  9
$DIMLIM
 70
     0
  9
$DIMTIH
 70
     1
  9
$DIMTOH
 70
     1
  9
$DIMSE1
 70
     0
  9
$DIMSE2
 70
     0
  9
$DIMTAD
 70
     0
  9
$DIMZIN
 70
     0
  9
$DIMBLK
  1

  9
$DIMASO
 70
     1
  9
$DIMSHO
 70
     1
  9
$DIMPOST
  1
\X
  9
$DIMAPOST
  1

  9
$DIMALT
 70
     1
  9
$DIMALTD
 70
     2
  9
$DIMALTF
 40
25.3999999999999986
  9
$DIMLFAC
 40
1.0
  9
$DIMTOFL
 70
     0
  9
$DIMTVP
 40
0.0
  9
$DIMTIX
 70
     0
  9
$DIMSOXD
 70
     0
  9
$DIMSAH
 70
     0
  9
$DIMBLK1
  1

  9
$DIMBLK2
  1

  9
$DIMSTYLE
  2
STANDARD
  9
$DIMCLRD
 70
     0
  9
$DIMCLRE
 70
     0
  9
$DIMCLRT
 70
     0
  9
$DIMTFAC
 40
1.0
  9
$DIMGAP
 40
0.09
  9
$LUNITS
 70
     2
  9
$LUPREC
 70
     4
  9
$SKETCHINC
 40
0.1
  9
$FILLETRAD
 40
0.0
  9
$AUNITS
 70
     0
  9
$AUPREC
 70
     0
  9
$MENU
  1
.
  9
$ELEVATION
 40
0.0
  9
$PELEVATION
 40
0.0
  9
$THICKNESS
 40
0.0
  9
$LIMCHECK
 70
     0
  9
$BLIPMODE
 70
     0
  9
$CHAMFERA
 40
0.0
  9
$CHAMFERB
 40
0.0
  9
$SKPOLY
 70
     0
  9
$TDCREATE
 40
2458060.468368056230247
  9
$TDUPDATE
 40
2459409.4911226858384907
  9
$TDINDWG
 40
0.5680626157000001
  9
$TDUSRTIMER
 40
0.5680626157000001
  9
$USRTIMER
 70
     1
  9
$ANGBASE
 50
0.0
  9
$ANGDIR
 70
     0
  9
$PDMODE
 70
     0
  9
$PDSIZE
 40
0.3125
  9
$PLINEWID
 40
0.0
  9
$COORDS
 70
     1
  9
$SPLFRAME
 70
     0
  9
$SPLINETYPE
 70
     6
  9
$SPLINESEGS
 70
     8
  9
$ATTDIA
 70
     1
  9
$ATTREQ
 70
     1
  9
$HANDLING
 70
     1
  9
$HANDSEED
  5
211D5
  9
$SURFTAB1
 70
     6
  9
$SURFTAB2
 70
     6
  9
$SURFTYPE
 70
     6
  9
$SURFU
 70
     6
  9
$SURFV
 70
     6
  9
$UCSNAME
  2

  9
$UCSORG
 10
0.0
 20
0.0
 30
0.0
  9
$UCSXDIR
 10
1.0
 20
0.0
 30
0.0
  9
$UCSYDIR
 10
0.0
 20
1.0
 30
0.0
  9
$PUCSNAME
  2

  9
$PUCSORG
 10
0.0
 20
0.0
 30
0.0
  9
$PUCSXDIR
 10
1.0
 20
0.0
 30
0.0
  9
$PUCSYDIR
 10
0.0
 20
1.0
 30
0.0
  9
$USERI1
 70
     0
  9
$USERI2
 70
     0
  9
$USERI3
 70
     0
  9
$USERI4
 70
     0
  9
$USERI5
 70
     0
  9
$USERR1
 40
0.0
  9
$USERR2
 40
0.0
  9
$USERR3
 40
0.0
  9
$USERR4
 40
0.0
  9
$USERR5
 40
0.0
  9
$WORLDVIEW
 70
     1
  9
$SHADEDGE
 70
     3
  9
$SHADEDIF
 70
    70
  9
$TILEMODE
 70
     1
  9
$MAXACTVP
 70
    64
  9
$PLIMCHECK
 70
     0
  9
$PEXTMIN
 10
1.0000000000000000E+20
 20
1.0000000000000000E+20
 30
1.0000000000000000E+20
  9
$PEXTMAX
 10
-1.0000000000000000E+20
 20
-1.0000000000000000E+20
 30
-1.0000000000000000E+20
  9
$PLIMMIN
 10
0.0
 20
0.0
  9
$PLIMMAX
 10
12.0
 20
9.0
  9
$UNITMODE
 70
     0
  9
$VISRETAIN
 70
     1
  9
$PLINEGEN
 70
     0
  9
$PSLTSCALE
 70
     1
  0
ENDSEC
  0
SECTION
  2
TABLES
  0
TABLE
  2
VPORT
 70
     1
  0
VPORT
  2
*ACTIVE
 70
     0
 10
0.0
 20
0.0
 11
1.0
 21
1.0
 12
648.1944960303270591
 22
177.7022007930881955
 13
0.0
 23
0.0
 14
1.0
 24
1.0
 15
0.0
 25
0.0
 16
0.0
 26
0.0
 36
60.4960186965801583
 17
3911.3653564453120453
 27
132.5796051025390057
 37
0.0
 40
6.361089912636035
 41
2.0410052910052912
 42
50.0
 43
0.0
 44
0.0
 50
0.0
 51
0.0
 71
     0
 72
   100
 73
     1
 74
     1
 75
     0
 76
     0
 77
     0
 78
     0
  0
ENDTAB
  0
TABLE
  2
LTYPE
 70
     2
  0
LTYPE
  2
CONTINUOUS
 70
     0
  3
Solid line
 72
    65
 73
     0
 40
0.0
  0
LTYPE
  2
PHANTOM2
 70
     0
  3
___ _ _ ___ _ _ ___ _ _ ___ _ _
 72
    65
 73
     6
 40
1.25
 49
0.625
 49
-0.125
 49
0.125
 49
-0.125
 49
0.125
 49
-0.125
  0
ENDTAB
  0
TABLE
  2
LAYER
 70
     2
  0
LAYER
  2
0
 70
     0
 62
   255
  6
CONTINUOUS
  0
LAYER
  2
DEFPOINTS
 70
     0
 62
     7
  6
CONTINUOUS
  0
ENDTAB
  0
TABLE
  2
STYLE
 70
     1
  0
STYLE
  2
STANDARD
 70
     0
 40
0.0
 41
0.8
 50
0.0
 71
     0
 42
0.2
  3
txt
  4

  0
ENDTAB
  0
TABLE
  2
VIEW
 70
     0
  0
ENDTAB
  0
TABLE
  2
UCS
 70
     0
  0
ENDTAB
  0
TABLE
  2
APPID
 70
    11
  0
APPID
  2
ACAD
 70
     0
  0
APPID
  2
ACAD_MLEADERVER
 70
     0
  0
APPID
  2
ACAD_EXEMPT_FROM_CAD_STANDARDS
 70
     0
  0
APPID
  2
ACAD_NAV_VCDISPLAY
 70
     0
  0
APPID
  2
ACAECLAYERSTANDARD
 70
     0
  0
APPID
  2
ACCMTRANSPARENCY
 70
     0
  0
APPID
  2
ACAD_DSTYLE_DIMJAG
 70
     0
  0
APPID
  2
ACAD_DSTYLE_DIMTALN
 70
     0
  0
APPID
  2
ACDBATTR
 70
     0
  0
APPID
  2
ACADANNOTATIVE
 70
     0
  0
APPID
  2
DCO15
 70
     0
  0
ENDTAB
  0
TABLE
  2
DIMSTYLE
 70
     1
  0
DIMSTYLE
  2
STANDARD
 70
     0
  3

  4

  5

  6

  7

 40
1.0
 41
0.1875
 42
0.0625
 43
0.38
 44
0.125
 45
0.0
 46
0.0
 47
0.01
 48
0.01
140
0.15625
141
0.09
142
0.0
143
25.3999999999999986
144
1.0
145
0.0
146
1.0
147
0.09
 71
     1
 72
     0
 73
     1
 74
     1
 75
     0
 76
     0
 77
     0
 78
     4
170
     0
171
     2
172
     0
173
     0
174
     0
175
     0
176
     0
177
     0
178
     0
  0
ENDTAB
  0
ENDSEC
  0
SECTION
  2
BLOCKS
  0
BLOCK
  8
0
  2
$MODEL_SPACE
 70
     0
 10
0.0
 20
0.0
 30
0.0
  3
$MODEL_SPACE
  1

  0
ENDBLK
  5
21
  8
0
  0
BLOCK
 67
     1
  8
0
  2
$PAPER_SPACE
 70
     0
 10
0.0
 20
0.0
 30
0.0
  3
$PAPER_SPACE
  1

  0
ENDBLK
  5
1D
 67
     1
  8
0
  0
ENDSEC
  0
SECTION
  2
ENTITIES
  0
ATTDEF
  5
20106
  8
DEFPOINTS
 10
4559.4453203589637269
 20
310.286262161809077
 30
0.0
 40
0.001
  1
K-25553A
  3

  2
MODELNUMBER
 70
     0
1001
ACDBATTR
1070
     0
1070
     1
  0
ATTDEF
  5
20107
  8
DEFPOINTS
 10
4559.4451945493074163
 20
310.2845953214298902
 30
0.0
 40
0.001
  1
PURIST
  3

  2
TRADENAME
 70
     0
1001
ACDBATTR
1070
     0
1070
     1
  0
ATTDEF
  5
20108
  8
DEFPOINTS
 10
4559.4453203589637269
 20
310.2829288284758036
 30
0.0
 40
0.001
  1
VALVE TRIM
  3

  2
PRODUCT
 70
     0
1001
ACDBATTR
1070
     0
1070
     1
  0
ARC
  5
21137
  8
0
 10
4559.4494457931214129
 20
311.2855446766088221
 30
0.0
 40
0.9645669291500009
 50
108.1207357788397019
 51
251.8792642211602129
  0
ARC
  5
21138
  8
0
 10
4559.4494457931214129
 20
311.2855446766088221
 30
0.0
 40
0.9645669291500009
 50
288.1207357788396735
 51
71.8792642211602413
  0
LINE
  5
21139
  8
0
 10
4559.1494457930202771
 20
308.6575446768088113
 30
0.0
 11
4559.1494457930202771
 21
312.6275446764087746
 31
0.0
  0
LINE
  5
2113A
  8
0
 10
4559.7494457932207297
 20
312.6275446764087746
 30
0.0
 11
4559.7494457932207297
 21
308.6575446769588211
 31
0.0
  0
CIRCLE
  5
2113C
  8
0
 10
4559.4494457931214129
 20
310.2816076686087854
 30
0.0
 40
3.1496062991999998
  0
LINE
  5
2113D
  8
0
 10
4559.1594457930214048
 20
312.6375446762588126
 30
0.0
 11
4559.7394457932223304
 21
312.6375446762588126
 31
0.0
  0
LINE
  5
2113E
  8
0
 10
4559.1594457930214048
 20
308.6475446768088204
 30
0.0
 11
4559.7394457932223304
 21
308.6475446768088204
 31
0.0
  0
ARC
  5
2113F
  8
0
 10
4559.1594457930214048
 20
308.6575446768088113
 30
0.0
 40
0.01
 50
180.0
 51
270.0
  0
ARC
  5
21140
  8
0
 10
4559.7394457932223304
 20
308.6575446768088113
 30
0.0
 40
0.01
 50
270.0
 51
359.9999999999968168
  0
ARC
  5
21141
  8
0
 10
4559.1594457930214048
 20
312.6275446762588217
 30
0.0
 40
0.01
 50
90.0
 51
180.0000000000065086
  0
ARC
  5
21142
  8
0
 10
4559.7394457932223304
 20
312.6275446762588217
 30
0.0
 40
0.01
 50
359.9999999999935199
 51
90.0
  0
ARC
  5
21143
  8
0
 10
4559.4494457931214129
 20
308.7264895583087991
 30
0.0
 40
0.4822836379
 50
128.4653029749241
 51
51.5346970250758503
  0
ARC
  5
21144
  8
0
 10
4559.4429891845593374
 20
308.2508266492375242
 30
0.0
 40
0.83985772889414
 50
110.4576908995084068
 51
115.3076658471146061
  0
ARC
  5
21145
  8
0
 10
4559.1461109543215571
 20
308.9096240080090752
 30
0.0
 40
0.1181102361995917
 50
121.6863934827244975
 51
148.8790681890083931
  0
ARC
  5
21146
  8
0
 10
4559.449445792489314
 20
308.7264895583892894
 30
0.0
 40
0.4724409442728721
 50
148.8790681576633972
 51
183.2689216654804056
  0
ARC
  5
21147
  8
0
 10
4559.4494457931214129
 20
308.7264895583089128
 30
0.0
 40
0.4625984560998509
 50
130.4294010190702977
 51
142.1951366861210033
  0
ARC
  5
21148
  8
0
 10
4559.4494457921518915
 20
308.726489558104106
 30
0.0
 40
0.4724409439200511
 50
183.2689216332929902
 51
211.1209318501892085
  0
ARC
  5
21149
  8
0
 10
4559.1461109541787664
 20
308.5433551086206876
 30
0.0
 40
0.118110236084062
 50
211.1209318501892085
 51
250.0133227048501965
  0
ARC
  5
2114A
  8
0
 10
4558.8096837642051469
 20
307.6183892197680052
 30
0.0
 40
0.8661382842137401
 50
49.9872571633460581
 51
70.0126582577988046
  0
ARC
  5
2114B
  8
0
 10
4559.4425141270394306
 20
308.3722266575811091
 30
0.0
 40
0.1181102366249997
 50
229.9872974818287901
 51
268.8790680948160912
  0
ARC
  5
2114C
  8
0
 10
4559.4494457931214129
 20
308.7264895583074917
 30
0.0
 40
0.472440944898718
 50
268.8790681967111027
 51
331.120931814165715
  0
ARC
  5
2114D
  8
0
 10
4559.7597122981724169
 20
308.5553611069609019
 30
0.0
 40
0.1181102363565177
 50
331.1209318225198217
 51
10.0133212461127208
  0
ARC
  5
2114E
  8
0
 10
4560.7289733515499393
 20
308.7264895583376187
 30
0.0
 40
0.8661417316296768
 50
169.9872974414527107
 51
190.0126181899071867
  0
ARC
  5
2114F
  8
0
 10
4559.7597122983215741
 20
308.8976180097088218
 30
0.0
 40
0.1181102361999973
 50
349.9872974472792748
 51
28.8790681844319614
  0
ARC
  5
21150
  8
0
 10
4559.4494457931286888
 20
308.7264895583164162
 30
0.0
 40
0.4724409448893656
 50
28.879068184057509
 51
50.5800155191686827
  0
ENDSEC
  0
EOF
