  0
SECTION
  2
HEADER
  9
$ACADVER
  1
AC1009
  9
$INSBASE
 10
4552.4888175318847061
 20
313.5471512046934208
 30
0.0
  9
$EXTMIN
 10
4548.6320537522842642
 20
310.9091512050433721
 30
0.0
  9
$EXTMAX
 10
4552.5002909356580858
 20
315.515655141743423
 30
0.0
  9
$LIMMIN
 10
0.0
 20
0.0
  9
$LIMMAX
 10
11.6929133858000007
 20
8.2677165353999982
  9
$ORTHOMODE
 70
     0
  9
$REGENMODE
 70
     1
  9
$FILLMODE
 70
     1
  9
$QTEXTMODE
 70
     0
  9
$MIRRTEXT
 70
     0
  9
$DRAGMODE
 70
     2
  9
$LTSCALE
 40
0.6431102362
  9
$OSMODE
 70
  4095
  9
$ATTMODE
 70
     1
  9
$TEXTSIZE
 40
0.2
  9
$TRACEWID
 40
0.05
  9
$TEXTSTYLE
  7
STANDARD
  9
$CLAYER
  8
0
  9
$CELTYPE
  6
BYLAYER
  9
$CECOLOR
 62
   256
  9
$DIMSCALE
 40
1.0
  9
$DIMASZ
 40
0.1875
  9
$DIMEXO
 40
0.0625
  9
$DIMDLI
 40
0.4443307087
  9
$DIMRND
 40
0.0
  9
$DIMDLE
 40
0.0
  9
$DIMEXE
 40
0.125
  9
$DIMTP
 40
0.01
  9
$DIMTM
 40
0.01
  9
$DIMTXT
 40
2.0
  9
$DIMCEN
 40
0.1052362205
  9
$DIMTSZ
 40
0.0
  9
$DIMTOL
 70
     1
  9
$DIMLIM
 70
     0
  9
$DIMTIH
 70
     1
  9
$DIMTOH
 70
     1
  9
$DIMSE1
 70
     0
  9
$DIMSE2
 70
     0
  9
$DIMTAD
 70
     0
  9
$DIMZIN
 70
     0
  9
$DIMBLK
  1

  9
$DIMASO
 70
     1
  9
$DIMSHO
 70
     1
  9
$DIMPOST
  1
\X
  9
$DIMAPOST
  1

  9
$DIMALT
 70
     1
  9
$DIMALTD
 70
     2
  9
$DIMALTF
 40
25.3999999999999986
  9
$DIMLFAC
 40
1.0
  9
$DIMTOFL
 70
     0
  9
$DIMTVP
 40
0.0
  9
$DIMTIX
 70
     0
  9
$DIMSOXD
 70
     0
  9
$DIMSAH
 70
     0
  9
$DIMBLK1
  1

  9
$DIMBLK2
  1

  9
$DIMSTYLE
  2
STANDARD
  9
$DIMCLRD
 70
     0
  9
$DIMCLRE
 70
     0
  9
$DIMCLRT
 70
     0
  9
$DIMTFAC
 40
1.0
  9
$DIMGAP
 40
0.09
  9
$LUNITS
 70
     2
  9
$LUPREC
 70
     4
  9
$SKETCHINC
 40
0.1
  9
$FILLETRAD
 40
0.0
  9
$AUNITS
 70
     0
  9
$AUPREC
 70
     0
  9
$MENU
  1
.
  9
$ELEVATION
 40
0.0
  9
$PELEVATION
 40
0.0
  9
$THICKNESS
 40
0.0
  9
$LIMCHECK
 70
     0
  9
$BLIPMODE
 70
     0
  9
$CHAMFERA
 40
0.0
  9
$CHAMFERB
 40
0.0
  9
$SKPOLY
 70
     0
  9
$TDCREATE
 40
2458060.468368056230247
  9
$TDUPDATE
 40
2459440.9898495371453464
  9
$TDINDWG
 40
0.5566042824
  9
$TDUSRTIMER
 40
0.5566042824
  9
$USRTIMER
 70
     1
  9
$ANGBASE
 50
0.0
  9
$ANGDIR
 70
     0
  9
$PDMODE
 70
     0
  9
$PDSIZE
 40
0.3125
  9
$PLINEWID
 40
0.0
  9
$COORDS
 70
     1
  9
$SPLFRAME
 70
     0
  9
$SPLINETYPE
 70
     6
  9
$SPLINESEGS
 70
     8
  9
$ATTDIA
 70
     1
  9
$ATTREQ
 70
     1
  9
$HANDLING
 70
     1
  9
$HANDSEED
  5
2128F
  9
$SURFTAB1
 70
     6
  9
$SURFTAB2
 70
     6
  9
$SURFTYPE
 70
     6
  9
$SURFU
 70
     6
  9
$SURFV
 70
     6
  9
$UCSNAME
  2

  9
$UCSORG
 10
0.0
 20
0.0
 30
0.0
  9
$UCSXDIR
 10
1.0
 20
0.0
 30
0.0
  9
$UCSYDIR
 10
0.0
 20
1.0
 30
0.0
  9
$PUCSNAME
  2

  9
$PUCSORG
 10
0.0
 20
0.0
 30
0.0
  9
$PUCSXDIR
 10
1.0
 20
0.0
 30
0.0
  9
$PUCSYDIR
 10
0.0
 20
1.0
 30
0.0
  9
$USERI1
 70
     0
  9
$USERI2
 70
     0
  9
$USERI3
 70
     0
  9
$USERI4
 70
     0
  9
$USERI5
 70
     0
  9
$USERR1
 40
0.0
  9
$USERR2
 40
0.0
  9
$USERR3
 40
0.0
  9
$USERR4
 40
0.0
  9
$USERR5
 40
0.0
  9
$WORLDVIEW
 70
     1
  9
$SHADEDGE
 70
     3
  9
$SHADEDIF
 70
    70
  9
$TILEMODE
 70
     1
  9
$MAXACTVP
 70
    64
  9
$PLIMCHECK
 70
     0
  9
$PEXTMIN
 10
1.0000000000000000E+20
 20
1.0000000000000000E+20
 30
1.0000000000000000E+20
  9
$PEXTMAX
 10
-1.0000000000000000E+20
 20
-1.0000000000000000E+20
 30
-1.0000000000000000E+20
  9
$PLIMMIN
 10
0.0
 20
0.0
  9
$PLIMMAX
 10
12.0
 20
9.0
  9
$UNITMODE
 70
     0
  9
$VISRETAIN
 70
     1
  9
$PLINEGEN
 70
     0
  9
$PSLTSCALE
 70
     1
  0
ENDSEC
  0
SECTION
  2
TABLES
  0
TABLE
  2
VPORT
 70
     1
  0
VPORT
  2
*ACTIVE
 70
     0
 10
0.0
 20
0.0
 11
1.0
 21
1.0
 12
639.200815898658675
 22
180.6327980708543066
 13
0.0
 23
0.0
 14
1.0
 24
1.0
 15
0.0
 25
0.0
 16
0.0
 26
0.0
 36
60.4960186965801583
 17
3911.3653564453120453
 27
132.5796051025390057
 37
0.0
 40
4.6430151964360666
 41
1.67063492063492
 42
50.0
 43
0.0
 44
0.0
 50
0.0
 51
0.0
 71
     0
 72
   100
 73
     1
 74
     1
 75
     0
 76
     0
 77
     0
 78
     0
  0
ENDTAB
  0
TABLE
  2
LTYPE
 70
     2
  0
LTYPE
  2
CONTINUOUS
 70
     0
  3
Solid line
 72
    65
 73
     0
 40
0.0
  0
LTYPE
  2
PHANTOM2
 70
     0
  3
___ _ _ ___ _ _ ___ _ _ ___ _ _
 72
    65
 73
     6
 40
1.25
 49
0.625
 49
-0.125
 49
0.125
 49
-0.125
 49
0.125
 49
-0.125
  0
ENDTAB
  0
TABLE
  2
LAYER
 70
     2
  0
LAYER
  2
0
 70
     0
 62
   255
  6
CONTINUOUS
  0
LAYER
  2
DEFPOINTS
 70
     0
 62
     7
  6
CONTINUOUS
  0
ENDTAB
  0
TABLE
  2
STYLE
 70
     1
  0
STYLE
  2
STANDARD
 70
     0
 40
0.0
 41
0.8
 50
0.0
 71
     0
 42
0.2
  3
txt
  4

  0
ENDTAB
  0
TABLE
  2
VIEW
 70
     0
  0
ENDTAB
  0
TABLE
  2
UCS
 70
     0
  0
ENDTAB
  0
TABLE
  2
APPID
 70
    11
  0
APPID
  2
ACAD
 70
     0
  0
APPID
  2
ACAD_MLEADERVER
 70
     0
  0
APPID
  2
ACAD_EXEMPT_FROM_CAD_STANDARDS
 70
     0
  0
APPID
  2
ACAD_NAV_VCDISPLAY
 70
     0
  0
APPID
  2
ACAECLAYERSTANDARD
 70
     0
  0
APPID
  2
ACCMTRANSPARENCY
 70
     0
  0
APPID
  2
ACAD_DSTYLE_DIMJAG
 70
     0
  0
APPID
  2
ACAD_DSTYLE_DIMTALN
 70
     0
  0
APPID
  2
ACDBATTR
 70
     0
  0
APPID
  2
ACADANNOTATIVE
 70
     0
  0
APPID
  2
DCO15
 70
     0
  0
ENDTAB
  0
TABLE
  2
DIMSTYLE
 70
     1
  0
DIMSTYLE
  2
STANDARD
 70
     0
  3

  4

  5

  6

  7

 40
1.0
 41
0.1875
 42
0.0625
 43
0.38
 44
0.125
 45
0.0
 46
0.0
 47
0.01
 48
0.01
140
0.15625
141
0.09
142
0.0
143
25.3999999999999986
144
1.0
145
0.0
146
1.0
147
0.09
 71
     1
 72
     0
 73
     1
 74
     1
 75
     0
 76
     0
 77
     0
 78
     4
170
     0
171
     2
172
     0
173
     0
174
     0
175
     0
176
     0
177
     0
178
     0
  0
ENDTAB
  0
ENDSEC
  0
SECTION
  2
BLOCKS
  0
BLOCK
  8
0
  2
$MODEL_SPACE
 70
     0
 10
0.0
 20
0.0
 30
0.0
  3
$MODEL_SPACE
  1

  0
ENDBLK
  5
21
  8
0
  0
BLOCK
 67
     1
  8
0
  2
$PAPER_SPACE
 70
     0
 10
0.0
 20
0.0
 30
0.0
  3
$PAPER_SPACE
  1

  0
ENDBLK
  5
1D
 67
     1
  8
0
  0
BLOCK
  8
0
  2
A$C2D340DEB
 70
     2
 10
0.0
 20
0.0
 30
0.0
  3
A$C2D340DEB
  1

  0
LINE
  5
210A2
  8
0
 10
3.8567637765370071
 20
4.6065039112924353
 30
0.0
 11
3.8567637765370071
 21
0.669496037192431
 31
0.0
  0
LINE
  5
210A3
  8
0
 10
3.8567637765370071
 20
4.6065039112924353
 30
0.0
 11
3.7386535403372529
 21
4.6065039112924353
 31
0.0
  0
LINE
  5
210A4
  8
0
 10
3.7189685009368239
 20
4.5868188718924614
 30
0.0
 11
3.7189685009368239
 21
0.6884960371924365
 31
0.0
  0
ARC
  5
210A5
  8
0
 10
3.7386535403372529
 20
4.5868188718924614
 30
0.0
 40
0.0196850394000006
 50
90.0
 51
180.0
  0
LINE
  5
210A6
  8
0
 10
3.7386535403372529
 20
4.6065039112924353
 30
0.0
 11
3.8567637765370071
 21
4.6065039112924353
 31
0.0
  0
LINE
  5
210A7
  8
0
 10
0.0099999969367843
 20
-0.0000000254075587
 30
0.0
 11
0.5899999969367116
 21
-0.0000000254075587
 31
0.0
  0
LINE
  5
210A8
  8
0
 10
3.7379685009370571
 20
0.669496037192431
 30
0.0
 11
3.8567637765370071
 21
0.669496037192431
 31
0.0
  0
LINE
  5
210A9
  8
0
 10
1.4999999969374751
 20
1.6734330450924231
 30
0.0
 11
2.435037660767847
 21
1.6734330450924231
 31
0.0
  0
LINE
  5
210AA
  8
0
 10
0.0099999969367843
 20
3.989999974042433
 30
0.0
 11
0.5899999969367116
 21
3.989999974042433
 31
0.0
  0
LINE
  5
210AB
  8
0
 10
-0.0000000030625245
 20
3.9799999740424421
 30
0.0
 11
-0.0000000030625245
 21
0.0099999745924322
 31
0.0
  0
LINE
  5
210AC
  8
0
 10
0.5999999969369298
 20
3.9799999740424421
 30
0.0
 11
0.5999999969369298
 21
2.925634263426474
 31
0.0
  0
LINE
  5
210AD
  8
0
 10
0.5999999969369298
 20
2.3679999741924291
 30
0.0
 11
0.5999999969369298
 21
0.0099999745924322
 31
0.0
  0
ARC
  5
210AE
  8
0
 10
0.0099999969367843
 20
3.9799999740424421
 30
0.0
 40
0.01
 50
90.0
 51
180.0000000000096918
  0
ARC
  5
210AF
  8
0
 10
0.5899999969367116
 20
3.9799999740424421
 30
0.0
 40
0.01
 50
359.9999999999805027
 51
90.0000000000521254
  0
ARC
  5
210B0
  8
0
 10
0.0099999969367843
 20
0.0099999745924322
 30
0.0
 40
0.01
 50
180.0
 51
270.0
  0
ARC
  5
210B1
  8
0
 10
0.5899999969367116
 20
0.0099999745924322
 30
0.0
 40
0.01
 50
270.0
 51
0.0000000000097707
  0
LINE
  5
210B2
  8
0
 10
2.5570157450372051
 20
3.5828818639924691
 30
0.0
 11
2.5570157450372051
 21
1.693118084492454
 31
0.0
  0
LINE
  5
210B3
  8
0
 10
2.5885118080375089
 20
3.602566903392443
 30
0.0
 11
3.7189685009368239
 21
3.602566903392443
 31
0.0
  0
LINE
  5
210B4
  8
0
 10
2.0456859122411681
 20
3.602566903392443
 30
0.0
 11
1.4999999969374751
 21
3.602566903392443
 31
0.0
  0
ARC
  5
210B5
  8
0
 10
2.58849266421177
 20
3.5710863215496431
 30
0.0
 40
0.031480587663637
 50
89.9651575611120649
 51
179.1252901239543007
  0
ARC
  5
210B6
  8
0
 10
3.7379685009370571
 20
0.6884960371924365
 30
0.0
 40
0.019
 50
179.9999999999967031
 51
270.0
  0
LINE
  5
210B7
  8
0
 10
2.5322184774974801
 20
3.5828818639924691
 30
0.0
 11
2.5570157450372051
 21
3.5828818639924691
 31
0.0
  0
LINE
  5
210B8
  8
0
 10
2.5137362381371702
 20
3.568291679076224
 30
0.0
 11
2.5137362381371702
 21
1.707708269408641
 31
0.0
  0
ARC
  5
210B9
  8
0
 10
2.431453084652019
 20
2.6379999752030301
 30
0.0
 40
0.8070866131540904
 50
90.7223628617160642
 51
109.8596084045078953
  0
ARC
  5
210BA
  8
0
 10
2.4202852217719899
 20
3.523756344847726
 30
0.0
 40
0.078740157454866
 50
270.7223628617160784
 51
344.9999885110938749
  0
ARC
  5
210BB
  8
0
 10
0.6017911432188328
 20
4.0458080877939722
 30
0.0
 40
1.9706739878972821
 50
344.0229902838233897
 51
345.9770096019893231
  0
LINE
  5
210BC
  8
0
 10
2.4750376607678102
 20
1.7134330450924431
 30
0.0
 11
2.4750376607678102
 21
2.5916399599613831
 31
0.0
  0
ARC
  5
210BD
  8
0
 10
2.435037660767847
 20
1.7134330450924431
 30
0.0
 40
0.04
 50
270.0
 51
0.0000000000032569
  0
LINE
  5
210BE
  8
0
 10
1.46999999693682
 20
3.5725669033924699
 30
0.0
 11
1.46999999693682
 21
1.703433045092452
 31
0.0
  0
ARC
  5
210BF
  8
0
 10
1.4999999969374751
 20
3.5725669033924699
 30
0.0
 40
0.03
 50
90.0
 51
179.9999999999967031
  0
LINE
  5
210C0
  8
0
 10
2.4614182152306219
 20
2.6603241000270539
 30
0.0
 11
2.082659368788625
 21
3.5778300456292689
 31
0.0
  0
ARC
  5
210C1
  8
0
 10
2.2950376607675191
 20
2.5916399599613271
 30
0.0
 40
0.18
 50
0.0000000000032569
 51
22.4314963711317894
  0
ARC
  5
210C2
  8
0
 10
2.0456859122411681
 20
3.5625669033924221
 30
0.0
 40
0.04
 50
22.4314963711317894
 51
90.0
  0
ARC
  5
210C3
  8
0
 10
1.4999999969374751
 20
1.703433045092452
 30
0.0
 40
0.03
 50
179.9999999999967031
 51
270.0
  0
ARC
  5
210C4
  8
0
 10
2.5322193067656542
 20
3.5638794550332298
 30
0.0
 40
0.0190024089772905
 50
90.0025003982701719
 51
166.5737898595725994
  0
LINE
  5
210C5
  8
0
 10
1.0699999969371841
 20
2.9079999741924492
 30
0.0
 11
0.5820627657446665
 21
2.9079999741924492
 31
0.0
  0
ARC
  5
210C6
  8
0
 10
1.0699999969371841
 20
3.307999974192426
 30
0.0
 40
0.3999999999999992
 50
270.0
 51
0.0
  0
LINE
  5
210C7
  8
0
 10
0.444827583237128
 20
2.7311614482523221
 30
0.0
 11
0.444827583237128
 21
2.6379999742424332
 31
0.0
  0
LINE
  5
210C8
  8
0
 10
0.4747216491775533
 20
2.8024717421068028
 30
0.0
 11
0.5999999969369298
 21
2.925634263426474
 31
0.0
  0
ARC
  5
210C9
  8
0
 10
0.5448275832374918
 20
2.7311614482523221
 30
0.0
 40
0.1
 50
134.5120569537787105
 51
180.0
  0
LINE
  5
210CA
  8
0
 10
2.5885118080375089
 20
1.6734330450924231
 30
0.0
 11
3.7189685009368239
 21
1.6734330450924231
 31
0.0
  0
ARC
  5
210CB
  8
0
 10
2.5883740270698752
 20
1.704793091358197
 30
0.0
 40
0.0313603489359671
 50
180.6578238246397916
 51
270.2517284903215113
  0
LINE
  5
210CC
  8
0
 10
2.5322184774974801
 20
1.693118084492454
 30
0.0
 11
2.5570157450372051
 21
1.693118084492454
 31
0.0
  0
ARC
  5
210CD
  8
0
 10
2.5322193067656542
 20
1.712120493451635
 30
0.0
 40
0.0190024089772905
 50
193.4262101404272869
 51
269.9974996017298281
  0
LINE
  5
210CE
  8
0
 10
1.0699999969371841
 20
2.3679999742924731
 30
0.0
 11
0.5820627657446665
 21
2.3679999742924731
 31
0.0
  0
ARC
  5
210CF
  8
0
 10
1.0699999969371841
 20
1.967999974292439
 30
0.0
 40
0.3999999999999992
 50
0.0
 51
90.0
  0
LINE
  5
210D0
  8
0
 10
0.444827583237128
 20
2.5448385002325429
 30
0.0
 11
0.444827583237128
 21
2.6379999742424332
 31
0.0
  0
LINE
  5
210D1
  8
0
 10
0.4747216491775533
 20
2.473528206378119
 30
0.0
 11
0.5999999969369298
 21
2.3503656850583918
 31
0.0
  0
ARC
  5
210D2
  8
0
 10
0.5448275832374918
 20
2.5448385002325429
 30
0.0
 40
0.1
 50
180.0
 51
225.4879430462212895
  0
ARC
  5
210D3
  8
0
 10
2.4202852217374291
 20
1.7522436035924609
 30
0.0
 40
0.0787401575000006
 50
15.0000115137660295
 51
45.9444093522089432
  0
ARC
  5
210D4
  8
0
 10
3.686504660225836
 20
2.0567383597481519
 30
0.0
 40
1.22360441965945
 50
193.4263572542922986
 51
196.5736428598928001
  0
LINE
  5
210D5
  8
0
 62
     2
 10
2.4212779206955481
 20
3.4450224452563538
 30
0.0
 11
2.4212779206955481
 21
2.757560004191725
 31
0.0
  0
ATTDEF
  5
210D6
  8
DEFPOINTS
 10
3.8577366164952021
 20
2.6355711681007672
 30
0.0
 40
0.001
  1
VALVE TRIM
  3

  2
PRODUCT
 70
     0
1001
ACDBATTR
1070
     0
1070
     1
  0
ATTDEF
  5
210D7
  8
DEFPOINTS
 10
3.857610806837982
 20
2.637237661054967
 30
0.0
 40
0.001
  1
PURIST
  3

  2
TRADENAME
 70
     0
1001
ACDBATTR
1070
     0
1070
     1
  0
ATTDEF
  5
210D8
  8
DEFPOINTS
 10
3.8577366164952021
 20
2.638904501434097
 30
0.0
 40
0.001
  1
K-25552A
  3

  2
MODELNUMBER
 70
     0
1001
ACDBATTR
1070
     0
1070
     1
  0
ENDBLK
  5
210DC
  8
0
  0
BLOCK
  8
0
  2
_FILLED
 70
     0
 10
0.0
 20
0.0
 30
0.0
  3
_FILLED
  1

  0
SOLID
  5
21199
  8
0
  6
BYBLOCK
 62
     0
 10
0.0
 20
0.0
 30
0.0
 11
-1.0
 21
0.1666666667
 31
0.0
 12
-1.0
 22
-0.1666666667
 32
0.0
 13
-1.0
 23
-0.1666666667
 33
0.0
  0
ENDBLK
  5
2119A
  8
0
  6
BYBLOCK
 62
     0
  0
ENDSEC
  0
SECTION
  2
ENTITIES
  0
ATTDEF
  5
20106
  8
DEFPOINTS
 10
4552.4896242689883366
 20
313.5478019370021912
 30
0.0
 40
0.001
  1
K-25552A
  3

  2
MODELNUMBER
 70
     0
1001
ACDBATTR
1070
     0
1070
     1
  0
ATTDEF
  5
20107
  8
DEFPOINTS
 10
4552.489498459332026
 20
313.546135096623118
 30
0.0
 40
0.001
  1
PURIST
  3

  2
TRADENAME
 70
     0
1001
ACDBATTR
1070
     0
1070
     1
  0
ATTDEF
  5
20108
  8
DEFPOINTS
 10
4552.4896242689883366
 20
313.544468603668804
 30
0.0
 40
0.001
  1
VALVE TRIM
  3

  2
PRODUCT
 70
     0
1001
ACDBATTR
1070
     0
1070
     1
  0
LINE
  5
211D6
  8
0
 10
4552.4888175318847061
 20
315.515655141743423
 30
0.0
 11
4552.4888175318847061
 21
311.5786472676434187
 31
0.0
  0
LINE
  5
211D7
  8
0
 10
4552.4888175318847061
 20
315.515655141743423
 30
0.0
 11
4552.3707072956849515
 21
315.515655141743423
 31
0.0
  0
LINE
  5
211D8
  8
0
 10
4552.3510222562836134
 20
315.4959701023433922
 30
0.0
 11
4552.3510222562836134
 21
311.5976472676434241
 31
0.0
  0
ARC
  5
211D9
  8
0
 10
4552.3707072956849515
 20
315.4959701023433922
 30
0.0
 40
0.0196850394000006
 50
90.0
 51
180.0
  0
LINE
  5
211DA
  8
0
 10
4552.3707072956849515
 20
315.515655141743423
 30
0.0
 11
4552.4888175318847061
 21
315.515655141743423
 31
0.0
  0
LINE
  5
211DB
  8
0
 10
4548.642053752283573
 20
310.9091512050433721
 30
0.0
 11
4549.2220537522853192
 21
310.9091512050433721
 31
0.0
  0
LINE
  5
211DC
  8
0
 10
4552.3700222562847557
 20
311.5786472676434187
 30
0.0
 11
4552.4888175318847061
 21
311.5786472676434187
 31
0.0
  0
LINE
  5
211DD
  8
0
 10
4550.1320537522842642
 20
312.582584275543411
 30
0.0
 11
4551.0670914161146356
 21
312.582584275543411
 31
0.0
  0
LINE
  5
211DE
  8
0
 10
4548.642053752283573
 20
314.8991512044934211
 30
0.0
 11
4549.2220537522853192
 21
314.8991512044934211
 31
0.0
  0
LINE
  5
211DF
  8
0
 10
4548.6320537522842642
 20
314.8891512044933734
 30
0.0
 11
4548.6320537522842642
 21
310.9191512050434198
 31
0.0
  0
LINE
  5
211E0
  8
0
 10
4549.232053752284628
 20
314.8891512044933734
 30
0.0
 11
4549.232053752284628
 21
313.8347854938775185
 31
0.0
  0
LINE
  5
211E1
  8
0
 10
4549.232053752284628
 20
313.2771512046434168
 30
0.0
 11
4549.232053752284628
 21
310.9191512050434198
 31
0.0
  0
ARC
  5
211E2
  8
0
 10
4548.642053752283573
 20
314.8891512044933734
 30
0.0
 40
0.01
 50
90.0
 51
180.0000000000098055
  0
ARC
  5
211E3
  8
0
 10
4549.2220537522853192
 20
314.8891512044933734
 30
0.0
 40
0.01
 50
359.9999999999805027
 51
90.0000000000521254
  0
ARC
  5
211E4
  8
0
 10
4548.642053752283573
 20
310.9191512050434198
 30
0.0
 40
0.01
 50
180.0
 51
270.0
  0
ARC
  5
211E5
  8
0
 10
4549.2220537522853192
 20
310.9191512050434198
 30
0.0
 40
0.01
 50
270.0
 51
0.0000000000097707
  0
LINE
  5
211E6
  8
0
 10
4551.1890695003839937
 20
314.4920330944433999
 30
0.0
 11
4551.1890695003839937
 21
312.6022693149434986
 31
0.0
  0
LINE
  5
211E7
  8
0
 10
4551.220565563386117
 20
314.5117181338433738
 30
0.0
 11
4552.3510222562836134
 21
314.5117181338433738
 31
0.0
  0
LINE
  5
211E8
  8
0
 10
4550.6777396675879572
 20
314.5117181338433738
 30
0.0
 11
4550.1320537522842642
 21
314.5117181338433738
 31
0.0
  0
ARC
  5
211E9
  8
0
 10
4551.2205464195603781
 20
314.4802375520005739
 30
0.0
 40
0.031480587663637
 50
89.9651575611120649
 51
179.1252901239543007
  0
ARC
  5
211EA
  8
0
 10
4552.3700222562847557
 20
311.5976472676434241
 30
0.0
 40
0.019
 50
179.9999999999967031
 51
270.0
  0
LINE
  5
211EB
  8
0
 10
4551.1642722328451782
 20
314.4920330944433999
 30
0.0
 11
4551.1890695003839937
 21
314.4920330944433999
 31
0.0
  0
LINE
  5
211EC
  8
0
 10
4551.1457899934839588
 20
314.4774429095272126
 30
0.0
 11
4551.1457899934839588
 21
312.6168594998595722
 31
0.0
  0
ARC
  5
211ED
  8
0
 10
4551.0635068400006276
 20
313.5471512056540178
 30
0.0
 40
0.8070866131540904
 50
90.7223628617161211
 51
109.8596084045112065
  0
ARC
  5
211EE
  8
0
 10
4551.0523389771196889
 20
314.4329075752987137
 30
0.0
 40
0.078740157454866
 50
270.7223628617160784
 51
344.999988511097115
  0
ARC
  5
211EF
  8
0
 10
4549.2338448985683499
 20
314.9549593182450167
 30
0.0
 40
1.9706739878972821
 50
344.0229902838203202
 51
345.9770096019955758
  0
LINE
  5
211F0
  8
0
 10
4551.1070914161164183
 20
312.6225842755434883
 30
0.0
 11
4551.1070914161164183
 21
313.5007911904123148
 31
0.0
  0
ARC
  5
211F1
  8
0
 10
4551.0670914161146356
 20
312.6225842755434883
 30
0.0
 40
0.04
 50
270.0
 51
0.0000000000032569
  0
LINE
  5
211F2
  8
0
 10
4550.1020537522854283
 20
314.4817181338434011
 30
0.0
 11
4550.1020537522854283
 21
312.6125842755433837
 31
0.0
  0
ARC
  5
211F3
  8
0
 10
4550.1320537522842642
 20
314.4817181338434011
 30
0.0
 40
0.03
 50
90.0
 51
179.9999999999967031
  0
LINE
  5
211F4
  8
0
 10
4551.0934719705783209
 20
313.5694753304779852
 30
0.0
 11
4550.7147131241354145
 21
314.4869812760803143
 31
0.0
  0
ARC
  5
211F5
  8
0
 10
4550.9270914161161272
 20
313.5007911904123148
 30
0.0
 40
0.18
 50
0.0000000000032569
 51
22.4314963711318001
  0
ARC
  5
211F6
  8
0
 10
4550.6777396675879572
 20
314.4717181338434102
 30
0.0
 40
0.04
 50
22.4314963711318001
 51
90.0
  0
ARC
  5
211F7
  8
0
 10
4550.1320537522842642
 20
312.6125842755433837
 30
0.0
 40
0.03
 50
179.9999999999967031
 51
270.0
  0
ARC
  5
211F8
  8
0
 10
4551.1642730621133524
 20
314.4730306854842183
 30
0.0
 40
0.0190024089772905
 50
90.0025003982701719
 51
166.573789859578909
  0
LINE
  5
211F9
  8
0
 10
4549.7020537522848826
 20
313.8171512046433804
 30
0.0
 11
4549.2141165210923646
 21
313.8171512046433804
 31
0.0
  0
ARC
  5
211FA
  8
0
 10
4549.7020537522848826
 20
314.2171512046434145
 30
0.0
 40
0.3999999999999992
 50
270.0
 51
0.0
  0
LINE
  5
211FB
  8
0
 10
4549.0768813385839167
 20
313.6403126787033102
 30
0.0
 11
4549.0768813385839167
 21
313.5471512046934208
 31
0.0
  0
LINE
  5
211FC
  8
0
 10
4549.1067754045252514
 20
313.7116229725577909
 30
0.0
 11
4549.232053752284628
 21
313.8347854938775185
 31
0.0
  0
ARC
  5
211FD
  8
0
 10
4549.17688133858519
 20
313.6403126787033102
 30
0.0
 40
0.1
 50
134.512056953780899
 51
180.0
  0
LINE
  5
211FE
  8
0
 10
4551.220565563386117
 20
312.582584275543411
 30
0.0
 11
4552.3510222562836134
 21
312.582584275543411
 31
0.0
  0
ARC
  5
211FF
  8
0
 10
4551.2204277824193923
 20
312.6139443218091856
 30
0.0
 40
0.0313603489359671
 50
180.6578238246399053
 51
270.2517284903215113
  0
LINE
  5
21200
  8
0
 10
4551.1642722328451782
 20
312.6022693149434986
 30
0.0
 11
4551.1890695003839937
 21
312.6022693149434986
 31
0.0
  0
ARC
  5
21201
  8
0
 10
4551.1642730621133524
 20
312.6212717239026233
 30
0.0
 40
0.0190024089772905
 50
193.426210140421091
 51
269.9974996017298281
  0
LINE
  5
21202
  8
0
 10
4549.7020537522848826
 20
313.2771512047434044
 30
0.0
 11
4549.2141165210923646
 21
313.2771512047434044
 31
0.0
  0
ARC
  5
21203
  8
0
 10
4549.7020537522848826
 20
312.8771512047434271
 30
0.0
 40
0.3999999999999992
 50
0.0
 51
90.0
  0
LINE
  5
21204
  8
0
 10
4549.0768813385839167
 20
313.4539897306834746
 30
0.0
 11
4549.0768813385839167
 21
313.5471512046934208
 31
0.0
  0
LINE
  5
21205
  8
0
 10
4549.1067754045252514
 20
313.3826794368291075
 30
0.0
 11
4549.232053752284628
 21
313.2595169155093799
 31
0.0
  0
ARC
  5
21206
  8
0
 10
4549.17688133858519
 20
313.4539897306834746
 30
0.0
 40
0.1
 50
180.0
 51
225.487943046219101
  0
ARC
  5
21207
  8
0
 10
4551.0523389770851281
 20
312.6613948340433922
 30
0.0
 40
0.0787401575000006
 50
15.0000115137692003
 51
45.9444093521998624
  0
ARC
  5
21208
  8
0
 10
4552.3185584155726247
 20
312.9658895901990832
 30
0.0
 40
1.22360441965945
 50
193.426357254289087
 51
196.5736428598864904
  0
LINE
  5
2120A
  8
0
 10
4551.0533316760429443
 20
314.3541736757072727
 30
0.0
 11
4551.0533316760429443
 21
313.666711234643401
 31
0.0
  0
ENDSEC
  0
EOF
