  0
SECTION
  2
HEADER
  9
$ACADVER
  1
AC1009
  9
$INSBASE
 10
4411.301803955881951
 20
225.4588741522258033
 30
0.0
  9
$EXTMIN
 10
4389.4925038088131259
 20
225.4588741522258033
 30
0.0
  9
$EXTMAX
 10
4411.3124733730710432
 20
242.9297041912109023
 30
0.0
  9
$LIMMIN
 10
0.0
 20
0.0
  9
$LIMMAX
 10
11.6929133858000007
 20
8.2677165353999982
  9
$ORTHOMODE
 70
     0
  9
$REGENMODE
 70
     1
  9
$FILLMODE
 70
     1
  9
$QTEXTMODE
 70
     0
  9
$MIRRTEXT
 70
     0
  9
$DRAGMODE
 70
     2
  9
$LTSCALE
 40
0.6431102362
  9
$OSMODE
 70
  4095
  9
$ATTMODE
 70
     1
  9
$TEXTSIZE
 40
0.2
  9
$TRACEWID
 40
0.05
  9
$TEXTSTYLE
  7
STANDARD
  9
$CLAYER
  8
0
  9
$CELTYPE
  6
BYLAYER
  9
$CECOLOR
 62
   256
  9
$DIMSCALE
 40
1.0
  9
$DIMASZ
 40
0.1875
  9
$DIMEXO
 40
0.0625
  9
$DIMDLI
 40
0.4443307087
  9
$DIMRND
 40
0.0
  9
$DIMDLE
 40
0.0
  9
$DIMEXE
 40
0.125
  9
$DIMTP
 40
0.01
  9
$DIMTM
 40
0.01
  9
$DIMTXT
 40
2.0
  9
$DIMCEN
 40
0.1052362205
  9
$DIMTSZ
 40
0.0
  9
$DIMTOL
 70
     1
  9
$DIMLIM
 70
     0
  9
$DIMTIH
 70
     1
  9
$DIMTOH
 70
     1
  9
$DIMSE1
 70
     0
  9
$DIMSE2
 70
     0
  9
$DIMTAD
 70
     0
  9
$DIMZIN
 70
     0
  9
$DIMBLK
  1

  9
$DIMASO
 70
     1
  9
$DIMSHO
 70
     1
  9
$DIMPOST
  1
\X
  9
$DIMAPOST
  1

  9
$DIMALT
 70
     1
  9
$DIMALTD
 70
     2
  9
$DIMALTF
 40
25.3999999999999986
  9
$DIMLFAC
 40
1.0
  9
$DIMTOFL
 70
     0
  9
$DIMTVP
 40
0.0
  9
$DIMTIX
 70
     0
  9
$DIMSOXD
 70
     0
  9
$DIMSAH
 70
     0
  9
$DIMBLK1
  1

  9
$DIMBLK2
  1

  9
$DIMSTYLE
  2
STANDARD
  9
$DIMCLRD
 70
     0
  9
$DIMCLRE
 70
     0
  9
$DIMCLRT
 70
     0
  9
$DIMTFAC
 40
1.0
  9
$DIMGAP
 40
0.09
  9
$LUNITS
 70
     2
  9
$LUPREC
 70
     4
  9
$SKETCHINC
 40
0.1
  9
$FILLETRAD
 40
0.0
  9
$AUNITS
 70
     0
  9
$AUPREC
 70
     0
  9
$MENU
  1
.
  9
$ELEVATION
 40
0.0
  9
$PELEVATION
 40
0.0
  9
$THICKNESS
 40
0.0
  9
$LIMCHECK
 70
     0
  9
$BLIPMODE
 70
     0
  9
$CHAMFERA
 40
0.0
  9
$CHAMFERB
 40
0.0
  9
$SKPOLY
 70
     0
  9
$TDCREATE
 40
2458060.468368056230247
  9
$TDUPDATE
 40
2459839.6694791670888662
  9
$TDINDWG
 40
0.6594746527999999
  9
$TDUSRTIMER
 40
0.6594746527999999
  9
$USRTIMER
 70
     1
  9
$ANGBASE
 50
0.0
  9
$ANGDIR
 70
     0
  9
$PDMODE
 70
     0
  9
$PDSIZE
 40
0.3125
  9
$PLINEWID
 40
0.0
  9
$COORDS
 70
     1
  9
$SPLFRAME
 70
     0
  9
$SPLINETYPE
 70
     6
  9
$SPLINESEGS
 70
     8
  9
$ATTDIA
 70
     1
  9
$ATTREQ
 70
     1
  9
$HANDLING
 70
     1
  9
$HANDSEED
  5
13A29
  9
$SURFTAB1
 70
     6
  9
$SURFTAB2
 70
     6
  9
$SURFTYPE
 70
     6
  9
$SURFU
 70
     6
  9
$SURFV
 70
     6
  9
$UCSNAME
  2

  9
$UCSORG
 10
0.0
 20
0.0
 30
0.0
  9
$UCSXDIR
 10
1.0
 20
0.0
 30
0.0
  9
$UCSYDIR
 10
0.0
 20
1.0
 30
0.0
  9
$PUCSNAME
  2

  9
$PUCSORG
 10
0.0
 20
0.0
 30
0.0
  9
$PUCSXDIR
 10
1.0
 20
0.0
 30
0.0
  9
$PUCSYDIR
 10
0.0
 20
1.0
 30
0.0
  9
$USERI1
 70
     0
  9
$USERI2
 70
     0
  9
$USERI3
 70
     0
  9
$USERI4
 70
     0
  9
$USERI5
 70
     0
  9
$USERR1
 40
0.0
  9
$USERR2
 40
0.0
  9
$USERR3
 40
0.0
  9
$USERR4
 40
0.0
  9
$USERR5
 40
0.0
  9
$WORLDVIEW
 70
     1
  9
$SHADEDGE
 70
     3
  9
$SHADEDIF
 70
    70
  9
$TILEMODE
 70
     1
  9
$MAXACTVP
 70
    64
  9
$PLIMCHECK
 70
     0
  9
$PEXTMIN
 10
1.0000000000000000E+20
 20
1.0000000000000000E+20
 30
1.0000000000000000E+20
  9
$PEXTMAX
 10
-1.0000000000000000E+20
 20
-1.0000000000000000E+20
 30
-1.0000000000000000E+20
  9
$PLIMMIN
 10
0.0
 20
0.0
  9
$PLIMMAX
 10
12.0
 20
9.0
  9
$UNITMODE
 70
     0
  9
$VISRETAIN
 70
     1
  9
$PLINEGEN
 70
     0
  9
$PSLTSCALE
 70
     1
  0
ENDSEC
  0
SECTION
  2
TABLES
  0
TABLE
  2
VPORT
 70
     1
  0
VPORT
  2
*ACTIVE
 70
     0
 10
0.0
 20
0.0
 11
1.0
 21
1.0
 12
0.0
 22
0.0
 13
0.0
 23
0.0
 14
1.0
 24
1.0
 15
0.0
 25
0.0
 16
0.0
 26
0.0
 36
80.079287470818457
 17
4400.4025745773169547
 27
234.1942891570992913
 37
0.0
 40
27.9523410492244899
 41
2.1481900452488678
 42
50.0
 43
0.0
 44
0.0
 50
0.0
 51
0.0
 71
     0
 72
   100
 73
     1
 74
     1
 75
     0
 76
     0
 77
     0
 78
     0
  0
ENDTAB
  0
TABLE
  2
LTYPE
 70
     2
  0
LTYPE
  2
CONTINUOUS
 70
     0
  3
Solid line
 72
    65
 73
     0
 40
0.0
  0
LTYPE
  2
PHANTOM2
 70
     0
  3
___ _ _ ___ _ _ ___ _ _ ___ _ _
 72
    65
 73
     6
 40
1.25
 49
0.625
 49
-0.125
 49
0.125
 49
-0.125
 49
0.125
 49
-0.125
  0
ENDTAB
  0
TABLE
  2
LAYER
 70
     2
  0
LAYER
  2
0
 70
     0
 62
   255
  6
CONTINUOUS
  0
LAYER
  2
DEFPOINTS
 70
     0
 62
     7
  6
CONTINUOUS
  0
ENDTAB
  0
TABLE
  2
STYLE
 70
     1
  0
STYLE
  2
STANDARD
 70
     0
 40
0.0
 41
0.8
 50
0.0
 71
     0
 42
0.2
  3
txt
  4

  0
ENDTAB
  0
TABLE
  2
VIEW
 70
     0
  0
ENDTAB
  0
TABLE
  2
UCS
 70
     0
  0
ENDTAB
  0
TABLE
  2
APPID
 70
    10
  0
APPID
  2
ACAD
 70
     0
  0
APPID
  2
ACAD_MLEADERVER
 70
     0
  0
APPID
  2
ACAD_EXEMPT_FROM_CAD_STANDARDS
 70
     0
  0
APPID
  2
ACAD_NAV_VCDISPLAY
 70
     0
  0
APPID
  2
ACAECLAYERSTANDARD
 70
     0
  0
APPID
  2
ACCMTRANSPARENCY
 70
     0
  0
APPID
  2
ACAD_DSTYLE_DIMJAG
 70
     0
  0
APPID
  2
ACAD_DSTYLE_DIMTALN
 70
     0
  0
APPID
  2
ACDBATTR
 70
     0
  0
APPID
  2
DCO15
 70
     0
  0
ENDTAB
  0
TABLE
  2
DIMSTYLE
 70
     1
  0
DIMSTYLE
  2
STANDARD
 70
     0
  3

  4

  5

  6

  7

 40
1.0
 41
0.1875
 42
0.0625
 43
0.38
 44
0.125
 45
0.0
 46
0.0
 47
0.01
 48
0.01
140
0.15625
141
0.09
142
0.0
143
25.3999999999999986
144
1.0
145
0.0
146
1.0
147
0.09
 71
     1
 72
     0
 73
     1
 74
     1
 75
     0
 76
     0
 77
     0
 78
     4
170
     0
171
     2
172
     0
173
     0
174
     0
175
     0
176
     0
177
     0
178
     0
  0
ENDTAB
  0
ENDSEC
  0
SECTION
  2
BLOCKS
  0
BLOCK
  8
0
  2
$MODEL_SPACE
 70
     0
 10
0.0
 20
0.0
 30
0.0
  3
$MODEL_SPACE
  1

  0
ENDBLK
  5
21
  8
0
  0
BLOCK
 67
     1
  8
0
  2
$PAPER_SPACE
 70
     0
 10
0.0
 20
0.0
 30
0.0
  3
$PAPER_SPACE
  1

  0
ENDBLK
  5
1D
 67
     1
  8
0
  0
ENDSEC
  0
SECTION
  2
ENTITIES
  0
ATTDEF
  5
12CA7
  8
DEFPOINTS
 10
4411.3018067064022034
 20
225.4622088887427935
 30
0.0
 40
0.001
  1
K-25209T-GS
  3

  2
MODELNUMBER
 70
     0
1001
ACDBATTR
1070
     0
1070
     1
  0
ATTDEF
  5
12CA8
  8
DEFPOINTS
 10
4411.3018067064022034
 20
225.4605422220761
 30
0.0
 40
0.001
  1
REVE
  3

  2
TRADENAME
 70
     0
1001
ACDBATTR
1070
     0
1070
     1
  0
ATTDEF
  5
12CA9
  8
DEFPOINTS
 10
4411.3018067064022034
 20
225.4588755554094917
 30
0.0
 40
0.001
  1
TOILET
  3

  2
PRODUCT
 70
     0
1001
ACDBATTR
1070
     0
1070
     1
  0
LINE
  5
138CB
  8
0
 10
4411.301803955881951
 20
225.4588741522258033
 30
0.0
 11
4394.2596891044822769
 21
225.4588741522258033
 31
0.0
  0
LINE
  5
138CC
  8
0
 10
4411.301803955881951
 20
240.8131935422258039
 30
0.0
 11
4411.301803955881951
 21
225.4588741522258033
 31
0.0
  0
LINE
  5
138CD
  8
0
 10
4389.8187327244822882
 20
240.8131935422258039
 30
0.0
 11
4411.301803955881951
 21
240.8131935422258039
 31
0.0
  0
LINE
  5
138CE
  8
0
 10
4389.5318677679815664
 20
241.0115144218758019
 30
0.0
 11
4407.1125067828015744
 21
241.0115144218758019
 31
0.0
  0
LINE
  5
138CF
  8
0
 10
4391.1090335387725645
 20
240.8145549235258045
 30
0.0
 11
4391.7090740451430975
 21
240.8145549235258045
 31
0.0
  0
ARC
  5
138D0
  8
0
 10
4390.8864953572456216
 20
241.0300552616963898
 30
0.0
 40
0.0766320921563402
 50
193.870974435630302
 51
207.6530627870313026
  0
ARC
  5
138D1
  8
0
 10
4391.1209427296980721
 20
241.1510802146412971
 30
0.0
 40
0.3404730028665794
 50
207.3821032439306009
 51
233.3200037956661106
  0
ARC
  5
138D2
  8
0
 10
4391.1103965669781246
 20
241.1383875801815861
 30
0.0
 40
0.323835525170751
 50
233.4580575525176869
 51
269.7588405595989229
  0
ARC
  5
138D3
  8
0
 10
4391.7237370878601723
 20
241.1278957437029931
 30
0.0
 40
0.3074932984147829
 50
306.4495242506937984
 51
337.7710401500571038
  0
ARC
  5
138D4
  8
0
 10
4391.7057649869220768
 20
241.152503735645098
 30
0.0
 40
0.3379650122114959
 50
270.5609991943805994
 51
306.4217967991443743
  0
ARC
  5
138D5
  8
0
 10
4391.0967834917719301
 20
241.0875859688271134
 30
0.0
 40
0.3065718946614831
 50
318.1152962494649046
 51
345.6546733532658209
  0
ARC
  5
138D6
  8
0
 10
4391.1584197805359508
 20
241.0394379670661067
 30
0.0
 40
0.2286006292712045
 50
280.3471258846797127
 51
316.7856040763841747
  0
ARC
  5
138D7
  8
0
 10
4389.5320058210618299
 20
241.0510161928868058
 30
0.0
 40
0.039502012248196
 50
177.5050759429502989
 51
269.7997602035956106
  0
LINE
  5
138D8
  8
0
 10
4389.4925412534821589
 20
241.0527357502257928
 30
0.0
 11
4389.5589811509817082
 21
242.5288212355258111
 31
0.0
  0
ARC
  5
138D9
  8
0
 10
4389.7949620874451284
 20
242.5181844910678137
 30
0.0
 40
0.236220538283073
 50
91.6303388325030284
 51
177.4191630076325055
  0
ARC
  5
138DA
  8
0
 10
4402.1324406587937119
 20
-191.3249030490327982
 30
0.0
 40
434.2546970848039223
 50
91.4686863303056157
 51
91.6289191809909482
  0
ARC
  5
138DB
  8
0
 10
4402.1066408738579412
 20
-190.0361182471004895
 30
0.0
 40
432.9656744682259841
 50
91.0637105495226535
 51
91.4696445591187057
  0
ARC
  5
138DC
  8
0
 10
4402.1172511496934021
 20
-190.2658213996186873
 30
0.0
 40
433.1955350537322147
 50
90.6556614399389531
 51
91.0645496523797249
  0
ARC
  5
138DD
  8
0
 10
4402.1157904644660448
 20
-190.1552235171284906
 30
0.0
 40
433.0849276978304943
 50
90.0105701510448171
 51
90.6556356426027037
  0
ARC
  5
138DE
  8
0
 10
4402.1158443016502133
 20
-190.1215785662037945
 30
0.0
 40
433.0512827574145831
 50
89.4157088995745255
 51
90.0105780952982855
  0
ARC
  5
138DF
  8
0
 10
4406.527262940539913
 20
242.4377906046238138
 30
0.0
 40
0.4694194521499037
 50
54.8542444192561192
 51
89.4291678843533475
  0
ARC
  5
138E0
  8
0
 10
4406.0046249429069576
 20
241.6905292126579923
 30
0.0
 40
1.3813116489554671
 50
46.4931297429857722
 51
54.9708558539743066
  0
ARC
  5
138E1
  8
0
 10
4406.9422314823468696
 20
242.6656902260388904
 30
0.0
 40
0.0298433960842853
 50
21.6742292694037104
 51
63.4361940619888927
  0
ARC
  5
138E2
  8
0
 10
4406.9167593255533575
 20
242.6594184516090991
 30
0.0
 40
0.055945600169521
 50
350.972354262728004
 51
18.0060941510084689
  0
ARC
  5
138E3
  8
0
 10
4407.1607451823001611
 20
242.6249725006869937
 30
0.0
 40
0.1904706430131998
 50
172.255365340926204
 51
179.6525929454201105
  0
LINE
  5
138E4
  8
0
 10
4406.9702780405823432
 20
242.626127392725806
 30
0.0
 11
4406.9701301816230625
 21
242.6076919580617073
 31
0.0
  0
ARC
  5
138E5
  8
0
 10
4405.7744205824847086
 20
241.6781848117472862
 30
0.0
 40
1.5144982603223369
 50
4.0920991535110343
 51
37.8603747096522412
  0
ARC
  5
138E6
  8
0
 10
4406.8815883186271094
 20
242.4077674070261992
 30
0.0
 40
0.2045217762836232
 50
29.7672097618385685
 51
57.8241572482349326
  0
ARC
  5
138E7
  8
0
 10
4405.3457594207720831
 20
241.5400144508435005
 30
0.0
 40
1.968538982596125
 50
10.8650825960364692
 51
29.4979398150814482
  0
ARC
  5
138E8
  8
0
 10
4406.8923662585821148
 20
241.8368690117258097
 30
0.0
 40
0.3937007874001666
 50
354.3860374240052238
 51
10.8647390051984196
  0
ARC
  5
138E9
  8
0
 10
4406.8923651442819391
 20
241.8368606831257921
 30
0.0
 40
0.3956692912999999
 50
352.8520630753382079
 51
23.3046130943224306
  0
ARC
  5
138EA
  8
0
 10
4406.8923625788820573
 20
241.8368415095258115
 30
0.0
 40
0.5019685038999988
 50
324.7007017488074894
 51
54.5614141078709807
  0
LINE
  5
138EB
  8
0
 10
4407.2850578303823568
 20
241.7862592573258098
 30
0.0
 11
4407.3009342864834252
 21
241.5643409929257928
 31
0.0
  0
ARC
  5
138EC
  8
0
 10
4406.2628369780741195
 20
241.4900735305832029
 30
0.0
 40
1.0407505357612949
 50
358.3612348990550913
 51
4.0920774836355358
  0
ARC
  5
138ED
  8
0
 10
4409.4906028509931275
 20
241.3870795094393884
 30
0.0
 40
2.1886664668924549
 50
178.0825799940685101
 51
183.1138049335930873
  0
LINE
  5
138EE
  8
0
 10
4407.3051677060821021
 20
241.2681924593258032
 30
0.0
 11
4407.3095949348817157
 21
241.2029891644257873
 31
0.0
  0
ARC
  5
138EF
  8
0
 10
4407.1750981770546787
 20
241.1935510930638884
 30
0.0
 40
0.1348275011161479
 50
341.7976889462070744
 51
4.0140495351274961
  0
ARC
  5
138F0
  8
0
 10
4407.0868611701816917
 20
241.2463386415257958
 30
0.0
 40
0.236220472400013
 50
303.1530954150866251
 51
336.3117189567072955
  0
ARC
  5
138F1
  8
0
 10
4407.0868611701816917
 20
241.2463386415259095
 30
0.0
 40
0.2362204724000291
 50
276.2326829512767858
 51
303.1530954150857156
  0
LINE
  5
138F2
  8
0
 10
4406.4818722873478691
 20
241.0115144218758019
 30
0.0
 11
4406.4749276113789165
 21
240.8131935422258039
 31
0.0
  0
ARC
  5
138F3
  8
0
 10
4406.3765087367128217
 20
238.2289171548571005
 30
0.0
 40
3.4410775792545358
 50
126.0366107160458995
 51
131.3222406118329957
  0
ARC
  5
138F4
  8
0
 10
4392.5368607650470949
 20
208.9531639321058094
 30
0.0
 40
32.05835467322553
 50
88.2710228544062403
 51
89.9707291996411982
  0
ARC
  5
138F5
  8
0
 10
5874.6902536470761333
 20
49077.0943868994581862
 30
0.0
 40
48858.5542954095799359
 50
268.26276646681481
 51
268.2662404395446174
  0
ARC
  5
138F6
  8
0
 10
2918.2400736925760611
 20
-48595.2799766269890824
 30
0.0
 40
48858.5542960515595041
 50
88.2626003720851031
 51
88.2662404395446174
  0
ARC
  5
138F7
  8
0
 10
4389.8187327244822882
 20
240.6161935422260001
 30
0.0
 40
0.1969999999998517
 50
90.0
 51
197.044738716455214
  0
LINE
  5
138F8
  8
0
 10
4389.6303857190823692
 20
240.558449230325806
 30
0.0
 11
4394.2596891044822769
 21
225.4588741522258033
 31
0.0
  0
LINE
  5
138F9
  8
0
 10
4408.1070320085818821
 20
241.1477608726258097
 30
0.0
 11
4407.3015296006960853
 21
241.1477608726258097
 31
0.0
  0
ARC
  5
138FA
  8
0
 10
4408.1070415863568996
 20
241.0887056110578044
 30
0.0
 40
0.0590552623447415
 50
1.9945284335706639
 51
90.0092924170133841
  0
LINE
  5
138FB
  8
0
 10
4408.1660610703820566
 20
241.0907609738258088
 30
0.0
 11
4408.1757271252699866
 21
240.8131935422258039
 31
0.0
  0
CIRCLE
  5
138FC
  8
0
 10
4400.4077448959496905
 20
226.8368328716624092
 30
0.0
 40
0.5437337814365986
  0
ENDSEC
  0
EOF
