  0
SECTION
  2
HEADER
  9
$ACADVER
  1
AC1009
  9
$INSBASE
 10
4353.42594434572311
 20
247.5628109350699901
 30
0.0
  9
$EXTMIN
 10
4346.1245791333240049
 20
225.7535107880009946
 30
0.0
  9
$EXTMAX
 10
4360.7273095581240341
 20
247.5671451995507937
 30
0.0
  9
$LIMMIN
 10
0.0
 20
0.0
  9
$LIMMAX
 10
11.6929133858000007
 20
8.2677165353999982
  9
$ORTHOMODE
 70
     0
  9
$REGENMODE
 70
     1
  9
$FILLMODE
 70
     1
  9
$QTEXTMODE
 70
     0
  9
$MIRRTEXT
 70
     0
  9
$DRAGMODE
 70
     2
  9
$LTSCALE
 40
0.6431102362
  9
$OSMODE
 70
  4095
  9
$ATTMODE
 70
     1
  9
$TEXTSIZE
 40
0.2
  9
$TRACEWID
 40
0.05
  9
$TEXTSTYLE
  7
STANDARD
  9
$CLAYER
  8
0
  9
$CELTYPE
  6
BYLAYER
  9
$CECOLOR
 62
   256
  9
$DIMSCALE
 40
1.0
  9
$DIMASZ
 40
0.1875
  9
$DIMEXO
 40
0.0625
  9
$DIMDLI
 40
0.4443307087
  9
$DIMRND
 40
0.0
  9
$DIMDLE
 40
0.0
  9
$DIMEXE
 40
0.125
  9
$DIMTP
 40
0.01
  9
$DIMTM
 40
0.01
  9
$DIMTXT
 40
2.0
  9
$DIMCEN
 40
0.1052362205
  9
$DIMTSZ
 40
0.0
  9
$DIMTOL
 70
     1
  9
$DIMLIM
 70
     0
  9
$DIMTIH
 70
     1
  9
$DIMTOH
 70
     1
  9
$DIMSE1
 70
     0
  9
$DIMSE2
 70
     0
  9
$DIMTAD
 70
     0
  9
$DIMZIN
 70
     0
  9
$DIMBLK
  1

  9
$DIMASO
 70
     1
  9
$DIMSHO
 70
     1
  9
$DIMPOST
  1
\X
  9
$DIMAPOST
  1

  9
$DIMALT
 70
     1
  9
$DIMALTD
 70
     2
  9
$DIMALTF
 40
25.3999999999999986
  9
$DIMLFAC
 40
1.0
  9
$DIMTOFL
 70
     0
  9
$DIMTVP
 40
0.0
  9
$DIMTIX
 70
     0
  9
$DIMSOXD
 70
     0
  9
$DIMSAH
 70
     0
  9
$DIMBLK1
  1

  9
$DIMBLK2
  1

  9
$DIMSTYLE
  2
STANDARD
  9
$DIMCLRD
 70
     0
  9
$DIMCLRE
 70
     0
  9
$DIMCLRT
 70
     0
  9
$DIMTFAC
 40
1.0
  9
$DIMGAP
 40
0.09
  9
$LUNITS
 70
     2
  9
$LUPREC
 70
     4
  9
$SKETCHINC
 40
0.1
  9
$FILLETRAD
 40
0.0
  9
$AUNITS
 70
     0
  9
$AUPREC
 70
     0
  9
$MENU
  1
.
  9
$ELEVATION
 40
0.0
  9
$PELEVATION
 40
0.0
  9
$THICKNESS
 40
0.0
  9
$LIMCHECK
 70
     0
  9
$BLIPMODE
 70
     0
  9
$CHAMFERA
 40
0.0
  9
$CHAMFERB
 40
0.0
  9
$SKPOLY
 70
     0
  9
$TDCREATE
 40
2458060.468368056230247
  9
$TDUPDATE
 40
2459839.6693981480784714
  9
$TDINDWG
 40
0.6589538194
  9
$TDUSRTIMER
 40
0.6589538194
  9
$USRTIMER
 70
     1
  9
$ANGBASE
 50
0.0
  9
$ANGDIR
 70
     0
  9
$PDMODE
 70
     0
  9
$PDSIZE
 40
0.3125
  9
$PLINEWID
 40
0.0
  9
$COORDS
 70
     1
  9
$SPLFRAME
 70
     0
  9
$SPLINETYPE
 70
     6
  9
$SPLINESEGS
 70
     8
  9
$ATTDIA
 70
     1
  9
$ATTREQ
 70
     1
  9
$HANDLING
 70
     1
  9
$HANDSEED
  5
13A20
  9
$SURFTAB1
 70
     6
  9
$SURFTAB2
 70
     6
  9
$SURFTYPE
 70
     6
  9
$SURFU
 70
     6
  9
$SURFV
 70
     6
  9
$UCSNAME
  2

  9
$UCSORG
 10
0.0
 20
0.0
 30
0.0
  9
$UCSXDIR
 10
1.0
 20
0.0
 30
0.0
  9
$UCSYDIR
 10
0.0
 20
1.0
 30
0.0
  9
$PUCSNAME
  2

  9
$PUCSORG
 10
0.0
 20
0.0
 30
0.0
  9
$PUCSXDIR
 10
1.0
 20
0.0
 30
0.0
  9
$PUCSYDIR
 10
0.0
 20
1.0
 30
0.0
  9
$USERI1
 70
     0
  9
$USERI2
 70
     0
  9
$USERI3
 70
     0
  9
$USERI4
 70
     0
  9
$USERI5
 70
     0
  9
$USERR1
 40
0.0
  9
$USERR2
 40
0.0
  9
$USERR3
 40
0.0
  9
$USERR4
 40
0.0
  9
$USERR5
 40
0.0
  9
$WORLDVIEW
 70
     1
  9
$SHADEDGE
 70
     3
  9
$SHADEDIF
 70
    70
  9
$TILEMODE
 70
     1
  9
$MAXACTVP
 70
    64
  9
$PLIMCHECK
 70
     0
  9
$PEXTMIN
 10
1.0000000000000000E+20
 20
1.0000000000000000E+20
 30
1.0000000000000000E+20
  9
$PEXTMAX
 10
-1.0000000000000000E+20
 20
-1.0000000000000000E+20
 30
-1.0000000000000000E+20
  9
$PLIMMIN
 10
0.0
 20
0.0
  9
$PLIMMAX
 10
12.0
 20
9.0
  9
$UNITMODE
 70
     0
  9
$VISRETAIN
 70
     1
  9
$PLINEGEN
 70
     0
  9
$PSLTSCALE
 70
     1
  0
ENDSEC
  0
SECTION
  2
TABLES
  0
TABLE
  2
VPORT
 70
     1
  0
VPORT
  2
*ACTIVE
 70
     0
 10
0.0
 20
0.0
 11
1.0
 21
1.0
 12
0.0
 22
0.0
 13
0.0
 23
0.0
 14
1.0
 24
1.0
 15
0.0
 25
0.0
 16
0.0
 26
0.0
 36
75.2034589029985625
 17
4353.426025390625
 27
236.6603273605174991
 37
0.0
 40
26.2503925513071117
 41
2.1481900452488678
 42
50.0
 43
0.0
 44
0.0
 50
0.0
 51
0.0
 71
     0
 72
   100
 73
     1
 74
     1
 75
     0
 76
     0
 77
     0
 78
     0
  0
ENDTAB
  0
TABLE
  2
LTYPE
 70
     2
  0
LTYPE
  2
CONTINUOUS
 70
     0
  3
Solid line
 72
    65
 73
     0
 40
0.0
  0
LTYPE
  2
PHANTOM2
 70
     0
  3
___ _ _ ___ _ _ ___ _ _ ___ _ _
 72
    65
 73
     6
 40
1.25
 49
0.625
 49
-0.125
 49
0.125
 49
-0.125
 49
0.125
 49
-0.125
  0
ENDTAB
  0
TABLE
  2
LAYER
 70
     2
  0
LAYER
  2
0
 70
     0
 62
   255
  6
CONTINUOUS
  0
LAYER
  2
DEFPOINTS
 70
     0
 62
     7
  6
CONTINUOUS
  0
ENDTAB
  0
TABLE
  2
STYLE
 70
     1
  0
STYLE
  2
STANDARD
 70
     0
 40
0.0
 41
0.8
 50
0.0
 71
     0
 42
0.2
  3
txt
  4

  0
ENDTAB
  0
TABLE
  2
VIEW
 70
     0
  0
ENDTAB
  0
TABLE
  2
UCS
 70
     0
  0
ENDTAB
  0
TABLE
  2
APPID
 70
    10
  0
APPID
  2
ACAD
 70
     0
  0
APPID
  2
ACAD_MLEADERVER
 70
     0
  0
APPID
  2
ACAD_EXEMPT_FROM_CAD_STANDARDS
 70
     0
  0
APPID
  2
ACAD_NAV_VCDISPLAY
 70
     0
  0
APPID
  2
ACAECLAYERSTANDARD
 70
     0
  0
APPID
  2
ACCMTRANSPARENCY
 70
     0
  0
APPID
  2
ACAD_DSTYLE_DIMJAG
 70
     0
  0
APPID
  2
ACAD_DSTYLE_DIMTALN
 70
     0
  0
APPID
  2
ACDBATTR
 70
     0
  0
APPID
  2
DCO15
 70
     0
  0
ENDTAB
  0
TABLE
  2
DIMSTYLE
 70
     1
  0
DIMSTYLE
  2
STANDARD
 70
     0
  3

  4

  5

  6

  7

 40
1.0
 41
0.1875
 42
0.0625
 43
0.38
 44
0.125
 45
0.0
 46
0.0
 47
0.01
 48
0.01
140
0.15625
141
0.09
142
0.0
143
25.3999999999999986
144
1.0
145
0.0
146
1.0
147
0.09
 71
     1
 72
     0
 73
     1
 74
     1
 75
     0
 76
     0
 77
     0
 78
     4
170
     0
171
     2
172
     0
173
     0
174
     0
175
     0
176
     0
177
     0
178
     0
  0
ENDTAB
  0
ENDSEC
  0
SECTION
  2
BLOCKS
  0
BLOCK
  8
0
  2
$MODEL_SPACE
 70
     0
 10
0.0
 20
0.0
 30
0.0
  3
$MODEL_SPACE
  1

  0
ENDBLK
  5
21
  8
0
  0
BLOCK
 67
     1
  8
0
  2
$PAPER_SPACE
 70
     0
 10
0.0
 20
0.0
 30
0.0
  3
$PAPER_SPACE
  1

  0
ENDBLK
  5
1D
 67
     1
  8
0
  0
ENDSEC
  0
SECTION
  2
ENTITIES
  0
ATTDEF
  5
12CA7
  8
DEFPOINTS
 10
4353.4259453675704208
 20
247.5661451995507036
 30
0.0
 40
0.001
  1
K-25209T-GS
  3

  2
MODELNUMBER
 70
     0
1001
ACDBATTR
1070
     0
1070
     1
  0
ATTDEF
  5
12CA8
  8
DEFPOINTS
 10
4353.4259453675704208
 20
247.5644785328840953
 30
0.0
 40
0.001
  1
REVE
  3

  2
TRADENAME
 70
     0
1001
ACDBATTR
1070
     0
1070
     1
  0
ATTDEF
  5
12CA9
  8
DEFPOINTS
 10
4353.4259453675704208
 20
247.5628118662174018
 30
0.0
 40
0.001
  1
TOILET
  3

  2
PRODUCT
 70
     0
1001
ACDBATTR
1070
     0
1070
     1
  0
LINE
  5
138EA
  8
0
 10
4346.237932699724297
 20
247.5628109350699901
 30
0.0
 11
4360.6139559917228326
 21
247.5628109350699901
 31
0.0
  0
LINE
  5
138EB
  8
0
 10
4346.1245791333240049
 20
243.3680799605693039
 30
0.0
 11
4346.1245791333240049
 21
226.8540610369709896
 31
0.0
  0
LINE
  5
138EC
  8
0
 10
4348.4879228614236126
 20
243.5470469787699983
 30
0.0
 11
4348.0342846196235769
 21
243.5470461631699948
 31
0.0
  0
ARC
  5
138ED
  8
0
 10
4348.0342847614238053
 20
243.4681765269735081
 30
0.0
 40
0.0788696361967065
 50
90.0001030125532964
 51
109.4914330829975029
  0
LINE
  5
138EE
  8
0
 10
4348.0194920801241096
 20
243.5425157710699864
 30
0.0
 11
4346.8651410243228383
 21
243.5425221580699997
 31
0.0
  0
ARC
  5
138EF
  8
0
 10
4346.888751820161815
 20
250.931054769774903
 30
0.0
 40
7.3885703369398508
 50
267.1406636792837048
 51
269.816906222290811
  0
ARC
  5
138F0
  8
0
 10
4346.6460733226331286
 20
246.0722668437796017
 30
0.0
 40
2.5237257389119381
 50
264.0221284852115105
 51
267.1406636792837048
  0
ARC
  5
138F1
  8
0
 10
4346.340059871738049
 20
243.1044776138282941
 30
0.0
 40
0.4598191150579329
 50
84.6114073923818637
 51
93.9723956428059353
  0
ARC
  5
138F2
  8
0
 10
4346.2851582003522708
 20
243.5336299529463986
 30
0.0
 40
0.0374845979105622
 50
52.0591618369108105
 51
98.1363622307205929
  0
ARC
  5
138F3
  8
0
 10
4346.2901364692206698
 20
243.4979031159354861
 30
0.0
 40
0.0735564936540312
 50
98.0364683194430455
 51
110.5510347414659975
  0
ARC
  5
138F4
  8
0
 10
4346.343850747626675
 20
243.3623601816348128
 30
0.0
 40
0.2193462028618295
 50
111.2601620508379057
 51
178.505757836759301
  0
ARC
  5
138F5
  8
0
 10
4348.4877947173754364
 20
243.5072275999239935
 30
0.0
 40
0.0398195850377648
 50
12.9016467387029099
 51
89.8156152110462074
  0
ARC
  5
138F6
  8
0
 10
4346.9021505345208425
 20
243.3289443215080894
 30
0.0
 40
1.63520629095315
 50
1.5760286059391859
 51
6.5727762530889304
  0
ARC
  5
138F7
  8
0
 10
4337.2765558377741399
 20
242.9683815878661051
 30
0.0
 40
11.2674827550353793
 50
1.3370983497493301
 51
2.062621244709252
  0
LINE
  5
138F8
  8
0
 10
4348.6316409953233233
 20
243.5470534060700913
 30
0.0
 11
4348.980895023123594
 21
243.5470541571700096
 31
0.0
  0
ARC
  5
138F9
  8
0
 10
4348.6308257313648937
 20
243.4689276969481
 30
0.0
 40
0.0781299627615369
 50
89.4021239732689281
 51
171.6510016845832922
  0
LINE
  5
138FA
  8
0
 10
4348.5369272959842419
 20
243.3686343306700053
 30
0.0
 11
4348.5537473818503713
 21
243.3686343306700053
 31
0.0
  0
ARC
  5
138FB
  8
0
 10
4348.5794790054342229
 20
243.3669374506669101
 30
0.0
 40
0.0274453683656957
 50
165.4271469420843061
 51
176.4552812619895974
  0
ARC
  5
138FC
  8
0
 10
4345.0552704282617924
 20
243.2292880728182922
 30
0.0
 40
3.50125097277592
 50
0.0299300545751337
 51
2.2809166613756631
  0
ARC
  5
138FD
  8
0
 10
4348.5301491900272595
 20
243.3675409978046957
 30
0.0
 40
0.0236235059642187
 50
2.6526860141745181
 51
15.4720573722080506
  0
ARC
  5
138FE
  8
0
 10
4350.9532501373241757
 20
243.3436491165959126
 30
0.0
 40
2.4044807162884232
 50
177.0997235660927061
 51
179.4046227652646905
  0
ARC
  5
138FF
  8
0
 10
4348.6951788513179054
 20
243.4568439785961118
 30
0.0
 40
0.1435794017719354
 50
170.6088458080689065
 51
176.6194682874292141
  0
ARC
  5
13900
  8
0
 10
4348.6728298279458613
 20
259.2948196542748178
 30
0.0
 40
16.0641236656513513
 50
269.5296989662685974
 51
269.8162887237419909
  0
ARC
  5
13901
  8
0
 10
4350.8340836776778815
 20
746.3349335286324049
 30
0.0
 40
503.1090210426291947
 50
269.7480023551444788
 51
269.9395749308940822
  0
ARC
  5
13902
  8
0
 10
4351.334720783002922
 20
-835.4667698047514932
 30
0.0
 40
1078.6934549955210514
 50
89.9657248278316786
 51
90.0547744066418119
  0
LINE
  5
13903
  8
0
 10
4349.0715982869232903
 20
243.6553220664700063
 30
0.0
 11
4350.3432518301233358
 21
243.6553248011699964
 31
0.0
  0
LINE
  5
13904
  8
0
 10
4350.3826154916787345
 20
243.2262650043587087
 30
0.0
 11
4350.3826219934226174
 21
243.6159548023699983
 31
0.0
  0
ARC
  5
13905
  8
0
 10
4350.343251914893699
 20
243.6159547226405095
 30
0.0
 40
0.0393700785295853
 50
0.000116031340983
 51
90.0001233675821481
  0
ARC
  5
13906
  8
0
 10
4349.1087918560433536
 20
243.2728754262118116
 30
0.0
 40
0.0820235713567889
 50
180.9752773250264966
 51
212.244251354300701
  0
LINE
  5
13907
  8
0
 10
4349.0322218048149807
 20
243.2434663542578051
 30
0.0
 11
4349.0322282223232833
 21
243.6159314864700036
 31
0.0
  0
ARC
  5
13908
  8
0
 10
4349.0716194867281956
 20
243.6159308077656078
 30
0.0
 40
0.0393912644091464
 50
90.0308357533895105
 51
179.9990128039765978
  0
ARC
  5
13909
  8
0
 10
4348.9809355618453992
 20
243.5069952003584035
 30
0.0
 40
0.0400589773237666
 50
32.4740340400002125
 51
90.0579819605368499
  0
ARC
  5
1390A
  8
0
 10
4348.9754098190442164
 20
243.5046848201579053
 30
0.0
 40
0.0459724367385079
 50
359.7140437329870224
 51
31.2055014576403309
  0
ARC
  5
1390B
  8
0
 10
4340.6739991869490041
 20
243.1944805942092103
 30
0.0
 40
8.3531358725845841
 50
0.5281565737864918
 51
2.1266654634472761
  0
ARC
  5
1390C
  8
0
 10
4349.5479928404229213
 20
243.5863266903699866
 30
0.0
 40
0.8503937008000015
 50
348.9493970044500202
 51
182.6469926026163932
  0
ARC
  5
1390D
  8
0
 10
4347.2253256692010837
 20
226.8542573334275971
 30
0.0
 40
1.100746553379927
 50
180.0102175733152876
 51
269.9931123580586245
  0
LINE
  5
1390E
  8
0
 10
4346.237932699724297
 20
243.5544386131111878
 30
0.0
 11
4346.237932699724297
 21
247.5628109350699901
 31
0.0
  0
LINE
  5
1390F
  8
0
 10
4360.7273095581240341
 20
243.3680799605693039
 30
0.0
 11
4360.7273095581240341
 21
226.8540610369709896
 31
0.0
  0
LINE
  5
13910
  8
0
 10
4358.3639658300226074
 20
243.5470469787699983
 30
0.0
 11
4358.8176040718226432
 21
243.5470461631699948
 31
0.0
  0
ARC
  5
13911
  8
0
 10
4358.8176039300233242
 20
243.4681765269735081
 30
0.0
 40
0.0788696361967065
 50
70.5085669170025113
 51
89.9998969874467036
  0
LINE
  5
13912
  8
0
 10
4358.8323966113239294
 20
243.5425157710699864
 30
0.0
 11
4359.9867476671233817
 21
243.5425221580699997
 31
0.0
  0
ARC
  5
13913
  8
0
 10
4359.9631368712853146
 20
250.931054769774903
 30
0.0
 40
7.3885703369398508
 50
270.183093777709189
 51
272.8593363207162952
  0
ARC
  5
13914
  8
0
 10
4360.2058153688130915
 20
246.0722668437796017
 30
0.0
 40
2.5237257389119381
 50
272.8593363207162952
 51
275.9778715147883759
  0
ARC
  5
13915
  8
0
 10
4360.5118288197090806
 20
243.1044776138282941
 30
0.0
 40
0.4598191150579329
 50
86.0276043571940647
 51
95.3885926076181221
  0
ARC
  5
13916
  8
0
 10
4360.5667304910948587
 20
243.5336299529463986
 30
0.0
 40
0.0374845979105622
 50
81.8636377692794071
 51
127.9408381630891967
  0
ARC
  5
13917
  8
0
 10
4360.5617522222246407
 20
243.4979031159354861
 30
0.0
 40
0.0735564936540312
 50
69.4489652585340309
 51
81.9635316805569403
  0
ARC
  5
13918
  8
0
 10
4360.508037943821364
 20
243.3623601816348128
 30
0.0
 40
0.2193462028618295
 50
1.4942421632407199
 51
68.7398379491620233
  0
ARC
  5
13919
  8
0
 10
4358.3640939740707836
 20
243.5072275999239935
 30
0.0
 40
0.0398195850377648
 50
90.1843847889537784
 51
167.0983532612970919
  0
ARC
  5
1391A
  8
0
 10
4359.949738156926287
 20
243.3289443215080894
 30
0.0
 40
1.63520629095315
 50
173.4272237469110109
 51
178.4239713940607999
  0
ARC
  5
1391B
  8
0
 10
4369.5753328536738991
 20
242.9683815878661051
 30
0.0
 40
11.2674827550353793
 50
177.9373787552906947
 51
178.6629016502506033
  0
LINE
  5
1391C
  8
0
 10
4358.2202476961228967
 20
243.5470534060700913
 30
0.0
 11
4357.870993668322626
 21
243.5470541571700096
 31
0.0
  0
ARC
  5
1391D
  8
0
 10
4358.2210629600813263
 20
243.4689276969481
 30
0.0
 40
0.0781299627615369
 50
8.3489983154166811
 51
90.5978760267310435
  0
LINE
  5
1391E
  8
0
 10
4358.3149613954628876
 20
243.3686343306700053
 30
0.0
 11
4358.2981413095976677
 21
243.3686343306700053
 31
0.0
  0
ARC
  5
1391F
  8
0
 10
4358.2724096860129066
 20
243.3669374506669101
 30
0.0
 40
0.0274453683656957
 50
3.5447187380103462
 51
14.5728530579156192
  0
ARC
  5
13920
  8
0
 10
4361.7966182631853371
 20
243.2292880728182922
 30
0.0
 40
3.50125097277592
 50
177.7190833386243014
 51
179.9700699454247967
  0
ARC
  5
13921
  8
0
 10
4358.3217395014198701
 20
243.3675409978046957
 30
0.0
 40
0.0236235059642187
 50
164.5279426277919015
 51
177.3473139858255081
  0
ARC
  5
13922
  8
0
 10
4355.8986385541238633
 20
243.3436491165959126
 30
0.0
 40
2.4044807162884232
 50
0.5953772347353221
 51
2.9002764339072629
  0
ARC
  5
13923
  8
0
 10
4358.1567098401292242
 20
243.4568439785961118
 30
0.0
 40
0.1435794017719354
 50
3.3805317125707481
 51
9.3911541919310437
  0
ARC
  5
13924
  8
0
 10
4358.1790588635012682
 20
259.2948196542748178
 30
0.0
 40
16.0641236656513513
 50
270.1837112762580091
 51
270.470301033731289
  0
ARC
  5
13925
  8
0
 10
4356.017805013769248
 20
746.3349335286324049
 30
0.0
 40
503.1090210426291947
 50
270.0604250691059178
 51
270.2519976448555212
  0
ARC
  5
13926
  8
0
 10
4355.5171679084451171
 20
-835.4667698047514932
 30
0.0
 40
1078.6934549955210514
 50
89.9452255933582165
 51
90.0342751721683356
  0
LINE
  5
13927
  8
0
 10
4357.7802904045238392
 20
243.6553220664700063
 30
0.0
 11
4356.5086368613228842
 21
243.6553248011699964
 31
0.0
  0
LINE
  5
13928
  8
0
 10
4356.469273199766576
 20
243.2262650043587087
 30
0.0
 11
4356.4692666980226932
 21
243.6159548023699983
 31
0.0
  0
ARC
  5
13929
  8
0
 10
4356.5086367765534305
 20
243.6159547226405095
 30
0.0
 40
0.0393700785295853
 50
89.9998766324178519
 51
179.9998839686589918
  0
ARC
  5
1392A
  8
0
 10
4357.7430968354028664
 20
243.2728754262118116
 30
0.0
 40
0.0820235713567889
 50
327.7557486456993274
 51
359.024722674973475
  0
LINE
  5
1392B
  8
0
 10
4357.8196668866312393
 20
243.2434663542578051
 30
0.0
 11
4357.8196604691229368
 21
243.6159314864700036
 31
0.0
  0
ARC
  5
1392C
  8
0
 10
4357.7802692047198434
 20
243.6159308077656078
 30
0.0
 40
0.0393912644091464
 50
0.0009871960233428
 51
89.9691642466104753
  0
ARC
  5
1392D
  8
0
 10
4357.8709531296017303
 20
243.5069952003584035
 30
0.0
 40
0.0400589773237666
 50
89.9420180394631643
 51
147.5259659599998088
  0
ARC
  5
1392E
  8
0
 10
4357.8764788724029131
 20
243.5046848201579053
 30
0.0
 40
0.0459724367385079
 50
148.7944985423596052
 51
180.285956267013006
  0
ARC
  5
1392F
  8
0
 10
4366.1778895044981255
 20
243.1944805942092103
 30
0.0
 40
8.3531358725845841
 50
177.8733345365527043
 51
179.4718434262134963
  0
ARC
  5
13930
  8
0
 10
4357.3038958510232987
 20
243.5863266903699866
 30
0.0
 40
0.8503937008000015
 50
357.3530073973835783
 51
191.0506029955498946
  0
ARC
  5
13931
  8
0
 10
4359.6265630222469554
 20
226.8542573334275971
 30
0.0
 40
1.100746553379923
 50
270.0068876419413755
 51
359.9897824266847124
  0
LINE
  5
13932
  8
0
 10
4360.6139559917228326
 20
243.5544386131111878
 30
0.0
 11
4360.6139559917228326
 21
247.5628109350699901
 31
0.0
  0
ARC
  5
13933
  8
0
 10
4353.42594434572311
 20
530.4789921576370944
 30
0.0
 40
287.2561391284677939
 50
269.7115945629402063
 51
270.28840543705968
  0
LINE
  5
13935
  8
0
 10
4359.6266953452222879
 20
225.7535107880009946
 30
0.0
 11
4347.2251933461920999
 21
225.7535107880009946
 31
0.0
  0
ENDSEC
  0
EOF
