  0
SECTION
  2
HEADER
  9
$ACADVER
  1
AC1009
  9
$INSBASE
 10
4652.2910447032436423
 20
292.2805159461054245
 30
0.0
  9
$EXTMIN
 10
4650.8654233792776722
 20
288.8538283325361817
 30
-0.0015258207003583
  9
$EXTMAX
 10
4657.6018974196549607
 20
293.4385963851775045
 30
0.0000000349246037
  9
$LIMMIN
 10
0.0
 20
0.0
  9
$LIMMAX
 10
11.6929133858000007
 20
8.2677165353999982
  9
$ORTHOMODE
 70
     0
  9
$REGENMODE
 70
     1
  9
$FILLMODE
 70
     1
  9
$QTEXTMODE
 70
     0
  9
$MIRRTEXT
 70
     0
  9
$DRAGMODE
 70
     2
  9
$LTSCALE
 40
0.6431102362
  9
$OSMODE
 70
   563
  9
$ATTMODE
 70
     1
  9
$TEXTSIZE
 40
0.2
  9
$TRACEWID
 40
0.05
  9
$TEXTSTYLE
  7
STANDARD
  9
$CLAYER
  8
0
  9
$CELTYPE
  6
BYLAYER
  9
$CECOLOR
 62
   256
  9
$DIMSCALE
 40
1.0
  9
$DIMASZ
 40
0.1875
  9
$DIMEXO
 40
0.0625
  9
$DIMDLI
 40
0.4443307087
  9
$DIMRND
 40
0.0
  9
$DIMDLE
 40
0.0
  9
$DIMEXE
 40
0.125
  9
$DIMTP
 40
0.01
  9
$DIMTM
 40
0.01
  9
$DIMTXT
 40
2.0
  9
$DIMCEN
 40
0.1052362205
  9
$DIMTSZ
 40
0.0
  9
$DIMTOL
 70
     1
  9
$DIMLIM
 70
     0
  9
$DIMTIH
 70
     1
  9
$DIMTOH
 70
     1
  9
$DIMSE1
 70
     0
  9
$DIMSE2
 70
     0
  9
$DIMTAD
 70
     0
  9
$DIMZIN
 70
     0
  9
$DIMBLK
  1

  9
$DIMASO
 70
     1
  9
$DIMSHO
 70
     1
  9
$DIMPOST
  1
\X
  9
$DIMAPOST
  1

  9
$DIMALT
 70
     1
  9
$DIMALTD
 70
     2
  9
$DIMALTF
 40
25.3999999999999986
  9
$DIMLFAC
 40
1.0
  9
$DIMTOFL
 70
     0
  9
$DIMTVP
 40
0.0
  9
$DIMTIX
 70
     0
  9
$DIMSOXD
 70
     0
  9
$DIMSAH
 70
     0
  9
$DIMBLK1
  1

  9
$DIMBLK2
  1

  9
$DIMSTYLE
  2
STANDARD
  9
$DIMCLRD
 70
     0
  9
$DIMCLRE
 70
     0
  9
$DIMCLRT
 70
     0
  9
$DIMTFAC
 40
1.0
  9
$DIMGAP
 40
0.09
  9
$LUNITS
 70
     2
  9
$LUPREC
 70
     4
  9
$SKETCHINC
 40
0.1
  9
$FILLETRAD
 40
0.0
  9
$AUNITS
 70
     0
  9
$AUPREC
 70
     0
  9
$MENU
  1
.
  9
$ELEVATION
 40
0.0
  9
$PELEVATION
 40
0.0
  9
$THICKNESS
 40
0.0
  9
$LIMCHECK
 70
     0
  9
$BLIPMODE
 70
     0
  9
$CHAMFERA
 40
0.0
  9
$CHAMFERB
 40
0.0
  9
$SKPOLY
 70
     0
  9
$TDCREATE
 40
2458060.468368056230247
  9
$TDUPDATE
 40
2459245.6220023147761822
  9
$TDINDWG
 40
0.5122755787
  9
$TDUSRTIMER
 40
0.5122755787
  9
$USRTIMER
 70
     1
  9
$ANGBASE
 50
0.0
  9
$ANGDIR
 70
     0
  9
$PDMODE
 70
     0
  9
$PDSIZE
 40
0.3125
  9
$PLINEWID
 40
0.0
  9
$COORDS
 70
     1
  9
$SPLFRAME
 70
     0
  9
$SPLINETYPE
 70
     6
  9
$SPLINESEGS
 70
     8
  9
$ATTDIA
 70
     1
  9
$ATTREQ
 70
     1
  9
$HANDLING
 70
     1
  9
$HANDSEED
  5
2205A
  9
$SURFTAB1
 70
     6
  9
$SURFTAB2
 70
     6
  9
$SURFTYPE
 70
     6
  9
$SURFU
 70
     6
  9
$SURFV
 70
     6
  9
$UCSNAME
  2

  9
$UCSORG
 10
0.0
 20
0.0
 30
0.0
  9
$UCSXDIR
 10
1.0
 20
0.0
 30
0.0
  9
$UCSYDIR
 10
0.0
 20
1.0
 30
0.0
  9
$PUCSNAME
  2

  9
$PUCSORG
 10
0.0
 20
0.0
 30
0.0
  9
$PUCSXDIR
 10
1.0
 20
0.0
 30
0.0
  9
$PUCSYDIR
 10
0.0
 20
1.0
 30
0.0
  9
$USERI1
 70
     0
  9
$USERI2
 70
     0
  9
$USERI3
 70
     0
  9
$USERI4
 70
     0
  9
$USERI5
 70
     0
  9
$USERR1
 40
0.0
  9
$USERR2
 40
0.0
  9
$USERR3
 40
0.0
  9
$USERR4
 40
0.0
  9
$USERR5
 40
0.0
  9
$WORLDVIEW
 70
     1
  9
$SHADEDGE
 70
     3
  9
$SHADEDIF
 70
    70
  9
$TILEMODE
 70
     1
  9
$MAXACTVP
 70
    64
  9
$PLIMCHECK
 70
     0
  9
$PEXTMIN
 10
1.0000000000000000E+20
 20
1.0000000000000000E+20
 30
1.0000000000000000E+20
  9
$PEXTMAX
 10
-1.0000000000000000E+20
 20
-1.0000000000000000E+20
 30
-1.0000000000000000E+20
  9
$PLIMMIN
 10
0.0
 20
0.0
  9
$PLIMMAX
 10
12.0
 20
9.0
  9
$UNITMODE
 70
     0
  9
$VISRETAIN
 70
     1
  9
$PLINEGEN
 70
     0
  9
$PSLTSCALE
 70
     1
  0
ENDSEC
  0
SECTION
  2
TABLES
  0
TABLE
  2
VPORT
 70
     1
  0
VPORT
  2
*ACTIVE
 70
     0
 10
0.0
 20
0.0
 11
1.0
 21
1.0
 12
742.8683038446404225
 22
158.5666072418327985
 13
0.0
 23
0.0
 14
1.0
 24
1.0
 15
0.0
 25
0.0
 16
0.0
 26
0.0
 36
60.4960186965801583
 17
3911.3653564453120453
 27
132.5796051025390057
 37
0.0
 40
5.7690394632750257
 41
1.9002217294900221
 42
50.0
 43
0.0
 44
0.0
 50
0.0
 51
0.0
 71
     0
 72
   100
 73
     1
 74
     1
 75
     0
 76
     0
 77
     0
 78
     0
  0
ENDTAB
  0
TABLE
  2
LTYPE
 70
     2
  0
LTYPE
  2
CONTINUOUS
 70
     0
  3
Solid line
 72
    65
 73
     0
 40
0.0
  0
LTYPE
  2
PHANTOM2
 70
     0
  3
___ _ _ ___ _ _ ___ _ _ ___ _ _
 72
    65
 73
     6
 40
1.25
 49
0.625
 49
-0.125
 49
0.125
 49
-0.125
 49
0.125
 49
-0.125
  0
ENDTAB
  0
TABLE
  2
LAYER
 70
     2
  0
LAYER
  2
0
 70
     0
 62
   255
  6
CONTINUOUS
  0
LAYER
  2
DEFPOINTS
 70
     0
 62
     7
  6
CONTINUOUS
  0
ENDTAB
  0
TABLE
  2
STYLE
 70
     1
  0
STYLE
  2
STANDARD
 70
     0
 40
0.0
 41
0.8
 50
0.0
 71
     0
 42
0.2
  3
txt
  4

  0
ENDTAB
  0
TABLE
  2
VIEW
 70
     0
  0
ENDTAB
  0
TABLE
  2
UCS
 70
     0
  0
ENDTAB
  0
TABLE
  2
APPID
 70
    11
  0
APPID
  2
ACAD
 70
     0
  0
APPID
  2
ACAD_MLEADERVER
 70
     0
  0
APPID
  2
ACAD_EXEMPT_FROM_CAD_STANDARDS
 70
     0
  0
APPID
  2
ACAD_NAV_VCDISPLAY
 70
     0
  0
APPID
  2
ACAECLAYERSTANDARD
 70
     0
  0
APPID
  2
ACCMTRANSPARENCY
 70
     0
  0
APPID
  2
ACAD_DSTYLE_DIMJAG
 70
     0
  0
APPID
  2
ACAD_DSTYLE_DIMTALN
 70
     0
  0
APPID
  2
ACDBATTR
 70
     0
  0
APPID
  2
ACADANNOTATIVE
 70
     0
  0
APPID
  2
DCO15
 70
     0
  0
ENDTAB
  0
TABLE
  2
DIMSTYLE
 70
     1
  0
DIMSTYLE
  2
STANDARD
 70
     0
  3

  4

  5

  6

  7

 40
1.0
 41
0.1875
 42
0.0625
 43
0.38
 44
0.125
 45
0.0
 46
0.0
 47
0.01
 48
0.01
140
0.15625
141
0.09
142
0.0
143
25.3999999999999986
144
1.0
145
0.0
146
1.0
147
0.09
 71
     1
 72
     0
 73
     1
 74
     1
 75
     0
 76
     0
 77
     0
 78
     4
170
     0
171
     2
172
     0
173
     0
174
     0
175
     0
176
     0
177
     0
178
     0
  0
ENDTAB
  0
ENDSEC
  0
SECTION
  2
BLOCKS
  0
BLOCK
  8
0
  2
$MODEL_SPACE
 70
     0
 10
0.0
 20
0.0
 30
0.0
  3
$MODEL_SPACE
  1

  0
ENDBLK
  5
21
  8
0
  0
BLOCK
 67
     1
  8
0
  2
$PAPER_SPACE
 70
     0
 10
0.0
 20
0.0
 30
0.0
  3
$PAPER_SPACE
  1

  0
ENDBLK
  5
1D
 67
     1
  8
0
  0
BLOCK
  8
0
  2
_CLOSED
 70
     0
 10
0.0
 20
0.0
 30
0.0
  3
_CLOSED
  1

  0
LINE
  5
21549
  8
0
  6
BYBLOCK
 62
     0
 10
0.0
 20
0.0
 30
0.0
 11
-1.0
 21
0.1666666667
 31
0.0
  0
LINE
  5
2154A
  8
0
  6
BYBLOCK
 62
     0
 10
-1.0
 20
0.1666666667
 30
0.0
 11
-1.0
 21
-0.1666666667
 31
0.0
  0
LINE
  5
2154B
  8
0
  6
BYBLOCK
 62
     0
 10
-1.0
 20
-0.1666666667
 30
0.0
 11
0.0
 21
0.0
 31
0.0
  0
LINE
  5
2154C
  8
0
  6
BYBLOCK
 62
     0
 10
-1.0
 20
0.0
 30
0.0
 11
0.0
 21
0.0
 31
0.0
  0
ENDBLK
  5
2154D
  8
0
  6
BYBLOCK
 62
     0
  0
ENDSEC
  0
SECTION
  2
ENTITIES
  0
LINE
  5
219F0
  8
0
 10
4651.9361888278435799
 20
291.9675367669054253
 30
0.0
 11
4651.9362821551430898
 21
292.0232292004054102
 31
0.0
  0
LINE
  5
219F1
  8
0
 10
4652.0022589303443965
 20
291.9618561633054128
 30
0.0
 11
4652.002276712287312
 21
291.9724616924004863
 31
0.0
  0
LINE
  5
219F2
  8
0
 10
4652.0022571895442525
 20
291.9435403108053038
 30
0.0
 11
4652.0022748550436518
 21
291.9540763799054162
 31
0.0
  0
LINE
  5
219F3
  8
0
 10
4652.0022650832443105
 20
291.9309707545053243
 30
0.0
 11
4652.0022768379440095
 21
291.937981477705307
 31
0.0
  0
LINE
  5
219F4
  8
0
 10
4652.0219271158439369
 20
291.9517892676054203
 30
0.0
 11
4652.0219505724453484
 21
291.9657792538052945
 31
0.0
  0
LINE
  5
219F5
  8
0
 10
4652.0219254123439896
 20
291.9334957083053155
 30
0.0
 11
4652.0219430779443428
 21
291.9440317774053142
 31
0.0
  0
LINE
  5
219F6
  8
0
 10
4652.0219331490443437
 20
291.9208324300054187
 30
0.0
 11
4652.0219450234435499
 21
291.9279145820053145
 31
0.0
  0
LINE
  5
219F7
  8
0
 10
4652.0300947051437106
 20
291.9859175469052843
 30
0.0
 11
4652.0300982314529392
 21
291.9880206829171243
 31
0.0
  0
LINE
  5
219F8
  8
0
 10
4652.0300787495280019
 20
291.9591236756648982
 30
0.0
 11
4652.0301050948428383
 21
291.9748365827052794
 31
0.0
  0
LINE
  5
219F9
  8
0
 10
4652.0300723737445878
 20
291.9380434539053226
 30
0.0
 11
4652.030092900244199
 21
291.9502858720052814
 31
0.0
  0
LINE
  5
219FA
  8
0
 10
4652.0300753557439748
 20
291.9225444255054072
 30
0.0
 11
4652.0300901602440717
 21
291.9313741457053197
 31
0.0
  0
LINE
  5
219FB
  8
0
 10
4652.0300877924437373
 20
291.9126843815054144
 30
0.0
 11
4652.0300967782432053
 21
291.9180436821052922
 31
0.0
  0
LINE
  5
219FC
  8
0
 10
4652.0301101163440762
 20
291.9087212142052863
 30
0.0
 11
4652.0300952363477336
 21
291.9104267590000745
 31
0.0
  0
LINE
  5
219FD
  8
0
 10
4652.0497646100429847
 20
291.9768761035053899
 30
0.0
 11
4652.04979662187543
 21
291.9959686044006162
 31
0.0
  0
LINE
  5
219FE
  8
0
 10
4652.049763174144573
 20
291.9587421474054167
 30
0.0
 11
4652.0497751319453528
 21
291.9658740334053277
 31
0.0
  0
LINE
  5
219FF
  8
0
 10
4652.0497734217442485
 20
291.9302988767054217
 30
0.0
 11
4652.0497910872436478
 21
291.9408349458054204
 31
0.0
  0
LINE
  5
21A00
  8
0
 10
4652.0497578296435677
 20
291.9037218323052798
 30
0.0
 11
4652.0497621782442366
 21
291.9063154175054251
 31
0.0
  0
LINE
  5
21A01
  8
0
 10
4652.0497797493444523
 20
291.8995176311053115
 30
0.0
 11
4652.0497828633742756
 21
291.9013749259851807
 31
0.0
  0
LINE
  5
21A02
  8
0
 10
4652.0506816888437243
 20
291.9288608229052784
 30
0.0
 11
4652.0506624330428167
 21
291.917376252005397
 31
0.0
  0
LINE
  5
21A03
  8
0
 10
4652.0579240107435908
 20
291.9888429204053182
 30
0.0
 11
4652.0579407503346374
 21
291.9988267885105984
 31
0.0
  0
LINE
  5
21A04
  8
0
 10
4652.0579035981436391
 20
291.9593908804054081
 30
0.0
 11
4652.0579326651441079
 21
291.9767270505054171
 31
0.0
  0
LINE
  5
21A05
  8
0
 10
4652.0579200413440049
 20
291.9173652503054086
 30
0.0
 11
4652.0579524700060574
 21
291.9367063441595178
 31
0.0
  0
LINE
  5
21A06
  8
0
 10
4652.0579154838442264
 20
291.8973694720053231
 30
0.0
 11
4652.0579040082066058
 21
291.9011054697966188
 31
0.0
  0
LINE
  5
21A07
  8
0
 10
4652.0775957311443563
 20
291.9808843486054002
 30
0.0
 11
4652.0776307073438147
 21
292.0017448700053251
 31
0.0
  0
LINE
  5
21A08
  8
0
 10
4652.0775756339453437
 20
291.9516203968054242
 30
0.0
 11
4652.07760452774437
 21
291.9688532367052858
 31
0.0
  0
LINE
  5
21A09
  8
0
 10
4652.0776050557442431
 20
291.9173354100053075
 30
0.0
 11
4652.0776310112441934
 21
291.9328158035053207
 31
0.0
  0
LINE
  5
21A0A
  8
0
 10
4652.077587346443579
 20
291.8894956582054192
 30
0.0
 11
4652.077593765164238
 21
291.8933239345424226
 31
0.0
  0
LINE
  5
21A0B
  8
0
 10
4652.0848618217441981
 20
291.9301930544053221
 30
0.0
 11
4652.0848402453430026
 21
291.9173244422053131
 31
0.0
  0
LINE
  5
21A0C
  8
0
 10
4652.0857581203808877
 20
291.9946336146771273
 30
0.0
 11
4652.0857790377858691
 21
292.0071091678315156
 31
0.0
  0
LINE
  5
21A0D
  8
0
 10
4652.0857332322939328
 20
291.9625122850579828
 30
0.0
 11
4652.0857650203442972
 21
291.9814713277053215
 31
0.0
  0
LINE
  5
21A0E
  8
0
 10
4652.0857266525435989
 20
291.8894777024053155
 30
0.0
 11
4652.0857311304380346
 21
291.8921484015979217
 31
0.0
  0
LINE
  5
21A0F
  8
0
 10
4652.0857479601436353
 20
291.8849083719052828
 30
0.0
 11
4652.0857515031430012
 21
291.8870214971054224
 31
0.0
  0
LINE
  5
21A10
  8
0
 10
4652.1054315549454259
 20
291.9876973615052975
 30
0.0
 11
4652.1054693340720405
 21
292.0102295680507041
 31
0.0
  0
LINE
  5
21A11
  8
0
 10
4652.1054069986439572
 20
291.9557738807052942
 30
0.0
 11
4652.1054386016430726
 21
291.9746225722054191
 31
0.0
  0
LINE
  5
21A12
  8
0
 10
4652.1054005091446015
 20
291.8827931303054015
 30
0.0
 11
4652.1054050474631367
 21
291.8854998951215975
 31
0.0
  0
LINE
  5
21A13
  8
0
 10
4652.1054215413441852
 20
291.8780596163052792
 30
0.0
 11
4652.1054252693429589
 21
291.8802830631054235
 31
0.0
  0
LINE
  5
21A14
  8
0
 10
4652.1063495971429802
 20
291.9229791022053178
 30
0.0
 11
4652.1063400615439605
 21
291.9172918509053147
 31
0.0
  0
LINE
  5
21A15
  8
0
 10
4652.1135969544438922
 20
292.0032420158053128
 30
0.0
 11
4652.1136143290359541
 21
292.0136045857468048
 31
0.0
  0
LINE
  5
21A16
  8
0
 10
4652.1135675011428248
 20
291.968397873005415
 30
0.0
 11
4652.1136020523435946
 21
291.9890048990052946
 31
0.0
  0
LINE
  5
21A17
  8
0
 10
4652.1135478795440577
 20
291.9394176044053211
 30
0.0
 11
4652.1135765118442578
 21
291.9564944998052738
 31
0.0
  0
LINE
  5
21A18
  8
0
 10
4652.1135976699442836
 20
291.9172808492053264
 30
0.0
 11
4652.1136034990440749
 21
291.9207574566053154
 31
0.0
  0
LINE
  5
21A19
  8
0
 10
4652.1135593305443763
 20
291.8771369213054072
 30
0.0
 11
4652.1135660292429748
 21
291.8811321641053951
 31
0.0
  0
LINE
  5
21A1A
  8
0
 10
4652.1135851130438823
 20
291.8752365658053236
 30
0.0
 11
4652.1135860476442758
 21
291.8757939595053017
 31
0.0
  0
LINE
  5
21A1B
  8
0
 10
4652.1332720326454364
 20
291.9972860145052778
 30
0.0
 11
4652.1333057309730066
 21
292.0173844195451238
 31
0.0
  0
LINE
  5
21A1C
  8
0
 10
4652.1332429147441871
 20
291.9626419849054173
 30
0.0
 11
4652.1332772772429962
 21
291.9831364333052761
 31
0.0
  0
LINE
  5
21A1D
  8
0
 10
4652.1332235049439987
 20
291.9337879856054201
 30
0.0
 11
4652.1332520208452479
 21
291.9507954321052807
 31
0.0
  0
LINE
  5
21A1E
  8
0
 10
4652.1332348395453664
 20
291.8714378536053005
 30
0.0
 11
4652.1332416546429158
 21
291.8755025452052791
 31
0.0
  0
LINE
  5
21A1F
  8
0
 10
4652.1332603379441935
 20
291.8693681001053051
 30
0.0
 11
4652.1332613065442274
 21
291.8699457899052732
 31
0.0
  0
LINE
  5
21A20
  8
0
 10
4652.1414405140440067
 20
292.0146688272052984
 30
0.0
 11
4652.1414474123212131
 21
292.0187830819486976
 31
0.0
  0
LINE
  5
21A21
  8
0
 10
4652.1414063231013643
 20
291.9769990339921151
 30
0.0
 11
4652.1414437324428945
 21
291.9993107382052813
 31
0.0
  0
LINE
  5
21A22
  8
0
 10
4652.1413822613403681
 20
291.9453705319172059
 30
0.0
 11
4652.1414135976428952
 21
291.9640601529052901
 31
0.0
  0
LINE
  5
21A23
  8
0
 10
4652.1413759157439927
 20
291.8724756200052752
 30
0.0
 11
4652.1413805933443655
 21
291.8752654506054114
 31
0.0
  0
LINE
  5
21A24
  8
0
 10
4652.1413965373440078
 20
291.8674971970053207
 30
0.0
 11
4652.1414005411443213
 21
291.8698851443052718
 31
0.0
  0
LINE
  5
21A25
  8
0
 10
4652.1611171927443138
 20
292.0096673960053977
 30
0.0
 11
4652.16113749006945
 21
292.021773163168973
 31
0.0
  0
LINE
  5
21A26
  8
0
 10
4652.1610833381428165
 20
291.9721982678053109
 30
0.0
 11
4652.1611205531444284
 21
291.9943940666054232
 31
0.0
  0
LINE
  5
21A27
  8
0
 10
4652.1610594917437993
 20
291.9406982465054057
 30
0.0
 11
4652.1610906986443297
 21
291.9593106352053269
 31
0.0
  0
LINE
  5
21A28
  8
0
 10
4652.1610531960441222
 20
291.8678330367054059
 30
0.0
 11
4652.1610579142443385
 21
291.8706470966052962
 31
0.0
  0
LINE
  5
21A29
  8
0
 10
4652.1610736383436233
 20
291.8627476794052882
 30
0.0
 11
4652.1610777625437549
 21
291.86520742880532
 31
0.0
  0
LINE
  5
21A2A
  8
0
 10
4652.1692497274443667
 20
291.9883332488053043
 30
0.0
 11
4652.1692901093438195
 21
292.0124178663053272
 31
0.0
  0
LINE
  5
21A2B
  8
0
 10
4652.169221099544302
 20
291.9539814426054249
 30
0.0
 11
4652.1692551861433458
 21
291.9743113917053279
 31
0.0
  0
LINE
  5
21A2C
  8
0
 10
4652.1692019996289673
 20
291.9253122509376226
 30
0.0
 11
4652.1692303449435713
 21
291.9422180158052811
 31
0.0
  0
LINE
  5
21A2D
  8
0
 10
4652.1692131636436898
 20
291.8628604373054145
 30
0.0
 11
4652.1692201493442553
 21
291.8670268197054156
 31
0.0
  0
LINE
  5
21A2E
  8
0
 10
4652.169238246943678
 20
291.8605430585054137
 30
0.0
 11
4652.1692394913443422
 21
291.8612852476052808
 31
0.0
  0
LINE
  5
21A2F
  8
0
 10
4652.1889282947431639
 20
291.9844582454052784
 30
0.0
 11
4652.1889685033429487
 21
292.0084395100054167
 31
0.0
  0
LINE
  5
21A30
  8
0
 10
4652.1888998736440044
 20
291.9502297563054185
 30
0.0
 11
4652.1889338437440529
 21
291.9704902511052751
 31
0.0
  0
LINE
  5
21A31
  8
0
 10
4652.1888809046440656
 20
291.921638716505413
 30
0.0
 11
4652.1889091779439696
 21
291.9385014619052754
 31
0.0
  0
LINE
  5
21A32
  8
0
 10
4652.1888919966440881
 20
291.8591438834054088
 30
0.0
 11
4652.1888990543429827
 21
291.8633532762053164
 31
0.0
  0
LINE
  5
21A33
  8
0
 10
4652.188916904544385
 20
291.8567219179053041
 30
0.0
 11
4652.1889182654431352
 21
291.857533561305388
 31
0.0
  0
LINE
  5
21A34
  8
0
 10
4652.1970977607443274
 20
292.0024282795054091
 30
0.0
 11
4652.1971371554936923
 21
292.0259241090412843
 31
0.0
  0
LINE
  5
21A35
  8
0
 10
4652.1970643682443551
 20
291.9652347227053042
 30
0.0
 11
4652.1971013218453663
 21
291.9872745808053196
 31
0.0
  0
LINE
  5
21A36
  8
0
 10
4652.1970408271126871
 20
291.9339167746563248
 30
0.0
 11
4652.1970718635429876
 21
291.9524274918052811
 31
0.0
  0
LINE
  5
21A37
  8
0
 10
4652.1970346149428224
 20
291.8611013758052763
 30
0.0
 11
4652.1970393417450396
 21
291.8639205414916091
 31
0.0
  0
LINE
  5
21A38
  8
0
 10
4652.1970548032441002
 20
291.8558645359054253
 30
0.0
 11
4652.1970590979435656
 21
291.8584259756053143
 31
0.0
  0
LINE
  5
21A39
  8
0
 10
4652.2167778828443261
 20
291.9994806251053205
 30
0.0
 11
4652.2168212829437834
 21
292.0253652876053252
 31
0.0
  0
LINE
  5
21A3A
  8
0
 10
4652.2167446745443158
 20
291.9623968957054103
 30
0.0
 11
4652.2167815238435651
 21
291.9843745743053205
 31
0.0
  0
LINE
  5
21A3B
  8
0
 10
4652.216721255344055
 20
291.9311516709054217
 30
0.0
 11
4652.2167522236441073
 21
291.9496217543053262
 31
0.0
  0
LINE
  5
21A3C
  8
0
 10
4652.2167150764444159
 20
291.8583561523054186
 30
0.0
 11
4652.2167198259394354
 21
291.8611888426044061
 31
0.0
  0
LINE
  5
21A3D
  8
0
 10
4652.2167351633443104
 20
291.8530587984053
 30
0.0
 11
4652.2167395170426971
 21
291.8556554257447146
 31
0.0
  0
LINE
  5
21A3E
  8
0
 10
4652.2249505864429011
 20
292.0193815931053223
 30
0.0
 11
4652.2249652492246241
 21
292.028126758098324
 31
0.0
  0
LINE
  5
21A3F
  8
0
 10
4652.2249121449431186
 20
291.9791767160053269
 30
0.0
 11
4652.2249521223429838
 21
292.0030200219052858
 31
0.0
  0
LINE
  5
21A40
  8
0
 10
4652.2248840003439909
 20
291.9451130865053869
 30
0.0
 11
4652.2249178147440034
 21
291.9652806960053226
 31
0.0
  0
LINE
  5
21A41
  8
0
 10
4652.2248652067428338
 20
291.9166266524053981
 30
0.0
 11
4652.224893383444396
 21
291.933431808905425
 31
0.0
  0
LINE
  5
21A42
  8
0
 10
4652.224876202143605
 20
291.8540742304052742
 30
0.0
 11
4652.2248833564453889
 21
291.8583412121054153
 31
0.0
  0
LINE
  5
21A43
  8
0
 10
4652.2249008755443356
 20
291.8515123628054084
 30
0.0
 11
4652.2249023921440312
 21
291.8524168915054133
 31
0.0
  0
LINE
  5
21A44
  8
0
 10
4652.2446322816440443
 20
292.0173721203054242
 30
0.0
 11
4652.2446520973280712
 21
292.0291906201144911
 31
0.0
  0
LINE
  5
21A45
  8
0
 10
4652.2445939856452242
 20
291.9772540138052932
 30
0.0
 11
4652.2446338803438266
 21
292.0010480649053193
 31
0.0
  0
LINE
  5
21A46
  8
0
 10
4652.244565939745371
 20
291.943249313005424
 30
0.0
 11
4652.24459969844429
 21
291.963383711705319
 31
0.0
  0
LINE
  5
21A47
  8
0
 10
4652.2445472089430041
 20
291.9148003081053275
 30
0.0
 11
4652.2445753510428403
 21
291.9315848550053261
 31
0.0
  0
LINE
  5
21A48
  8
0
 10
4652.2445581697429589
 20
291.8522272765054026
 30
0.0
 11
4652.2445653586428307
 21
291.8565148678052878
 31
0.0
  0
LINE
  5
21A49
  8
0
 10
4652.2445827592437126
 20
291.8496153785052911
 30
0.0
 11
4652.2445843315435923
 21
291.8505531180052799
 31
0.0
  0
LINE
  5
21A4A
  8
0
 10
4652.25276457124437
 20
291.9958917630053179
 30
0.0
 11
4652.2528077890437999
 21
292.0216677885052832
 31
0.0
  0
LINE
  5
21A4B
  8
0
 10
4652.2527315832439854
 20
291.9589394898054024
 30
0.0
 11
4652.2527683077441907
 21
291.9808427212053061
 31
0.0
  0
LINE
  5
21A4C
  8
0
 10
4652.2527083101440439
 20
291.9277813868052931
 30
0.0
 11
4652.2527391967441872
 21
291.9462027915054136
 31
0.0
  0
LINE
  5
21A4D
  8
0
 10
4652.2527021712439819
 20
291.8550097264052852
 30
0.0
 11
4652.2527069926436525
 21
291.8578852739054241
 31
0.0
  0
LINE
  5
21A4E
  8
0
 10
4652.2527221365444348
 20
291.8496398357053181
 30
0.0
 11
4652.2527265809439996
 21
291.8522905691053211
 31
0.0
  0
LINE
  5
21A4F
  8
0
 10
4652.2724479721427997
 20
291.9948996543054136
 30
0.0
 11
4652.2724911408440676
 21
292.0206463716053236
 31
0.0
  0
LINE
  5
21A50
  8
0
 10
4652.2724150436442869
 20
291.9579828770054064
 30
0.0
 11
4652.2724517344440756
 21
291.9798660019054068
 31
0.0
  0
LINE
  5
21A51
  8
0
 10
4652.2723918101437448
 20
291.9268483171053958
 30
0.0
 11
4652.2724226746440763
 21
291.9452565656054048
 31
0.0
  0
LINE
  5
21A52
  8
0
 10
4652.2723856820439323
 20
291.8540831065054135
 30
0.0
 11
4652.2723905113452929
 21
291.8569634151053265
 31
0.0
  0
LINE
  5
21A53
  8
0
 10
4652.2724056143442795
 20
291.8486936097053217
 30
0.0
 11
4652.272410080843656
 21
291.8513574995054114
 31
0.0
  0
LINE
  5
21A54
  8
0
 10
4652.2806218727428131
 20
292.0155145621054089
 30
0.0
 11
4652.2806463684091796
 21
292.0301242792884864
 31
0.0
  0
LINE
  5
21A55
  8
0
 10
4652.2805837083442384
 20
291.9754749286054221
 30
0.0
 11
4652.2806235283433125
 21
291.9992244257052789
 31
0.0
  0
LINE
  5
21A56
  8
0
 10
4652.2805557518431669
 20
291.9415235637052888
 30
0.0
 11
4652.2805894602443004
 21
291.9616278995054017
 31
0.0
  0
LINE
  5
21A57
  8
0
 10
4652.2805370779442455
 20
291.9131084531052807
 30
0.0
 11
4652.2805651887429121
 21
291.9298743351052963
 31
0.0
  0
LINE
  5
21A58
  8
0
 10
4652.2805480074439402
 20
291.850516756605316
 30
0.0
 11
4652.2805552276440721
 21
291.8548230128052978
 31
0.0
  0
LINE
  5
21A59
  8
0
 10
4652.2805725210437231
 20
291.847859566305317
 30
0.0
 11
4652.2805741436441167
 21
291.8488273687053152
 31
0.0
  0
LINE
  5
21A5A
  8
0
 10
4652.3003068871439609
 20
292.0154847218054215
 30
0.0
 11
4652.3003314469679026
 21
292.030132714799322
 31
0.0
  0
LINE
  5
21A5B
  8
0
 10
4652.3002687226444323
 20
291.975445088305321
 30
0.0
 11
4652.3003085427435508
 21
291.9991945854054052
 31
0.0
  0
LINE
  5
21A5C
  8
0
 10
4652.3002407662443147
 20
291.941493723405415
 30
0.0
 11
4652.3002744745435848
 21
291.9615980592054143
 31
0.0
  0
LINE
  5
21A5D
  8
0
 10
4652.3002220922444394
 20
291.9130786128054069
 30
0.0
 11
4652.3002502031431504
 21
291.9298444948054225
 31
0.0
  0
LINE
  5
21A5E
  8
0
 10
4652.300233021744134
 20
291.8504869163052717
 30
0.0
 11
4652.300240241944266
 21
291.8547931725054241
 31
0.0
  0
LINE
  5
21A5F
  8
0
 10
4652.3002575353430075
 20
291.8478297260052727
 30
0.0
 11
4652.300259158044355
 21
291.8487975284053277
 31
0.0
  0
LINE
  5
21A60
  8
0
 10
4652.0289728207044391
 20
291.9875010369067923
 30
0.0
 11
4652.0300947051437106
 21
291.9859175469052843
 31
0.0
  0
LINE
  5
21A61
  8
0
 10
4651.9739175165441338
 20
291.8997589508052783
 30
0.0
 11
4651.9662178105445491
 21
291.9067079212052818
 31
0.0
  0
LINE
  5
21A62
  8
0
 10
4652.0332230948442884
 20
291.9488153394053143
 30
0.0
 11
4652.0336676802444345
 21
291.9486090056054195
 31
0.0
  0
LINE
  5
21A63
  8
0
 10
4652.0332229403429665
 20
291.9488150380054208
 30
0.0
 11
4652.0336676802444345
 21
291.9486090056054195
 31
0.0
  0
LINE
  5
21A64
  8
0
 10
4652.0506624330428167
 20
291.917376252005397
 30
0.0
 11
4652.0848402453430026
 21
291.9173244422053131
 31
0.0
  0
LINE
  5
21A65
  8
0
 10
4652.1063400615439605
 20
291.9172918509053147
 30
0.0
 11
4652.1256774054436391
 21
291.9172625376053247
 31
0.0
  0
LINE
  5
21A66
  8
0
 10
4652.0466850913444432
 20
291.958746813405412
 30
0.0
 11
4652.0554329194437742
 21
291.9587335527053256
 31
0.0
  0
LINE
  5
21A67
  8
0
 10
4655.4647243879444432
 20
292.2516684878053184
 30
0.0
 11
4655.5629047442444062
 21
289.451503819405275
 31
0.0
  0
LINE
  5
21A68
  8
0
 10
4652.2433408375445651
 20
291.8585202798054183
 30
0.0
 11
4652.2428564751444355
 21
291.8584128558053976
 31
0.0
  0
LINE
  5
21A69
  8
0
 10
4652.2910447032436423
 20
292.5561153390335107
 30
0.0
 11
4651.5589808126042044
 21
292.5573440948311941
 31
0.0
  0
LINE
  5
21A6A
  8
0
 10
4657.1169886695979585
 20
292.243538367668009
 30
0.0
 11
4657.0191846807438196
 21
289.4515038185052731
 31
0.0
  0
ARC
  5
21A6B
  8
0
 10
4652.2907205983983658
 20
290.9756644740505749
 30
0.0
 40
1.0607503372294
 50
90.8349052545576541
 51
95.0888437916427165
  0
ARC
  5
21A6C
  8
0
 10
4652.287709115895268
 20
291.0497319462385803
 30
0.0
 40
0.9804046106984264
 50
91.9526128714350364
 51
94.1667410859097345
  0
ARC
  5
21A6D
  8
0
 10
4652.2781383833926157
 20
291.1109395190126179
 30
0.0
 40
0.9352339718137169
 50
93.2664988447690888
 51
100.2013305968628032
  0
ARC
  5
21A6E
  8
0
 10
4652.2820821938530571
 20
291.128813228863919
 30
0.0
 40
0.9011235158814237
 50
94.1752572683408857
 51
97.1344216378938228
  0
ARC
  5
21A6F
  8
0
 10
4652.2601803104425926
 20
291.3032372609741856
 30
0.0
 40
0.7253298029245436
 50
97.1289507022076748
 51
102.3889845685770013
  0
ARC
  5
21A70
  8
0
 10
4652.2067365300626989
 20
291.5169982174513734
 30
0.0
 40
0.5124293883618892
 50
100.3451238635518052
 51
111.1523825120204947
  0
ARC
  5
21A71
  8
0
 10
4652.284619350543835
 20
291.5126084185054083
 30
0.0
 40
0.4808710069
 50
117.5779345281867023
 51
118.1254880774667981
  0
ARC
  5
21A72
  8
0
 10
4652.2834244763444076
 20
291.5128349408054191
 30
0.0
 40
0.4784025011
 50
119.2353725975117982
 51
121.4707854647006968
  0
ARC
  5
21A73
  8
0
 10
4652.2832665181440461
 20
291.511160510705281
 30
0.0
 40
0.4780891691
 50
119.1100336617881936
 51
121.4005099961968028
  0
ARC
  5
21A74
  8
0
 10
4652.2832079972440624
 20
291.5304077615052734
 30
0.0
 40
0.4779761258
 50
119.7253956344156052
 51
121.6938780104883051
  0
ARC
  5
21A75
  8
0
 10
4652.2831789287392894
 20
291.5237910977581919
 30
0.0
 40
0.477916060940915
 50
119.2342876745553042
 51
121.694222017629599
  0
ARC
  5
21A76
  8
0
 10
4652.2827632335438466
 20
291.5416795033053177
 30
0.0
 40
0.4771165629
 50
121.1450115864087991
 51
121.4722348649962953
  0
ARC
  5
21A77
  8
0
 10
4652.2886718357358404
 20
290.9513662869279074
 30
0.0
 40
1.0951490705302671
 50
89.8758567179544485
 51
93.340989513398938
  0
ARC
  5
21A78
  8
0
 10
4652.2888901376109061
 20
291.0170442446255947
 30
0.0
 40
1.0131135752536371
 50
89.8781502750409942
 51
91.9563776984921475
  0
ARC
  5
21A79
  8
0
 10
4651.8676994931438458
 20
292.2942425752053168
 30
0.0
 40
0.4087529423
 50
315.8766846858945883
 51
317.8966946489990733
  0
ARC
  5
21A7A
  8
0
 10
4651.8187319596436282
 20
292.368539785005396
 30
0.0
 40
0.5971302963000001
 50
323.7540311552788239
 51
325.4634858155172878
  0
ARC
  5
21A7B
  8
0
 10
4651.8242667794438603
 20
292.3491924796052785
 30
0.0
 40
0.5355499775000001
 50
321.7139190610749893
 51
323.356229594198112
  0
ARC
  5
21A7C
  8
0
 10
4651.8719996821437235
 20
292.3253720491052832
 30
0.0
 40
0.5192042274999999
 50
320.4688185227449253
 51
322.209143076211717
  0
ARC
  5
21A7D
  8
0
 10
4651.8467617644437269
 20
292.3331501949053859
 30
0.0
 40
0.5117423562
 50
320.7295209512141128
 51
322.5065805846851958
  0
ARC
  5
21A7E
  8
0
 10
4651.8713519014436315
 20
292.3080385986053216
 30
0.0
 40
0.4631729807000001
 50
318.2267937815929031
 51
320.0900844270003063
  0
ARC
  5
21A7F
  8
0
 10
4651.8506802926440287
 20
292.3140691367054274
 30
0.0
 40
0.4490287093
 50
318.5554207865927765
 51
320.0447283159230096
  0
ARC
  5
21A80
  8
0
 10
4651.9175542605453302
 20
292.2830899761053161
 30
0.0
 40
0.4477641329
 50
316.9191491871608832
 51
318.7975186857938752
  0
ARC
  5
21A81
  8
0
 10
4651.8926024785441768
 20
292.2910732022053253
 30
0.0
 40
0.4397943975
 50
317.1596598310097193
 51
319.0824499339872204
  0
ARC
  5
21A82
  8
0
 10
4651.9118306322443459
 20
292.2673074990054261
 30
0.0
 40
0.3959656761
 50
314.4117575742869803
 51
316.4421661627001185
  0
ARC
  5
21A83
  8
0
 10
4651.8870332729438815
 20
292.2774670142052855
 30
0.0
 40
0.3871820538000001
 50
314.7097174338184118
 51
316.7990329529854989
  0
ARC
  5
21A84
  8
0
 10
4651.9304133506429935
 20
292.250700115505424
 30
0.0
 40
0.3748413118
 50
313.2469703219003918
 51
315.3507042236096254
  0
ARC
  5
21A85
  8
0
 10
4651.9031480623443713
 20
292.2554378082053859
 30
0.0
 40
0.3458342371
 50
311.7150281371780807
 51
313.9392936912030905
  0
ARC
  5
21A86
  8
0
 10
4651.9197609530438058
 20
292.2391808240054161
 30
0.0
 40
0.3266083796
 50
310.4311823834005963
 51
312.7411682082187099
  0
ARC
  5
21A87
  8
0
 10
4651.9304397413443439
 20
292.2194604523053272
 30
0.0
 40
0.290410306
 50
307.0549261094531062
 51
309.5293672892058794
  0
ARC
  5
21A88
  8
0
 10
4651.9182815269450657
 20
292.3038298761052829
 30
0.0
 40
0.5037397477000001
 50
319.3154746871863949
 51
321.065357201606389
  0
ARC
  5
21A89
  8
0
 10
4651.8951604733429122
 20
292.3083078357054205
 30
0.0
 40
0.4940654078000001
 50
319.4823992972031874
 51
321.2743460849087
  0
ARC
  5
21A8A
  8
0
 10
4651.9735888840441476
 20
292.1248957405052806
 30
0.0
 40
0.1603428176
 50
286.917625225894426
 51
290.6317603656964934
  0
ARC
  5
21A8B
  8
0
 10
4651.9848625289432675
 20
292.2044061249052902
 30
0.0
 40
0.3259429625
 50
308.7558436366658157
 51
311.0109419621858251
  0
ARC
  5
21A8C
  8
0
 10
4651.9601608095454139
 20
292.2128332642054147
 30
0.0
 40
0.3171840312
 50
308.9114277223890213
 51
311.2362280305002855
  0
ARC
  5
21A8D
  8
0
 10
4651.9687698684429051
 20
292.1933626124053944
 30
0.0
 40
0.2833465505999999
 50
305.4843507387852242
 51
307.967536583192782
  0
ARC
  5
21A8E
  8
0
 10
4651.9443560939444069
 20
292.2039814768053247
 30
0.0
 40
0.2735929572
 50
305.6302448421109261
 51
308.2096040019986276
  0
ARC
  5
21A8F
  8
0
 10
4651.9820268440444124
 20
292.1782418386054019
 30
0.0
 40
0.266968658
 50
304.0612872232915151
 51
306.6523230662003243
  0
ARC
  5
21A90
  8
0
 10
4651.949810257743593
 20
292.187113301405418
 30
0.0
 40
0.2426135712
 50
301.78424169136008
 51
304.5607950022185264
  0
ARC
  5
21A91
  8
0
 10
4651.9856766659440837
 20
292.161659774105317
 30
0.0
 40
0.2381725593
 50
300.1804219213576062
 51
302.958720833007817
  0
ARC
  5
21A92
  8
0
 10
4651.9611207251427913
 20
292.1726747273053206
 30
0.0
 40
0.2282334485
 50
300.1932453679976902
 51
303.0963506251007971
  0
ARC
  5
21A93
  8
0
 10
4651.970594649744271
 20
292.1460551852052845
 30
0.0
 40
0.1905172898
 50
293.9961587001903922
 51
297.2795624370804717
  0
ARC
  5
21A94
  8
0
 10
4652.0049700788440532
 20
292.1194559323052999
 30
0.0
 40
0.1862447838
 50
292.3809499268027139
 51
295.6963790694813952
  0
ARC
  5
21A95
  8
0
 10
4651.9979449349912102
 20
292.0937785008370042
 30
0.0
 40
0.1440003033057953
 50
279.586857333738692
 51
283.5830892286446101
  0
ARC
  5
21A96
  8
0
 10
4652.001995854145207
 20
292.0871905247054201
 30
0.0
 40
0.1397545107
 50
277.5005154915190815
 51
281.590692209285578
  0
ARC
  5
21A97
  8
0
 10
4652.0272571753348529
 20
292.1052731075267843
 30
0.0
 40
0.1739882975758726
 50
267.6881790555017915
 51
270.9329298976364839
  0
ARC
  5
21A98
  8
0
 10
4652.0450702825291955
 20
292.0447460187010051
 30
0.0
 40
0.1260551641430165
 50
259.4235290124465791
 51
263.9407979774065893
  0
ARC
  5
21A99
  8
0
 10
4652.0482488844436375
 20
292.0428371677052723
 30
0.0
 40
0.1261092777
 50
257.1712874120107131
 51
261.7159826432952059
  0
ARC
  5
21A9A
  8
0
 10
4651.9951919773438931
 20
292.0795991519053132
 30
0.0
 40
0.1257214183
 50
268.7380531774253996
 51
273.2215350742177975
  0
ARC
  5
21A9B
  8
0
 10
4652.0173204635439106
 20
292.0599033281052925
 30
0.0
 40
0.122848586
 50
258.3094417042004807
 51
262.9577597493891972
  0
ARC
  5
21A9C
  8
0
 10
4652.0226811755828749
 20
292.0614471035211182
 30
0.0
 40
0.1279536272081502
 50
269.6615782088888977
 51
274.0686105444656278
  0
ARC
  5
21A9D
  8
0
 10
4652.0397395620439056
 20
292.1993697899054041
 30
0.0
 40
0.3583257574
 50
310.4880379446599932
 51
312.5909722672997759
  0
ARC
  5
21A9E
  8
0
 10
4652.0151869378441916
 20
292.2034955704053232
 30
0.0
 40
0.3501745373
 50
310.5572629216175073
 51
312.7134200505111039
  0
ARC
  5
21A9F
  8
0
 10
4652.0247001337429538
 20
292.1825009929053181
 30
0.0
 40
0.3163080423
 50
307.3790606540842987
 51
309.6577580299962733
  0
ARC
  5
21AA0
  8
0
 10
4652.0001029751438182
 20
292.1886865227053249
 30
0.0
 40
0.3075842497
 50
307.4668681303854783
 51
309.8153947038102842
  0
ARC
  5
21AA1
  8
0
 10
4652.0397154119436891
 20
292.1665898946054085
 30
0.0
 40
0.2977364447
 50
306.0735155451051241
 51
308.4545087028059811
  0
ARC
  5
21AA2
  8
0
 10
4652.0068366747436812
 20
292.1694925729054262
 30
0.0
 40
0.2759228177
 50
303.9833028811930262
 51
306.4852649043809265
  0
ARC
  5
21AA3
  8
0
 10
4652.0446491977436381
 20
292.1478056822052736
 30
0.0
 40
0.2682465719
 50
302.5274178637109799
 51
305.0564706763921095
  0
ARC
  5
21AA4
  8
0
 10
4652.0194866682440988
 20
292.1547285125054145
 30
0.0
 40
0.259958756
 50
302.5537093213894195
 51
305.1669141345046228
  0
ARC
  5
21AA5
  8
0
 10
4652.0215029335440704
 20
292.1384586842053181
 30
0.0
 40
0.2331810132
 50
298.6291472327986867
 51
301.4213655718202745
  0
ARC
  5
21AA6
  8
0
 10
4651.9964049198442808
 20
292.1476687149054214
 30
0.0
 40
0.2242155085
 50
298.5943260919843851
 51
301.5004708368841762
  0
ARC
  5
21AA7
  8
0
 10
4651.9955574426439853
 20
292.1343677646053152
 30
0.0
 40
0.2003129828
 50
294.1720798842762861
 51
297.2956027283970002
  0
ARC
  5
21AA8
  8
0
 10
4651.9629399087443744
 20
292.2600878348052902
 30
0.0
 40
0.4324862963000001
 50
315.6907393996136193
 51
317.5910549606109043
  0
ARC
  5
21AA9
  8
0
 10
4651.9381144380440674
 20
292.26621576780542
 30
0.0
 40
0.4247748263
 50
315.850188478904613
 51
317.7921664294112816
  0
ARC
  5
21AAA
  8
0
 10
4651.9828663169437277
 20
292.2433246492054195
 30
0.0
 40
0.4098555226
 50
314.6148985195836758
 51
316.5826602476857943
  0
ARC
  5
21AAB
  8
0
 10
4651.9551726543440964
 20
292.2425127846054238
 30
0.0
 40
0.3832582092
 50
313.0396587173596004
 51
315.0882685113871275
  0
ARC
  5
21AAC
  8
0
 10
4651.9730706154441577
 20
292.2260891901053128
 30
0.0
 40
0.3625453514
 50
311.8704605354861883
 51
313.9965500942034282
  0
ARC
  5
21AAD
  8
0
 10
4651.9442644318442035
 20
292.2288245787053143
 30
0.0
 40
0.335960471
 50
310.1942307287391145
 51
312.4295973148929875
  0
ARC
  5
21AAE
  8
0
 10
4652.0220564599430872
 20
292.2247731513053282
 30
0.0
 40
0.3970311606
 50
314.4800715796063173
 51
316.5074825028598866
  0
ARC
  5
21AAF
  8
0
 10
4651.9979212132438988
 20
292.2197231535052993
 30
0.0
 40
0.3705043244
 50
311.7368408882629751
 51
313.8110612226994931
  0
ARC
  5
21AB0
  8
0
 10
4652.0705753083948366
 20
291.9313864249123185
 30
0.0
 40
0.0383771517818246
 50
195.9079498129300987
 51
198.4645672375218908
  0
ARC
  5
21AB1
  8
0
 10
4652.1009409962352947
 20
292.0245469133228085
 30
0.0
 40
0.1350918006020992
 50
247.7459108597552131
 51
252.1836672293640902
  0
ARC
  5
21AB2
  8
0
 10
4652.1079950277699027
 20
292.0165026977779235
 30
0.0
 40
0.1305963827393921
 50
256.5358393272808826
 51
260.9348413681257171
  0
ARC
  5
21AB3
  8
0
 10
4652.0796054889133302
 20
292.028128494512714
 30
0.0
 40
0.1288635055896483
 50
255.8364627369967934
 51
260.3048045194263977
  0
ARC
  5
21AB4
  8
0
 10
4652.076319125810187
 20
292.0294169708545837
 30
0.0
 40
0.1284708877844417
 50
258.0683765479046201
 51
262.5172562207328042
  0
ARC
  5
21AB5
  8
0
 10
4652.1245144105441796
 20
291.9294054247052941
 30
0.0
 40
0.0928542187
 50
166.6385691291046101
 51
168.0642724771024916
  0
ARC
  5
21AB6
  8
0
 10
4652.1575222310339086
 20
292.0301015018420117
 30
0.0
 40
0.1609770752339337
 50
250.8247868285043012
 51
254.1606978692445864
  0
ARC
  5
21AB7
  8
0
 10
4652.1574455091722484
 20
292.0101929811849004
 30
0.0
 40
0.142405650157568
 50
271.451679399658417
 51
275.4164821653376976
  0
ARC
  5
21AB8
  8
0
 10
4652.1609545857591002
 20
292.0064537529586914
 30
0.0
 40
0.1396717196064004
 50
269.3492851811898277
 51
273.3926607913213047
  0
ARC
  5
21AB9
  8
0
 10
4652.1167944549961248
 20
292.0163275703300201
 30
0.0
 40
0.1340196577923411
 50
265.1229990201925943
 51
269.3325947560454097
  0
ARC
  5
21ABA
  8
0
 10
4652.1488511596253375
 20
292.0046918224975911
 30
0.0
 40
0.1341659035613747
 50
263.3158726638874896
 51
267.5291766615815163
  0
ARC
  5
21ABB
  8
0
 10
4652.1519639207635919
 20
292.0016834708275724
 30
0.0
 40
0.1322209660495547
 50
261.1189144907402238
 51
265.4176498160854862
  0
ARC
  5
21ABC
  8
0
 10
4652.1332813936460298
 20
291.972419871556383
 30
0.0
 40
0.0986127452909301
 50
253.1203777762358129
 51
258.4791718895211829
  0
ARC
  5
21ABD
  8
0
 10
4652.119939066869847
 20
292.0129411378097757
 30
0.0
 40
0.1319629537317355
 50
262.9384125128668188
 51
267.231872748270689
  0
ARC
  5
21ABE
  8
0
 10
4652.140057699605677
 20
292.0057162431456277
 30
0.0
 40
0.1322719843177531
 50
254.8198052829739879
 51
259.1907388856840271
  0
ARC
  5
21ABF
  8
0
 10
4652.1109528758861416
 20
292.0140936293453819
 30
0.0
 40
0.1295470415720585
 50
254.3030612404438102
 51
258.7824666270497005
  0
ARC
  5
21AC0
  8
0
 10
4652.1978877143319551
 20
292.008344635400988
 30
0.0
 40
0.1511655206210759
 50
277.1546536945398884
 51
280.9304708927464276
  0
ARC
  5
21AC1
  8
0
 10
4652.2015147988222452
 20
292.0064428371156282
 30
0.0
 40
0.1499339214988385
 50
275.171685472377419
 51
278.9666213580088083
  0
ARC
  5
21AC2
  8
0
 10
4652.1901537184858171
 20
291.9989734555257996
 30
0.0
 40
0.1398352644414538
 50
269.4830179800458723
 51
273.5146276655873976
  0
ARC
  5
21AC3
  8
0
 10
4652.2230691921558901
 20
291.9911954979855864
 30
0.0
 40
0.1382818415118541
 50
267.3746361781775249
 51
271.4501249719746738
  0
ARC
  5
21AC4
  8
0
 10
4652.193565901877264
 20
291.9962367863623172
 30
0.0
 40
0.1378550760046617
 50
267.3565151840879253
 51
271.4520090403274253
  0
ARC
  5
21AC5
  8
0
 10
4652.1538273082178421
 20
291.9324440743512241
 30
0.0
 40
0.0663443953756641
 50
251.9405808866532084
 51
259.8304960076508223
  0
ARC
  5
21AC6
  8
0
 10
4652.2264089214913838
 20
291.9878711181464155
 30
0.0
 40
0.1354626042330029
 50
265.1906928496546243
 51
269.3627794682752778
  0
ARC
  5
21AC7
  8
0
 10
4652.2139519616457619
 20
291.9878819413037263
 30
0.0
 40
0.1335279215070558
 50
259.1937010101909777
 51
263.4619427366744731
  0
ARC
  5
21AC8
  8
0
 10
4652.1811894706906969
 20
291.9948281019263163
 30
0.0
 40
0.1336034607607255
 50
261.3404043738694895
 51
265.5853193874460203
  0
ARC
  5
21AC9
  8
0
 10
4652.1843203327853189
 20
291.992593352190795
 30
0.0
 40
0.1321712907873715
 50
259.1279324767413073
 51
263.4482404427619144
  0
ARC
  5
21ACA
  8
0
 10
4652.2245704295391988
 20
292.0239354222129009
 30
0.0
 40
0.1709558266142539
 50
248.1981331954418977
 51
251.7048791421028113
  0
ARC
  5
21ACB
  8
0
 10
4652.1626601238549483
 20
291.9473873348360939
 30
0.0
 40
0.0828340711335849
 50
249.2119403615492104
 51
255.6380997501555044
  0
ARC
  5
21ACC
  8
0
 10
4652.1983516399795917
 20
292.0105492519186896
 30
0.0
 40
0.1528052607615792
 50
255.2280905532498991
 51
259.0165106128503112
  0
ARC
  5
21ACD
  8
0
 10
4652.2750410513472161
 20
292.0011379738589881
 30
0.0
 40
0.1531333400080193
 50
257.8740778106350717
 51
261.6193894923345056
  0
ARC
  5
21ACE
  8
0
 10
4652.228661897335769
 20
292.0045126023861144
 30
0.0
 40
0.1522576592261122
 50
254.8688846055217141
 51
258.6694738651144121
  0
ARC
  5
21ACF
  8
0
 10
4652.2311530050847068
 20
292.0006943781440896
 30
0.0
 40
0.1490710525507005
 50
275.1592732161213917
 51
278.9692669082397174
  0
ARC
  5
21AD0
  8
0
 10
4652.2401682457712013
 20
291.997035434437521
 30
0.0
 40
0.1463217583646332
 50
260.1160973298648855
 51
264.01079532880442
  0
ARC
  5
21AD1
  8
0
 10
4652.2648957104438523
 20
291.9931603219021099
 30
0.0
 40
0.1446617765324343
 50
272.9757639800563993
 51
276.8863480911326747
  0
ARC
  5
21AD2
  8
0
 10
4652.2703804489992763
 20
291.9935935663115174
 30
0.0
 40
0.1453478913755108
 50
259.7770794403783725
 51
263.6939722855582886
  0
ARC
  5
21AD3
  8
0
 10
4652.234985731271081
 20
291.997102735204578
 30
0.0
 40
0.1458948292347362
 50
273.099280660137822
 51
276.9844673328404951
  0
ARC
  5
21AD4
  8
0
 10
4652.2824402707192348
 20
291.9882123769803002
 30
0.0
 40
0.1403652376951483
 50
265.2111046552931271
 51
269.2375795201962205
  0
ARC
  5
21AD5
  8
0
 10
4652.26859975293155
 20
291.9902346923237246
 30
0.0
 40
0.1419134144675251
 50
270.8568304427660109
 51
274.8402667581490846
  0
ARC
  5
21AD6
  8
0
 10
4652.2562569081919719
 20
291.9849051452031858
 30
0.0
 40
0.135792513515406
 50
265.0681658438297177
 51
269.223061400046106
  0
ARC
  5
21AD7
  8
0
 10
4652.2610048173983159
 20
292.0284539608550745
 30
0.0
 40
0.180159587969833
 50
246.4072718752910873
 51
249.7762956106776926
  0
ARC
  5
21AD8
  8
0
 10
4652.2707540959081598
 20
292.0198637038856759
 30
0.0
 40
0.1720201461381821
 50
251.098638006426313
 51
254.5319666710761908
  0
ARC
  5
21AD9
  8
0
 10
4652.2346237506753823
 20
292.0142685924413968
 30
0.0
 40
0.162798252257526
 50
253.0668652944258099
 51
256.6575928030190994
  0
ARC
  5
21ADA
  8
0
 10
4652.2714230438332379
 20
292.0073673178329159
 30
0.0
 40
0.1595038321233575
 50
280.4060196676491046
 51
284.022117810391876
  0
ARC
  5
21ADB
  8
0
 10
4652.2373291850135502
 20
292.0136455314424779
 30
0.0
 40
0.1633680673377885
 50
282.3912388608500237
 51
285.9503800927558927
  0
ARC
  5
21ADC
  8
0
 10
4652.2648636991716558
 20
292.0117547285736919
 30
0.0
 40
0.1633491023824169
 50
252.8658828313274114
 51
256.4415729829664201
  0
ARC
  5
21ADD
  8
0
 10
4652.2410575898347815
 20
292.0124312939881861
 30
0.0
 40
0.1624821026758526
 50
280.5117004910346736
 51
284.0689370829712175
  0
ARC
  5
21ADE
  8
0
 10
4652.0568093967440291
 20
292.1332875371052751
 30
0.0
 40
0.2525415630999999
 50
301.0826486810777283
 51
303.7282299595203767
  0
ARC
  5
21ADF
  8
0
 10
4652.0725822977428834
 20
292.0364480723052907
 30
0.0
 40
0.1329906832
 50
246.8356988787975865
 51
251.368884211085998
  0
ARC
  5
21AE0
  8
0
 10
4652.0568985084428277
 20
292.1828165157053263
 30
0.0
 40
0.337636758
 50
309.2893104850642203
 51
311.4827950469975235
  0
ARC
  5
21AE1
  8
0
 10
4652.0936997283442906
 20
292.1661891457052889
 30
0.0
 40
0.3266748056
 50
309.2122938652170205
 51
311.4778633349018264
  0
ARC
  5
21AE2
  8
0
 10
4652.0648806315439288
 20
292.1617875691052859
 30
0.0
 40
0.3054257247
 50
306.0341157603776878
 51
308.351722880583111
  0
ARC
  5
21AE3
  8
0
 10
4652.0790923928452685
 20
292.1464331192053123
 30
0.0
 40
0.2875855856
 50
304.7114227930879906
 51
307.1338341232885796
  0
ARC
  5
21AE4
  8
0
 10
4652.1109304047413389
 20
292.0887136521881757
 30
0.0
 40
0.1971607843259672
 50
241.6709227444002011
 51
245.2950326813447077
  0
ARC
  5
21AE5
  8
0
 10
4652.1579546740404112
 20
292.057015519081574
 30
0.0
 40
0.1866405091096463
 50
243.9204570283679914
 51
247.2397524437377001
  0
ARC
  5
21AE6
  8
0
 10
4652.2776510821440752
 20
292.2146005206053019
 30
0.0
 40
0.3864135524
 50
222.4266533664981011
 51
224.5456223489987906
  0
ARC
  5
21AE7
  8
0
 10
4652.2454745777067728
 20
292.1709796088582038
 30
0.0
 40
0.3288112911008926
 50
226.7643934740642919
 51
229.0739328704100899
  0
ARC
  5
21AE8
  8
0
 10
4652.1995509463431517
 20
292.1657077856143019
 30
0.0
 40
0.3066320034706752
 50
227.5088158629397981
 51
229.9544663762484049
  0
ARC
  5
21AE9
  8
0
 10
4652.228380949843995
 20
292.1563582979052853
 30
0.0
 40
0.3079117309
 50
227.8946215288181918
 51
230.3163363895147029
  0
ARC
  5
21AEA
  8
0
 10
4652.1775635341227826
 20
292.1247893640448865
 30
0.0
 40
0.2583362498598849
 50
232.4860371897599123
 51
235.1892660664240111
  0
ARC
  5
21AEB
  8
0
 10
4652.2058580602615621
 20
292.0927660250055737
 30
0.0
 40
0.2361306782816093
 50
236.6037453719279995
 51
239.4194174113796123
  0
ARC
  5
21AEC
  8
0
 10
4652.1643224475992611
 20
292.0887648969014094
 30
0.0
 40
0.2189855031886112
 50
237.937045062732409
 51
240.9279741001186892
  0
ARC
  5
21AED
  8
0
 10
4652.1944751671635458
 20
292.0805429972947991
 30
0.0
 40
0.2207084946063646
 50
238.0233477271821982
 51
240.9836769321537133
  0
ARC
  5
21AEE
  8
0
 10
4652.1975282895928103
 20
292.0602538098203809
 30
0.0
 40
0.2014511875045456
 50
242.2456150094448901
 51
245.365993570301697
  0
ARC
  5
21AEF
  8
0
 10
4652.2708613761096785
 20
292.0440543114839897
 30
0.0
 40
0.1972870175842907
 50
244.905793193784092
 51
248.0245098399502126
  0
ARC
  5
21AF0
  8
0
 10
4652.2243330985684224
 20
292.0475963155028012
 30
0.0
 40
0.1947149632962108
 50
242.1071558709805061
 51
245.3320786635154889
  0
ARC
  5
21AF1
  8
0
 10
4652.2331795685577163
 20
292.0373685364382936
 30
0.0
 40
0.1858622544269639
 50
246.6012044179286988
 51
249.8694556297126894
  0
ARC
  5
21AF2
  8
0
 10
4652.186466542450944
 20
292.0445694098916078
 30
0.0
 40
0.1831875860618544
 50
243.7432079733117121
 51
247.1229282772054034
  0
ARC
  5
21AF3
  8
0
 10
4652.1954602897203586
 20
292.0328395778751087
 30
0.0
 40
0.1739568688864914
 50
248.4455462006079927
 51
251.8932589656409107
  0
ARC
  5
21AF4
  8
0
 10
4650.8084443618436126
 20
292.7197397452052883
 30
0.0
 40
2.3678737529
 50
356.0079783378009779
 51
356.9083063895006944
  0
ARC
  5
21AF5
  8
0
 10
4651.4494899748851822
 20
292.5969286714196755
 30
0.0
 40
0.0392722584633004
 50
91.0465696157626638
 51
182.84651908836031
  0
ARC
  5
21AF6
  8
0
 10
4652.298812227972121
 20
291.9878036000811221
 30
0.0
 40
0.1399813356743611
 50
270.5915894680197766
 51
274.6219149255774141
  0
ARC
  5
21AF7
  8
0
 10
4652.3125602787877142
 20
291.9881599276150723
 30
0.0
 40
0.1399042382669573
 50
264.9557382574885196
 51
268.9890781363121164
  0
ARC
  5
21AF8
  8
0
 10
4652.3045260802418852
 20
291.9977486076630271
 30
0.0
 40
0.149872592441035
 50
257.6262011561104828
 51
261.4486632780315745
  0
ARC
  5
21AF9
  8
0
 10
4652.3012574833437611
 20
292.0211413173756227
 30
0.0
 40
0.1741202653749859
 50
250.9923952912508867
 51
254.3866012997700921
  0
ARC
  5
21AFA
  8
0
 10
4652.3059275978239384
 20
292.0249418102449113
 30
0.0
 40
0.178072623338961
 50
249.2563349056854918
 51
252.6086154605553133
  0
ARC
  5
21AFB
  8
0
 10
4652.309846417031622
 20
292.0076745492659143
 30
0.0
 40
0.1598654703127703
 50
255.825873298418287
 51
259.4397629605145994
  0
ARC
  5
21AFC
  8
0
 10
4652.3388496764027877
 20
292.0058599743528021
 30
0.0
 40
0.1559226316149415
 50
255.6633277675126124
 51
259.3636441933675769
  0
ARC
  5
21AFD
  8
0
 10
4652.3226531496466123
 20
292.2196307912253133
 30
0.0
 40
0.4060725784721108
 50
221.8640881822038864
 51
223.9031075178808123
  0
ARC
  5
21AFE
  8
0
 10
4652.308561753743561
 20
292.2101202022054167
 30
0.0
 40
0.3911054444
 50
222.870960537216007
 51
224.9484246220170007
  0
ARC
  5
21AFF
  8
0
 10
4652.4902345712453098
 20
292.2508607056053052
 30
0.0
 40
0.4663564706
 50
220.0476628259164045
 51
221.8901812138012986
  0
ARC
  5
21B00
  8
0
 10
4652.5237762714432392
 20
292.2456395154052871
 30
0.0
 40
0.4515865427000001
 50
221.8148302448902882
 51
223.6523915499359134
  0
ARC
  5
21B01
  8
0
 10
4652.4434835616430064
 20
292.2369278020054253
 30
0.0
 40
0.4467148887
 50
220.8152047395084026
 51
222.7088391925016992
  0
ARC
  5
21B02
  8
0
 10
4652.4774023578438573
 20
292.2292608442053279
 30
0.0
 40
0.4328686375000001
 50
222.7169758363149867
 51
224.6013564578751982
  0
ARC
  5
21B03
  8
0
 10
4652.4967069533440736
 20
292.2231583788054081
 30
0.0
 40
0.4192611772000001
 50
222.7615556814905062
 51
224.7056877905058059
  0
ARC
  5
21B04
  8
0
 10
4652.4516360240440918
 20
292.2074838643052885
 30
0.0
 40
0.4018010766
 50
223.6805356729969958
 51
225.675183785002389
  0
ARC
  5
21B05
  8
0
 10
4652.4869526867441891
 20
292.2030909533053205
 30
0.0
 40
0.3882711318
 50
225.5454093860901992
 51
227.5437309988737127
  0
ARC
  5
21B06
  8
0
 10
4652.5073555619428589
 20
292.1991587806052735
 30
0.0
 40
0.375044734
 50
225.5159288120921133
 51
227.5858043038840037
  0
ARC
  5
21B07
  8
0
 10
4652.4641464135438582
 20
292.1819390938053971
 30
0.0
 40
0.3599562464999999
 50
226.5758239953019029
 51
228.6949804551084924
  0
ARC
  5
21B08
  8
0
 10
4652.5216863347441176
 20
292.1790259029053232
 30
0.0
 40
0.3333664296
 50
228.3716872475179969
 51
230.5950998668492105
  0
ARC
  5
21B09
  8
0
 10
4652.488803753944012
 20
292.1671579410054278
 30
0.0
 40
0.3285059369
 50
228.4005532336007889
 51
230.6555173046841105
  0
ARC
  5
21B0A
  8
0
 10
4652.4804448924442113
 20
292.1604033798054161
 30
0.0
 40
0.3207909755
 50
229.5651313801980109
 51
231.8359205916036103
  0
CIRCLE
  5
21B0B
  8
0
 10
4652.2910447032436423
 20
292.280524133005315
 30
0.0
 40
1.141732283499999
  0
ARC
  5
21B0C
  8
0
 10
4652.392897762044413
 20
292.260353388805413
 30
0.0
 40
0.4736970364000001
 50
218.4522229108040108
 51
220.3261973072970932
  0
ARC
  5
21B0D
  8
0
 10
4652.3584976639440356
 20
292.2598765433053245
 30
0.0
 40
0.4644590210000001
 50
218.8606099652378134
 51
219.9150062331843003
  0
ARC
  5
21B0E
  8
0
 10
4652.2913000406433639
 20
292.4711781038054141
 30
0.0
 40
0.614532094
 50
265.523981667014823
 51
269.1085152881025806
  0
ARC
  5
21B0F
  8
0
 10
4652.2913270057670161
 20
292.467828484018014
 30
0.0
 40
0.6131001051545903
 50
268.993297871784705
 51
270.8329941578783746
  0
ARC
  5
21B10
  8
0
 10
4652.2911234230441551
 20
292.4694881844052929
 30
0.0
 40
0.6128327540999999
 50
260.2817005444155143
 51
263.9061415516156899
  0
ARC
  5
21B11
  8
0
 10
4652.2906365200160508
 20
292.4595400338055811
 30
0.0
 40
0.6047838471170351
 50
263.7583641828201166
 51
265.6294100406589109
  0
ARC
  5
21B12
  8
0
 10
4652.2913036795789594
 20
292.4654689317533212
 30
0.0
 40
0.6116784432566408
 50
266.3818012347161925
 51
268.22767288166051
  0
ARC
  5
21B13
  8
0
 10
4652.291142970088913
 20
292.4638455264337153
 30
0.0
 40
0.6100466322439743
 50
261.1258752775136145
 51
262.9922490477919723
  0
ARC
  5
21B14
  8
0
 10
4652.2762103179202313
 20
292.3856193588725887
 30
0.0
 40
0.5295140393339052
 50
258.342931727148823
 51
260.5091892041044161
  0
ARC
  5
21B15
  8
0
 10
4652.2904904627439464
 20
292.4662425377053978
 30
0.0
 40
0.6095254304
 50
254.9302852640919923
 51
258.6373868260167228
  0
ARC
  5
21B16
  8
0
 10
4652.2910473415531669
 20
292.4526008718153776
 30
0.0
 40
0.6015321605979154
 50
266.3474842834741025
 51
268.2245216994245993
  0
ARC
  5
21B17
  8
0
 10
4652.290525837513087
 20
292.4606159227417947
 30
0.0
 40
0.6067575420766779
 50
255.7700150698867105
 51
257.6792345703008777
  0
ARC
  5
21B18
  8
0
 10
4652.2913088437453553
 20
292.4564816880052831
 30
0.0
 40
0.6060604703
 50
268.9826379790134752
 51
270.8436491717154126
  0
ARC
  5
21B19
  8
0
 10
4652.2815644884785797
 20
292.4310918300727167
 30
0.0
 40
0.5750470558974128
 50
253.0134429318337084
 51
255.0526313249085888
  0
ARC
  5
21B1A
  8
0
 10
4652.2914007752460748
 20
292.4572913309219189
 30
0.0
 40
0.6062508275248378
 50
261.0475383586322096
 51
262.9259269841472815
  0
ARC
  5
21B1B
  8
0
 10
4652.2912595738353048
 20
292.4556917744940847
 30
0.0
 40
0.6052688836185885
 50
263.7033706360509768
 51
265.5747675748996244
  0
ARC
  5
21B1C
  8
0
 10
4652.2891143527667737
 20
292.461556257212294
 30
0.0
 40
0.604640423028947
 50
249.3992907351183135
 51
253.2390704770365062
  0
ARC
  5
21B1D
  8
0
 10
4652.2908975425843892
 20
292.4532116094715093
 30
0.0
 40
0.6027616399172918
 50
258.3531928441537957
 51
260.2569286682748952
  0
ARC
  5
21B1E
  8
0
 10
4652.2843023405348504
 20
292.4272882854123168
 30
0.0
 40
0.5754295664848833
 50
255.6207353154289876
 51
257.6347089961025745
  0
ARC
  5
21B1F
  8
0
 10
4652.2864918233399294
 20
292.4671947937601999
 30
0.0
 40
0.6019912196238689
 50
244.7893678960114983
 51
245.1667092119170093
  0
ARC
  5
21B20
  8
0
 10
4652.289171226570943
 20
292.4559563415706975
 30
0.0
 40
0.6019034335601821
 50
250.2448072421701966
 51
252.2228269005879042
  0
ARC
  5
21B21
  8
0
 10
4652.2913160213065566
 20
292.4482129760845055
 30
0.0
 40
0.5994818548288136
 50
268.973284697231918
 51
270.8530186153997192
  0
ARC
  5
21B22
  8
0
 10
4652.2637525032032499
 20
292.4101082648098213
 30
0.0
 40
0.5447224535104924
 50
244.5994030513579105
 51
245.9519413235603054
  0
ARC
  5
21B23
  8
0
 10
4652.2930521578718981
 20
292.4673035736335009
 30
0.0
 40
0.6130864091459093
 50
247.4463636727317066
 51
249.4250513922931987
  0
ARC
  5
21B24
  8
0
 10
4652.2874748045442175
 20
292.4573386284054095
 30
0.0
 40
0.6001147442
 50
246.3443517510968945
 51
247.6325587265143042
  0
ARC
  5
21B25
  8
0
 10
4652.2763384132949795
 20
292.4496636066464816
 30
0.0
 40
0.5804636435763793
 50
241.8245504735855036
 51
244.0071517164668933
  0
ARC
  5
21B26
  8
0
 10
4652.2902077967619334
 20
292.4372040563998212
 30
0.0
 40
0.5884223178105228
 50
263.6279637194435281
 51
265.5530948255786257
  0
ARC
  5
21B27
  8
0
 10
4652.2913033254581023
 20
292.4470073298660964
 30
0.0
 40
0.5986120874305441
 50
266.304664379922599
 51
268.1909168862592878
  0
ARC
  5
21B28
  8
0
 10
4652.2899342922037249
 20
292.4492418360247825
 30
0.0
 40
0.5986753381957327
 50
252.8659253473032038
 51
254.8264521866630901
  0
ARC
  5
21B29
  8
0
 10
4652.2781928331223753
 20
292.4167905723202807
 30
0.0
 40
0.5636390143858707
 50
250.0361883134133052
 51
252.1502662124572964
  0
ARC
  5
21B2A
  8
0
 10
4652.2868736764530695
 20
292.4248270088415893
 30
0.0
 40
0.5756883863371925
 50
258.2093352716055961
 51
260.2032542786171234
  0
ARC
  5
21B2B
  8
0
 10
4652.2911359352183354
 20
292.4453552447048992
 30
0.0
 40
0.5969510492114471
 50
260.9322209627915186
 51
262.8403435016109029
  0
ARC
  5
21B2C
  8
0
 10
4652.2851588054672902
 20
292.4556297532374174
 30
0.0
 40
0.5960670458216346
 50
241.6666577278637078
 51
243.7937255639978105
  0
ARC
  5
21B2D
  8
0
 10
4652.2867158307271893
 20
292.4498378311608917
 30
0.0
 40
0.5953081374238931
 50
244.4636027901975979
 51
246.5441309117298943
  0
ARC
  5
21B2E
  8
0
 10
4652.2904883949640862
 20
292.4420444779797776
 30
0.0
 40
0.5935764146962988
 50
255.4529163967904992
 51
257.4069162238549211
  0
ARC
  5
21B2F
  8
0
 10
4652.2288177800737685
 20
292.2274519755168853
 30
0.0
 40
0.3700563637935148
 50
251.8570010166683915
 51
255.0354473611037918
  0
ARC
  5
21B30
  8
0
 10
4652.2880681160158929
 20
292.443869745629172
 30
0.0
 40
0.5929863262898883
 50
247.162137840159204
 51
249.2095917510656875
  0
ARC
  5
21B31
  8
0
 10
4652.2913035987439798
 20
292.4397065370054065
 30
0.0
 40
0.5919266236000001
 50
265.8206354060583863
 51
268.6143353057265131
  0
ARC
  5
21B32
  8
0
 10
4652.247113490528136
 20
292.2589859455061969
 30
0.0
 40
0.4058578377714461
 50
254.595706430863288
 51
257.7941979225225282
  0
ARC
  5
21B33
  8
0
 10
4652.2885266039620547
 20
292.4465757577480076
 30
0.0
 40
0.5951827623718965
 50
244.2652785445530981
 51
246.3513626082491044
  0
ARC
  5
21B34
  8
0
 10
4652.291134313342809
 20
292.4380443634054245
 30
0.0
 40
0.5902553191
 50
260.3821336368670245
 51
263.2106391074976273
  0
ARC
  5
21B35
  8
0
 10
4652.2913093005818155
 20
292.4377770684669144
 30
0.0
 40
0.5900152013150525
 50
268.9573046371211831
 51
270.8689873432132913
  0
ARC
  5
21B36
  8
0
 10
4652.2912565965953036
 20
292.4369247127377776
 30
0.0
 40
0.5891610146383602
 50
263.5331993744097758
 51
265.4562183184280002
  0
ARC
  5
21B37
  8
0
 10
4652.2890781734231496
 20
292.4373088453723994
 30
0.0
 40
0.5886335521516314
 50
249.7921061833170882
 51
251.8198951651646098
  0
ARC
  5
21B38
  8
0
 10
4652.2908730395056409
 20
292.4343727927112013
 30
0.0
 40
0.586579565464369
 50
258.0321486612244257
 51
259.9903132532734844
  0
ARC
  5
21B39
  8
0
 10
4652.2898517930443631
 20
292.4302896334422144
 30
0.0
 40
0.582369170175931
 50
252.3818561302728938
 51
254.401956885470895
  0
ARC
  5
21B3A
  8
0
 10
4652.2865469380431023
 20
292.4311501350393883
 30
0.0
 40
0.5819723540332931
 50
243.8556584801700922
 51
245.9937808755474009
  0
ARC
  5
21B3B
  8
0
 10
4652.1900808407453951
 20
292.1924465652562048
 30
0.0
 40
0.32443116944972
 50
245.3285985221199894
 51
250.5032105853370865
  0
ARC
  5
21B3C
  8
0
 10
4652.5218418442445909
 20
292.3050634100054026
 30
0.0
 40
0.5545591667999999
 50
216.4735542346980992
 51
218.1480653179160925
  0
ARC
  5
21B3D
  8
0
 10
4652.4729159029438961
 20
292.2928274321052982
 30
0.0
 40
0.5323711226
 50
217.0586034948921963
 51
218.7790022407997128
  0
ARC
  5
21B3E
  8
0
 10
4652.4885948808441753
 20
292.2821226500054195
 30
0.0
 40
0.5167836675000002
 50
217.3145628073999092
 51
219.0772234912128908
  0
ARC
  5
21B3F
  8
0
 10
4652.4242763582442421
 20
292.2823827017052736
 30
0.0
 40
0.5097959749000001
 50
217.5774844233955037
 51
219.3523483158703016
  0
ARC
  5
21B40
  8
0
 10
4652.4475128421436239
 20
292.2758014984053148
 30
0.0
 40
0.5042463812
 50
217.9253978760847872
 51
218.962354784115405
  0
ARC
  5
21B41
  8
0
 10
4652.5203656161429535
 20
292.2737096667053152
 30
0.0
 40
0.5014329174000001
 50
219.1579553128055124
 51
220.9035648515115895
  0
ARC
  5
21B42
  8
0
 10
4652.439644260643945
 20
292.2694569689052742
 30
0.0
 40
0.4941385916
 50
218.9640467546055049
 51
219.7242687107278982
  0
ARC
  5
21B43
  8
0
 10
4652.4723711788437868
 20
292.2591481938054017
 30
0.0
 40
0.4806091420000001
 50
219.9094719139108918
 51
221.7020569192638106
  0
ARC
  5
21B44
  8
0
 10
4652.5421215114429287
 20
292.2405691197054125
 30
0.0
 40
0.4364940662
 50
221.801737496601703
 51
223.703307527012214
  0
ARC
  5
21B45
  8
0
 10
4652.5948649183437738
 20
292.2389548170053217
 30
0.0
 40
0.4046241915000001
 50
223.2723835149029128
 51
225.2669150834155971
  0
ARC
  5
21B46
  8
0
 10
4652.5310131005453513
 20
292.2206256599054086
 30
0.0
 40
0.4039976887
 50
224.5023366712144082
 51
226.4576482606807986
  0
ARC
  5
21B47
  8
0
 10
4652.5607869821442364
 20
292.2255691313054058
 30
0.0
 40
0.3990130661
 50
223.3684966612968026
 51
225.3872959220095993
  0
ARC
  5
21B48
  8
0
 10
4652.5508926452430387
 20
292.2181509231053269
 30
0.0
 40
0.3899060385
 50
224.4187946152138977
 51
226.4475195782169976
  0
ARC
  5
21B49
  8
0
 10
4652.5860668202431043
 20
292.3112795529053187
 30
0.0
 40
0.5592068693
 50
215.9303169426960096
 51
217.6127399455916134
  0
ARC
  5
21B4A
  8
0
 10
4652.6170121994437068
 20
292.3073588359054042
 30
0.0
 40
0.5416722345000001
 50
217.4928896108092999
 51
219.1686903664372039
  0
ARC
  5
21B4B
  8
0
 10
4652.5370911265454197
 20
292.2958364234053192
 30
0.0
 40
0.538068338
 50
216.6536168960919042
 51
218.3726149419958915
  0
ARC
  5
21B4C
  8
0
 10
4652.633049933942857
 20
292.3030089791053001
 30
0.0
 40
0.5242347027000001
 50
217.4312205677861982
 51
219.164912968092608
  0
ARC
  5
21B4D
  8
0
 10
4652.5684175494452575
 20
292.2896851027052776
 30
0.0
 40
0.5215921655
 50
218.3541225352950903
 51
220.0616228570287944
  0
ARC
  5
21B4E
  8
0
 10
4652.5848994930438494
 20
292.2839145813052824
 30
0.0
 40
0.5050125112
 50
218.361921447608097
 51
220.1251301762166861
  0
ARC
  5
21B4F
  8
0
 10
4652.6172591606436981
 20
292.2829883943052778
 30
0.0
 40
0.4877412642000001
 50
219.8667025811002986
 51
221.6352546745785048
  0
ARC
  5
21B50
  8
0
 10
4652.5373366918429383
 20
292.2665304119054213
 30
0.0
 40
0.4857554627000001
 50
219.2316753925009039
 51
221.0309887745117976
  0
ARC
  5
21B51
  8
0
 10
4652.634445828743992
 20
292.2806563495054206
 30
0.0
 40
0.4706669557
 50
219.7226944369895136
 51
221.5604193659058012
  0
ARC
  5
21B52
  8
0
 10
4652.5702470859441746
 20
292.2634466300053191
 30
0.0
 40
0.4696970204000001
 50
220.8675875150860861
 51
222.6673691887087898
  0
ARC
  5
21B53
  8
0
 10
4652.5879904353441816
 20
292.259725631005324
 30
0.0
 40
0.4535944193
 50
220.7923163934133015
 51
222.6585586534833965
  0
ARC
  5
21B54
  8
0
 10
4652.6178792943437657
 20
292.3567883094053172
 30
0.0
 40
0.6436690634000001
 50
213.1087263576685018
 51
214.2386022673209993
  0
ARC
  5
21B55
  8
0
 10
4652.6426738336440394
 20
292.3565428172054226
 30
0.0
 40
0.6391568985000001
 50
212.8052536724142954
 51
214.3970480124955031
  0
ARC
  5
21B56
  8
0
 10
4652.5645400853445608
 20
292.3413879369053916
 30
0.0
 40
0.6172101951000001
 50
213.9262615770878995
 51
214.8332991237680858
  0
ARC
  5
21B57
  8
0
 10
4652.5920696983439484
 20
292.3415452249054169
 30
0.0
 40
0.616546826
 50
213.4448902419912031
 51
215.0673546505946945
  0
ARC
  5
21B58
  8
0
 10
4652.6210388427443831
 20
292.3346807896052724
 30
0.0
 40
0.5983173006
 50
215.1086533133986904
 51
216.7125876005428893
  0
ARC
  5
21B59
  8
0
 10
4652.5417283480428523
 20
292.3280018812054095
 30
0.0
 40
0.5934523453000001
 50
214.0188615559837046
 51
215.6687716816906004
  0
ARC
  5
21B5A
  8
0
 10
4652.635631664945322
 20
292.3284080165053069
 30
0.0
 40
0.5802955537
 50
215.1411542018865077
 51
216.7935210705119005
  0
ARC
  5
21B5B
  8
0
 10
4652.5711696737444072
 20
292.3190259195052931
 30
0.0
 40
0.5764925920000001
 50
215.8239251144038064
 51
217.4599062519756956
  0
ARC
  5
21B5C
  8
0
 10
4652.664959521945093
 20
292.3042901944053256
 30
0.0
 40
0.5058338403000001
 50
218.8014758897847969
 51
220.5450571753700899
  0
ARC
  5
21B5D
  8
0
 10
4652.6816495536440925
 20
292.3034084554053038
 30
0.0
 40
0.4878325094
 50
218.5797282619928978
 51
220.3956124895952087
  0
ARC
  5
21B5E
  8
0
 10
4652.7056569236428913
 20
292.3789926279054043
 30
0.0
 40
0.6716189311000001
 50
212.4746419428622062
 51
212.8509947439139012
  0
ARC
  5
21B5F
  8
0
 10
4652.7328921234438894
 20
292.3828954532053217
 30
0.0
 40
0.6688169788
 50
212.5705443932336038
 51
212.8413446103936906
  0
ARC
  5
21B60
  8
0
 10
4652.6668906304439588
 20
292.3705487456052765
 30
0.0
 40
0.6641150702
 50
212.6403120940352096
 51
213.5783381936248873
  0
ARC
  5
21B61
  8
0
 10
4652.6897515802429552
 20
292.3703814029054229
 30
0.0
 40
0.6567186559
 50
212.4711014503045874
 51
213.6573959099862066
  0
ARC
  5
21B62
  8
0
 10
4652.7562855033638698
 20
292.3790935684219789
 30
0.0
 40
0.6416459296609122
 50
213.1999339360014005
 51
214.0978698712814889
  0
ARC
  5
21B63
  8
0
 10
4652.7229227634443305
 20
292.3709231942053179
 30
0.0
 40
0.6420939477000001
 50
213.4645498826018013
 51
215.0222468064710881
  0
ARC
  5
21B64
  8
0
 10
4652.7370862977440993
 20
292.3676347982054153
 30
0.0
 40
0.6227700556000001
 50
213.3390314284995952
 51
214.9498784523011068
  0
ARC
  5
21B65
  8
0
 10
4652.6715761302439205
 20
292.3519896853052842
 30
0.0
 40
0.6201466780000001
 50
214.3242135232075043
 51
215.9021137920368005
  0
ARC
  5
21B66
  8
0
 10
4652.6859189145452547
 20
292.3471972977054065
 30
0.0
 40
0.6014433984000001
 50
214.2802525366024895
 51
215.9087716433058972
  0
ARC
  5
21B67
  8
0
 10
4652.7655300940441521
 20
292.3691517841053269
 30
0.0
 40
0.6001653285000002
 50
214.4103376969100054
 51
216.1025915364160142
  0
ARC
  5
21B68
  8
0
 10
4652.7163991833440377
 20
292.3477790984052831
 30
0.0
 40
0.5820530267000001
 50
215.5668602447919966
 51
217.1973163915808129
  0
ARC
  5
21B69
  8
0
 10
4652.7317460735439454
 20
292.3463869217052888
 30
0.0
 40
0.5630615190000001
 50
215.3462862637030923
 51
217.0400765263892993
  0
ARC
  5
21B6A
  8
0
 10
4652.6662856542443478
 20
292.3267220688052817
 30
0.0
 40
0.5617848157999999
 50
216.5670260459033045
 51
218.2171794922707022
  0
ARC
  5
21B6B
  8
0
 10
4652.6819382907442559
 20
292.3238249190052898
 30
0.0
 40
0.5435398249
 50
216.4301311078095011
 51
218.1406628941124097
  0
ARC
  5
21B6C
  8
0
 10
4656.2910567922435803
 20
292.2805159461054245
 30
0.0
 40
1.141732283499999
 50
314.3872006053443897
 51
225.6062548750738017
  0
ARC
  5
21B6D
  8
0
 10
4656.2910567922435803
 20
292.2805159461054245
 30
0.0
 40
0.8366141731999999
 50
349.1733124841151721
 51
190.776752311990208
  0
ARC
  5
21B6E
  8
0
 10
4656.2910183941867217
 20
292.2804989375047739
 30
0.0
 40
0.826796818803657
 50
357.437834093338779
 51
181.9983120286777876
  0
ARC
  5
21B6F
  8
0
 10
4652.2913048822429118
 20
292.5223864249052781
 30
0.0
 40
0.6146431188000001
 50
265.524305515013225
 51
269.1081914401211748
  0
ARC
  5
21B70
  8
0
 10
4652.291161337045196
 20
292.5208611555053153
 30
0.0
 40
0.6131108671
 50
260.2825228592042777
 51
263.9053192367812812
  0
ARC
  5
21B71
  8
0
 10
4652.2913087113429356
 20
292.5260182397054223
 30
0.0
 40
0.6130044327
 50
268.9931542644188767
 51
270.8331377031150282
  0
ARC
  5
21B72
  8
0
 10
4652.2912613625439917
 20
292.525192593905274
 30
0.0
 40
0.6121772249000001
 50
263.7729293443254051
 51
265.6241001673087112
  0
ARC
  5
21B73
  8
0
 10
4652.2913037895441448
 20
292.5276327564052963
 30
0.0
 40
0.6116900484000001
 50
266.3818186129875016
 51
268.2276552301066772
  0
ARC
  5
21B74
  8
0
 10
4652.2911514399438602
 20
292.5260616308053159
 30
0.0
 40
0.6101111153000001
 50
261.1259741617769805
 51
262.9921506493221841
  0
ARC
  5
21B75
  8
0
 10
4652.290595451743684
 20
292.5177884877052747
 30
0.0
 40
0.6099859800000001
 50
254.9316852137787066
 51
258.6359868763938152
  0
ARC
  5
21B76
  8
0
 10
4652.2909043415429551
 20
292.5227183213053195
 30
0.0
 40
0.6096765314
 50
258.4847911988281908
 51
260.3672940146752808
  0
ARC
  5
21B77
  8
0
 10
4652.2913036800428017
 20
292.5338846760054139
 30
0.0
 40
0.6073308815999999
 50
266.3559347655320835
 51
268.2160153600726176
  0
ARC
  5
21B78
  8
0
 10
4652.2905669677438709
 20
292.5229443432053245
 30
0.0
 40
0.6069385436000001
 50
255.7702999619041861
 51
257.6789500396055814
  0
ARC
  5
21B79
  8
0
 10
4652.2913086425442089
 20
292.5358970886052816
 30
0.0
 40
0.6061182599000001
 50
268.9827012286813215
 51
270.8435907387910788
  0
ARC
  5
21B7A
  8
0
 10
4652.2911561275441272
 20
292.5323561206054137
 30
0.0
 40
0.6057948007000001
 50
261.0618513970326831
 51
262.9426165654257943
  0
ARC
  5
21B7B
  8
0
 10
4652.2899703506436708
 20
292.5188213127053132
 30
0.0
 40
0.605667869
 50
253.06441839928371
 51
255.0016599311011021
  0
ARC
  5
21B7C
  8
0
 10
4652.2912602411452099
 20
292.5350624121052761
 30
0.0
 40
0.6052819687
 50
263.7033905821755866
 51
265.5747470646152806
  0
ARC
  5
21B7D
  8
0
 10
4652.2893180185437814
 20
292.513257052005315
 30
0.0
 40
0.6052770551
 50
249.4013108121847893
 51
253.2370503534214095
  0
ARC
  5
21B7E
  8
0
 10
4652.0988512879630434
 20
292.0747458406834198
 30
0.0
 40
0.1590079734041144
 50
244.3776033922900126
 51
245.1736130890674872
  0
ARC
  5
21B7F
  8
0
 10
4652.2864821163439046
 20
292.4845249577052755
 30
0.0
 40
0.6036455831
 50
244.8639769779886137
 51
245.0751801902958107
  0
ARC
  5
21B80
  8
0
 10
4652.2909244934453454
 20
292.5327148791052991
 30
0.0
 40
0.6029098558000001
 50
258.3534269206805902
 51
260.2566946923881801
  0
ARC
  5
21B81
  8
0
 10
4652.2972007313746872
 20
292.5067405347888894
 30
0.0
 40
0.6264418344446295
 50
241.9122268245708085
 51
243.9344821807756034
  0
ARC
  5
21B82
  8
0
 10
4652.290516959244087
 20
292.5290001830052802
 30
0.0
 40
0.602377294
 50
255.6652369343503892
 51
257.5901454639767962
  0
ARC
  5
21B83
  8
0
 10
4652.2892708004428641
 20
292.5184029206054106
 30
0.0
 40
0.6022142620000001
 50
250.2453177046893984
 51
252.2223163179882022
  0
ARC
  5
21B84
  8
0
 10
4652.2864876581443241
 20
292.4949278642054082
 30
0.0
 40
0.6019819235
 50
244.7893689845882932
 51
245.1200647510966917
  0
ARC
  5
21B85
  8
0
 10
4652.2868964855442755
 20
292.502302407105276
 30
0.0
 40
0.6008314937
 50
244.6941447509416037
 51
245.9227323258915874
  0
ARC
  5
21B86
  8
0
 10
4652.2852400848241814
 20
292.473367564118405
 30
0.0
 40
0.6006631647118611
 50
241.8931432372237111
 51
243.9998649908118011
  0
ARC
  5
21B87
  8
0
 10
4652.2913085998452516
 20
292.542040989305292
 30
0.0
 40
0.6006136879000001
 50
268.9741730237790875
 51
270.8521189436900727
  0
ARC
  5
21B88
  8
0
 10
4652.2881833996443675
 20
292.5135915925054064
 30
0.0
 40
0.6001393636
 50
247.4355692307350125
 51
249.4562819685972954
  0
ARC
  5
21B89
  8
0
 10
4652.2874269532439939
 20
292.5083273221054014
 30
0.0
 40
0.5999961497000001
 50
246.3443420644026958
 51
247.6328064617387952
  0
ARC
  5
21B8A
  8
0
 10
4652.2912619955441187
 20
292.5412270815053262
 30
0.0
 40
0.5997982438000001
 50
263.6456966435443974
 51
265.535202734844006
  0
ARC
  5
21B8B
  8
0
 10
4652.2852567515428746
 20
292.490516021305325
 30
0.0
 40
0.5996407359
 50
241.8393345252789004
 51
243.9506154673761955
  0
ARC
  5
21B8C
  8
0
 10
4652.289995928244025
 20
292.5288141551054082
 30
0.0
 40
0.5988988427
 50
252.8662909538130918
 51
254.8260860657844944
  0
ARC
  5
21B8D
  8
0
 10
4652.2913034768444049
 20
292.5435876241053279
 30
0.0
 40
0.5986294137
 50
266.3046918051198872
 51
268.1908897185053888
  0
ARC
  5
21B8E
  8
0
 10
4652.2891719401441151
 20
292.5243921958053193
 30
0.0
 40
0.5975753860000002
 50
250.0956688192100899
 51
252.0907983944273099
  0
ARC
  5
21B8F
  8
0
 10
4652.2908904679443367
 20
292.5386907805054193
 30
0.0
 40
0.5972340063
 50
258.2447972340248157
 51
260.1676994216530261
  0
ARC
  5
21B90
  8
0
 10
4652.2911449131443078
 20
292.54198596560542
 30
0.0
 40
0.5970194599999999
 50
260.9323302383062924
 51
262.8402341087995069
  0
ARC
  5
21B91
  8
0
 10
4652.2854345802443277
 20
292.5011166189054279
 30
0.0
 40
0.5966734731000001
 50
241.9754271745094911
 51
243.7928382851011975
  0
ARC
  5
21B92
  8
0
 10
4652.286919584144016
 20
292.5124381945053074
 30
0.0
 40
0.5958005160000001
 50
244.4644624544874034
 51
246.5432710027002088
  0
ARC
  5
21B93
  8
0
 10
4652.2905335749437654
 20
292.5387974512054257
 30
0.0
 40
0.5937718303000001
 50
255.4532378275810913
 51
257.4065945166203733
  0
ARC
  5
21B94
  8
0
 10
4652.2881734036436683
 20
292.5234917959052723
 30
0.0
 40
0.5932711193
 50
247.1626292280884911
 51
249.2091001780802912
  0
ARC
  5
21B95
  8
0
 10
4652.289927866344442
 20
292.5347485016052929
 30
0.0
 40
0.5931745447
 50
252.7029561570051044
 51
254.6841717755575019
  0
ARC
  5
21B96
  8
0
 10
4652.291303326544039
 20
292.5496158197054228
 30
0.0
 40
0.5919343765000001
 50
266.2633405551812871
 51
268.171737954250375
  0
ARC
  5
21B97
  8
0
 10
4652.2866766930428639
 20
292.5182016820053263
 30
0.0
 40
0.590898229
 50
244.2640959665820901
 51
246.3798236827979906
  0
ARC
  5
21B98
  8
0
 10
4652.2911140878441074
 20
292.5478084394054008
 30
0.0
 40
0.5901165013
 50
260.8288872067993225
 51
262.7603827366580731
  0
ARC
  5
21B99
  8
0
 10
4652.291308533944175
 20
292.5515676623052741
 30
0.0
 40
0.5900374291000001
 50
268.9573406437850736
 51
270.8689513236216726
  0
ARC
  5
21B9A
  8
0
 10
4652.2912602909445923
 20
292.5507397175052802
 30
0.0
 40
0.5892078659000001
 50
263.5332759017924218
 51
265.4561419268189866
  0
ARC
  5
21B9B
  8
0
 10
4652.2891619088441075
 20
292.5341143244053796
 30
0.0
 40
0.5888902783
 50
249.792548409293488
 51
251.8194532918851962
  0
ARC
  5
21B9C
  8
0
 10
4652.2880666970440871
 20
292.5294133567052768
 30
0.0
 40
0.5875219998
 50
246.9385035127174888
 51
249.0086204365859999
  0
ARC
  5
21B9D
  8
0
 10
4652.2904830187444531
 20
292.5446406901053251
 30
0.0
 40
0.5868855120000001
 50
255.284356611803787
 51
257.2628087901549065
  0
ARC
  5
21B9E
  8
0
 10
4652.2909026626439299
 20
292.5482978270052854
 30
0.0
 40
0.5867391400999999
 50
258.0324148194172267
 51
259.9900467996940279
  0
ARC
  5
21B9F
  8
0
 10
4652.2899201555437685
 20
292.5442898798053193
 30
0.0
 40
0.5826111107
 50
252.3822756455138858
 51
254.401537427224298
  0
ARC
  5
21BA0
  8
0
 10
4652.2913084932442871
 20
292.5574797282052941
 30
0.0
 40
0.5821036057
 50
268.9438400363874848
 51
270.8823645739964263
  0
ARC
  5
21BA1
  8
0
 10
4652.2890718147436928
 20
292.5399281355053063
 30
0.0
 40
0.5819644085000001
 50
249.5518527306400927
 51
251.6062228059385859
  0
ARC
  5
21BA2
  8
0
 10
4652.2912588676435917
 20
292.5566399515054172
 30
0.0
 40
0.5812621405
 50
263.4453572895054094
 51
265.395520642681106
  0
ARC
  5
21BA3
  8
0
 10
4652.2913030489453377
 20
292.5589508271053205
 30
0.0
 40
0.5793921311
 50
266.1847468006257031
 51
268.1337192825952229
  0
ARC
  5
21BA4
  8
0
 10
4652.290845996743883
 20
292.553935219605421
 30
0.0
 40
0.5785250575000001
 50
257.866421752430881
 51
259.8536616031234985
  0
ARC
  5
21BA5
  8
0
 10
4652.291133410243674
 20
292.5572938151054245
 30
0.0
 40
0.5777259417
 50
260.6309417952920171
 51
262.6038934072781217
  0
ARC
  5
21BA6
  8
0
 10
4652.2882720723428065
 20
292.5395384946053241
 30
0.0
 40
0.5775804784
 50
248.1178057745923979
 51
248.6092268548005109
  0
ARC
  5
21BA7
  8
0
 10
4652.2898482232440074
 20
292.5499986492054063
 30
0.0
 40
0.5744626708000001
 50
252.1327878208755067
 51
254.1836041402856097
  0
ARC
  5
21BA8
  8
0
 10
4652.290479439144292
 20
292.5539995375053195
 30
0.0
 40
0.5743662255
 50
254.9590451049824935
 51
256.9823556637974207
  0
ARC
  5
21BA9
  8
0
 10
4652.2892443900436774
 20
292.5498424779053153
 30
0.0
 40
0.5700282846000001
 50
250.887578981593407
 51
251.1902112953225981
  0
ARC
  5
21BAA
  8
0
 10
4652.2903840755443525
 20
292.5594372160052785
 30
0.0
 40
0.564762589
 50
254.7086313725077957
 51
256.7687268651848171
  0
ARC
  5
21BAB
  8
0
 10
4652.291302843143967
 20
292.5647346473053858
 30
0.0
 40
0.5701468456000001
 50
266.1237621877129982
 51
268.1051395058108824
  0
ARC
  5
21BAC
  8
0
 10
4652.2911003406443342
 20
292.5628685699052767
 30
0.0
 40
0.5682691300000001
 50
260.4779541859829237
 51
262.4851765891543209
  0
ARC
  5
21BAD
  8
0
 10
4652.2913084305437224
 20
292.5666219195052804
 30
0.0
 40
0.5674983953
 50
268.919375693914219
 51
270.9069162734857059
  0
ARC
  5
21BAE
  8
0
 10
4652.2912560438444416
 20
292.5657588961054216
 30
0.0
 40
0.566633541
 50
263.2784044809121724
 51
265.278612905293528
  0
ARC
  5
21BAF
  8
0
 10
4652.2908686738428514
 20
292.5632199272054095
 30
0.0
 40
0.5640643037
 50
257.5509298261065965
 51
259.5903433706743044
  0
ARC
  5
21BB0
  8
0
 10
4652.2913083919429482
 20
292.5722763154054178
 30
0.0
 40
0.5568643027000001
 50
268.900056928439426
 51
270.9261445827788748
  0
ARC
  5
21BB1
  8
0
 10
4652.2912538541431786
 20
292.5713956067053232
 30
0.0
 40
0.5559816494000001
 50
263.1509251479911882
 51
265.1900576053253076
  0
ARC
  5
21BB2
  8
0
 10
4652.29130245914439
 20
292.5736603255052728
 30
0.0
 40
0.5533343778000001
 50
266.0089521480999792
 51
268.0499424897893164
  0
ARC
  5
21BB3
  8
0
 10
4652.2911446082443945
 20
292.5721263707052913
 30
0.0
 40
0.5517918479000001
 50
261.2217788885906202
 51
262.2571865424108069
  0
ARC
  5
21BB4
  8
0
 10
4652.2912716152441135
 20
292.8238915004054093
 30
0.0
 40
0.7792928455000001
 50
200.0010605538923016
 51
217.5954951552917009
  0
ARC
  5
21BB5
  8
0
 10
4652.2923434638923936
 20
292.7732212702493939
 30
0.0
 40
0.7292405205128305
 50
197.2244040943978973
 51
204.3675969260976046
  0
ARC
  5
21BB6
  8
0
 10
4653.1286881492496832
 20
292.5922736031920977
 30
0.0
 40
0.0441841924486298
 50
359.6850427898094154
 51
83.7404630393477447
  0
ARC
  5
21BB7
  8
0
 10
4653.8038071680812209
 20
292.7164700698978095
 30
0.0
 40
2.396622357960831
 50
182.9057334103493133
 51
183.7947605381895073
  0
LINE
  5
21BB8
  8
0
 10
4652.0595886723440344
 20
291.9020401247053087
 30
0.0
 11
4652.0591041781435706
 21
291.9023750592053261
 31
0.0
  0
LINE
  5
21BB9
  8
0
 10
4652.1152333731442923
 20
291.8823170047053281
 30
0.0
 11
4652.1147487972439194
 21
291.8826031553052758
 31
0.0
  0
LINE
  5
21BBA
  8
0
 10
4652.0763696634430744
 20
291.8955794570052831
 30
0.0
 11
4652.0758855564454279
 21
291.8956243362052874
 31
0.0
  0
LINE
  5
21BBB
  8
0
 10
4652.1708878478439146
 20
291.8684231934054196
 30
0.0
 11
4652.1704031956442122
 21
291.8686638411052741
 31
0.0
  0
LINE
  5
21BBC
  8
0
 10
4652.1320174195443542
 20
291.8776785693053171
 30
0.0
 11
4652.1315332191443304
 21
291.8776677271054041
 31
0.0
  0
LINE
  5
21BBD
  8
0
 10
4652.2265513634429226
 20
291.8599215582053148
 30
0.0
 11
4652.2260666377433154
 21
291.860118346705292
 31
0.0
  0
LINE
  5
21BBE
  8
0
 10
4652.1876746860443745
 20
291.8654498220054165
 30
0.0
 11
4652.1871904016443295
 21
291.8653888830053234
 31
0.0
  0
LINE
  5
21BBF
  8
0
 10
4652.2822235092453411
 20
291.8565671272053237
 30
0.0
 11
4652.2817387105442322
 21
291.8567203954053184
 31
0.0
  0
LINE
  5
21BC0
  8
0
 10
4652.0596074028444491
 20
291.895933816605293
 30
0.0
 11
4652.0497828633742756
 21
291.9013749259851807
 31
0.0
  0
LINE
  5
21BC1
  8
0
 10
4652.1413754784452976
 20
291.934627850905315
 30
0.0
 11
4652.1315328560440321
 21
291.9292838592053272
 31
0.0
  0
LINE
  5
21BC2
  8
0
 10
4652.0202678652440227
 20
291.9141790167054182
 30
0.0
 11
4652.0301101163531712
 21
291.9087212141891996
 31
0.0
  0
LINE
  5
21BC3
  8
0
 10
4652.0499204959296549
 20
291.9768079064929225
 30
0.0
 11
4652.0596067975438928
 21
291.9819607034053206
 31
0.0
  0
LINE
  5
21BC4
  8
0
 10
4652.0320885466444452
 20
291.9371019935053937
 30
0.0
 11
4652.0320885935689148
 21
291.9304327150042013
 31
0.0
  0
LINE
  5
21BC5
  8
0
 10
4652.1315332191443304
 20
291.8776677271054041
 30
0.0
 11
4652.1413759157439927
 21
291.8724756200052752
 31
0.0
  0
LINE
  5
21BC6
  8
0
 10
4652.2428561120441373
 20
291.9100289878052763
 30
0.0
 11
4652.2433404780440469
 21
291.9096176436053156
 31
0.0
  0
LINE
  5
21BC7
  8
0
 10
4652.2817383510428044
 20
291.9078177592052725
 30
0.0
 11
4652.2822231460440889
 21
291.9081832593054173
 31
0.0
  0
LINE
  5
21BC8
  8
0
 10
4651.9665222895428087
 20
291.9073717151053984
 30
0.0
 11
4651.9632138632441638
 21
291.9117019884052979
 31
0.0
  0
LINE
  5
21BC9
  8
0
 10
4652.1871900384439869
 20
291.9170050150053157
 30
0.0
 11
4652.1876743265429468
 21
291.9165471858054275
 31
0.0
  0
LINE
  5
21BCA
  8
0
 10
4652.2260662782427971
 20
291.9112157104053153
 30
0.0
 11
4652.2265510003444433
 21
291.9115376903054084
 31
0.0
  0
LINE
  5
21BCB
  8
0
 10
4652.1315328560440321
 20
291.9292838592053272
 30
0.0
 11
4652.1320170600429265
 21
291.928775933105328
 31
0.0
  0
LINE
  5
21BCC
  8
0
 10
4652.1704028361427845
 20
291.919761204905285
 30
0.0
 11
4652.1708874847454354
 21
291.9200393255052859
 31
0.0
  0
LINE
  5
21BCD
  8
0
 10
4652.0758851932432663
 20
291.9472404682052797
 30
0.0
 11
4652.0763693039425561
 21
291.946676820805294
 31
0.0
  0
LINE
  5
21BCE
  8
0
 10
4652.1147484377443106
 20
291.9337005191052867
 30
0.0
 11
4652.115233010043994
 21
291.9339331368054218
 31
0.0
  0
LINE
  5
21BCF
  8
0
 10
4652.0591038564616611
 20
291.953472437355174
 30
0.0
 11
4652.0595879774537025
 21
291.9536561308499927
 31
0.0
  0
ARC
  5
21BD0
  8
0
 10
4656.9747395015911025
 20
289.5188297965545985
 30
0.0
 40
1.413439128244032
 50
182.7301879887903056
 51
190.8796539049197918
  0
ARC
  5
21BD1
  8
0
 10
4656.1207537233722178
 20
289.3677199443812924
 30
0.0
 40
0.5464313513904341
 50
192.2212062425670922
 51
213.0467703995452098
  0
ARC
  5
21BD2
  8
0
 10
4655.9914477032989453
 20
289.318689528145228
 30
0.0
 40
0.4123567703620259
 50
217.1373808011719859
 51
240.278747774733489
  0
ARC
  5
21BD3
  8
0
 10
4656.1188804082075876
 20
289.635800986449226
 30
0.0
 40
0.7523715480472564
 50
243.825896806126508
 51
262.0648125875039227
  0
ARC
  5
21BD4
  8
0
 10
4656.2860278644648133
 20
291.0225235659722216
 30
0.0
 40
2.1490472576897619
 50
262.7551889656912181
 51
269.3960619266106278
  0
ARC
  5
21BD5
  8
0
 10
4656.3225447815293592
 20
290.5426679164397115
 30
0.0
 40
1.6691298088480151
 50
270.4759407769186055
 51
279.1715537374844871
  0
ARC
  5
21BD6
  8
0
 10
4656.4906879012423815
 20
289.5470239847297194
 30
0.0
 40
0.659454523112497
 50
278.5375735976181204
 51
298.7324298484099927
  0
ARC
  5
21BD7
  8
0
 10
4656.6094729709902822
 20
289.297446890916774
 30
0.0
 40
0.3838304982475525
 50
301.0941761982409162
 51
332.3060661791171242
  0
ARC
  5
21BD8
  8
0
 10
4656.3779689410757783
 20
289.388233769647286
 30
0.0
 40
0.6315932905173808
 50
334.7747215668892977
 51
349.1908414891954067
  0
ARC
  5
21BD9
  8
0
 10
4655.628791253372583
 20
289.518818871084477
 30
0.0
 40
1.3920219822912041
 50
349.6942922233910167
 51
357.228223950388724
  0
ARC
  5
21BDA
  8
0
 10
4650.8477296997707526
 20
292.1150844104710131
 30
0.0
 40
0.8582302098711505
 50
18.3293273351352397
 51
24.5996509635089318
  0
ARC
  5
21BDB
  8
0
 10
4650.2927111804292508
 20
291.9377157485811267
 30
0.0
 40
1.4408814887264461
 50
12.81109351713995
 51
18.0839194117250912
  0
ARC
  5
21BDC
  8
0
 10
4666.819941408242812
 20
295.4599003809005922
 30
0.0
 40
15.4576410336989696
 50
191.9578009802561098
 51
193.0306919798914009
  0
ARC
  5
21BDD
  8
0
 10
4652.3201778664897574
 20
292.6172930086228803
 30
0.0
 40
0.909682400979031
 50
183.7463197938128872
 51
190.035228012377587
  0
ARC
  5
21BDE
  8
0
 10
4652.2531525649019386
 20
292.6045125004620786
 30
0.0
 40
0.8414559699804568
 50
189.973566395695201
 51
203.8992351300389032
  0
ARC
  5
21BDF
  8
0
 10
4652.2169348029156026
 20
292.5893750581199129
 30
0.0
 40
0.8022113521259893
 50
203.9587535660157016
 51
216.764823479095611
  0
ARC
  5
21BE0
  8
0
 10
4652.2189781559281982
 20
292.5918224344728742
 30
0.0
 40
0.805313450696434
 50
216.8173001369123085
 51
232.99536553861779
  0
ARC
  5
21BE1
  8
0
 10
4652.2490991721369937
 20
292.633762767967994
 30
0.0
 40
0.8569364989797758
 50
233.074849135720001
 51
249.8000668332527994
  0
ARC
  5
21BE2
  8
0
 10
4652.2803508689621594
 20
292.7200195525545041
 30
0.0
 40
0.9486791536107478
 50
249.8275289440639142
 51
264.0112087583135008
  0
ARC
  5
21BE3
  8
0
 10
4652.2916201587622709
 20
292.8116243181843856
 30
0.0
 40
1.0409610473790609
 50
263.9203740121843111
 51
269.9683262171571982
  0
ARC
  5
21BE4
  8
0
 10
4652.292994670862754
 20
293.5299883424304994
 30
0.0
 40
1.7089817462931129
 50
268.3970309922949014
 51
269.9346248494546217
  0
ARC
  5
21BE5
  8
0
 10
4652.2905238437206208
 20
293.4646062904673727
 30
0.0
 40
1.6435562879256751
 50
265.0046334232151253
 51
268.4193732976539764
  0
ARC
  5
21BE6
  8
0
 10
4652.2589448014532536
 20
293.1445717165494784
 30
0.0
 40
1.321992416745948
 50
258.4249556422115006
 51
265.160313826999527
  0
ARC
  5
21BE7
  8
0
 10
4652.1525032665722392
 20
292.6303707157766212
 30
0.0
 40
0.7968919921729837
 50
250.2852734327749999
 51
258.5041695093599969
  0
ARC
  5
21BE8
  8
0
 10
4652.0116098462367518
 20
292.2396722006806726
 30
0.0
 40
0.3815670347736202
 50
238.6907187820289096
 51
250.4110525873277879
  0
ARC
  5
21BE9
  8
0
 10
4651.9043889528957152
 20
292.0616958172101931
 30
0.0
 40
0.1737926066023384
 50
224.853934484992692
 51
238.4006161809693936
  0
ARC
  5
21BEA
  8
0
 10
4651.8446841527511424
 20
292.0021650386037209
 30
0.0
 40
0.0894803277641205
 50
209.2083417965341994
 51
224.7950972104927985
  0
ARC
  5
21BEB
  8
0
 10
4651.8200194499086138
 20
291.9884442626075156
 30
0.0
 40
0.0612561886810131
 50
193.0426754244977872
 51
209.2643264688531133
  0
ARC
  5
21BEC
  8
0
 10
4652.2873579049073669
 20
290.4624441464405891
 30
0.0
 40
1.6870430711677511
 50
90.1252120685877571
 51
93.4979613012576038
  0
ARC
  5
21BED
  8
0
 10
4652.2734198534235475
 20
290.6650173234635872
 30
0.0
 40
1.4839977034432059
 50
93.4380213802379842
 51
98.1616817652189866
  0
ARC
  5
21BEE
  8
0
 10
4652.2145483642179897
 20
291.0626209008244132
 30
0.0
 40
1.082065033728532
 50
98.0648549119608788
 51
104.3243002182772017
  0
ARC
  5
21BEF
  8
0
 10
4652.0942115387942977
 20
291.5235939318537248
 30
0.0
 40
0.6056560677945548
 50
104.0834129934037975
 51
113.5302514900311053
  0
ARC
  5
21BF0
  8
0
 10
4651.9518468632440999
 20
291.8435262368894882
 30
0.0
 40
0.2555049513781362
 50
112.9024938959224045
 51
129.3034112563921951
  0
ARC
  5
21BF1
  8
0
 10
4651.8490843426152423
 20
291.9676094131897912
 30
0.0
 40
0.0944010158619919
 50
128.7448546778495881
 51
153.2964493696786974
  0
ARC
  5
21BF2
  8
0
 10
4651.8142292477514275
 20
291.9855943749000744
 30
0.0
 40
0.0551829384426431
 50
153.7156758303302979
 51
178.7303379022912111
  0
ARC
  5
21BF3
  8
0
 10
4651.8106597340838562
 20
291.9860817521422973
 30
0.0
 40
0.0516051160527204
 50
179.1835166442425873
 51
192.8325080557889066
  0
ARC
  5
21BF4
  8
0
 10
4652.2198316615449585
 20
292.7933006421725963
 30
0.0
 40
0.9521976380769706
 50
254.0754531438441006
 51
262.3791115143351931
  0
ARC
  5
21BF5
  8
0
 10
4652.0843339649672998
 20
292.3232349206917888
 30
0.0
 40
0.4629964565721935
 50
242.94882546056499
 51
254.2394601918803119
  0
ARC
  5
21BF6
  8
0
 10
4651.9669737546100805
 20
292.0914171400988835
 30
0.0
 40
0.2031676090605966
 50
230.2368996829322896
 51
242.6932004437404089
  0
ARC
  5
21BF7
  8
0
 10
4651.890915950210001
 20
292.0026375522908779
 30
0.0
 40
0.086291800625345
 50
202.3681972994039882
 51
231.3528262716839095
  0
ARC
  5
21BF8
  8
0
 10
4651.8553915951961244
 20
291.9859301642280229
 30
0.0
 40
0.0471218656627369
 50
167.0366032654503101
 51
200.0193395459328087
  0
ARC
  5
21BF9
  8
0
 10
4651.8707541974135893
 20
291.9810553517477842
 30
0.0
 40
0.06319994992904
 50
140.4946389218343086
 51
165.8540668476510973
  0
ARC
  5
21BFA
  8
0
 10
4651.9174490281284307
 20
291.9431438899648015
 30
0.0
 40
0.1233462768667528
 50
126.0440572124909977
 51
140.7054239199977133
  0
ARC
  5
21BFB
  8
0
 10
4652.0084939013431722
 20
291.8120856592645964
 30
0.0
 40
0.2829084524540814
 50
111.2524779932617065
 51
125.3352201394812937
  0
ARC
  5
21BFC
  8
0
 10
4652.111353606416742
 20
291.5639128785898038
 30
0.0
 40
0.5515195984995542
 50
106.5046074561080047
 51
111.8661699172426012
  0
ARC
  5
21BFD
  8
0
 10
4652.1655513608611727
 20
291.3830347102866085
 30
0.0
 40
0.7403424229499129
 50
103.539558439220599
 51
106.5493794226427013
  0
ARC
  5
21BFE
  8
0
 10
4652.2278829548486101
 20
291.1125217228757833
 30
0.0
 40
1.01793398329147
 50
98.1483293927348228
 51
103.385767650207697
  0
ARC
  5
21BFF
  8
0
 10
4652.2752451316782754
 20
290.7842824597983054
 30
0.0
 40
1.349572478539159
 50
93.6403926184421636
 51
98.1636394212135741
  0
ARC
  5
21C00
  8
0
 10
4652.2879239947760652
 20
290.5984676703299101
 30
0.0
 40
1.535817604576178
 50
89.8835776157360868
 51
93.672294700174362
  0
ARC
  5
21C01
  8
0
 10
4651.9869764293007393
 20
292.0613925006416025
 30
0.0
 40
0.0758445946285748
 50
214.1902909679342031
 51
228.0255387934400915
  0
ARC
  5
21C02
  8
0
 10
4651.9631087232182836
 20
292.0450564782398146
 30
0.0
 40
0.0469219960879473
 50
194.9261734410553117
 51
214.0676120328907075
  0
ARC
  5
21C03
  8
0
 10
4651.952823109021665
 20
292.0419885217431215
 30
0.0
 40
0.0361945791447336
 50
163.7920170930526922
 51
194.4273183535981104
  0
ARC
  5
21C04
  8
0
 10
4651.9688051082703169
 20
292.0362115216489087
 30
0.0
 40
0.0531649768408008
 50
138.0493920962506991
 51
162.6211050993373135
  0
ARC
  5
21C05
  8
0
 10
4652.014142898218779
 20
291.994730956782405
 30
0.0
 40
0.1146142740257221
 50
121.2576159683075048
 51
137.7783768052420044
  0
ARC
  5
21C06
  8
0
 10
4651.97062594820909
 20
292.0231955834515816
 30
0.0
 40
0.0343438095175795
 50
168.4347115833984958
 51
179.9439168250627006
  0
ARC
  5
21C07
  8
0
 10
4651.9781487624622969
 20
292.0212228240710033
 30
0.0
 40
0.0421115343780359
 50
147.8638882817444937
 51
167.8571401286893092
  0
ARC
  5
21C08
  8
0
 10
4652.0020570303549903
 20
292.0056426660423767
 30
0.0
 40
0.0706459316012058
 50
130.9021401352588896
 51
147.4782495236065074
  0
ARC
  5
21C09
  8
0
 10
4652.0649517124365957
 20
291.9287828981850907
 30
0.0
 40
0.1699431320789381
 50
111.8889620884266947
 51
129.9622098157936136
  0
ARC
  5
21C0A
  8
0
 10
4652.1988125263051188
 20
291.5984168579644233
 30
0.0
 40
0.5263980157007997
 50
98.8479073747015065
 51
112.0029325850631068
  0
ARC
  5
21C0B
  8
0
 10
4652.2791753777501071
 20
291.1498117769186251
 30
0.0
 40
0.9820806550423808
 50
92.9770925370195869
 51
99.4549976941295881
  0
ARC
  5
21C0C
  8
0
 10
4652.2887252739301402
 20
290.9999406040450936
 30
0.0
 40
1.132246906029394
 50
89.8826284242391864
 51
93.0658105611969546
  0
ARC
  5
21C0D
  8
0
 10
4652.0066248431912754
 20
291.9675363644893196
 30
0.0
 40
0.0704360153486998
 50
179.9996726569098939
 51
199.540933037439089
  0
ARC
  5
21C0E
  8
0
 10
4652.0182978592492873
 20
291.9720760311498111
 30
0.0
 40
0.0829559689079362
 50
199.7991100513015965
 51
217.8842827270489977
  0
ARC
  5
21C0F
  8
0
 10
4652.0336273025677656
 20
291.983049420450584
 30
0.0
 40
0.1017959682331341
 50
217.4607033577100879
 51
221.6420992060016033
  0
ARC
  5
21C10
  8
0
 10
4652.0374479659976714
 20
291.9862996014236955
 30
0.0
 40
0.1068109105196811
 50
221.5831762667633882
 51
228.1732152857742904
  0
ARC
  5
21C11
  8
0
 10
4652.044594620107091
 20
292.2415099669988194
 30
0.0
 40
0.3064364861804862
 50
238.2776610110088882
 51
249.5282002019324921
  0
ARC
  5
21C12
  8
0
 10
4651.9605378075557383
 20
292.105394318117078
 30
0.0
 40
0.146458340443791
 50
225.9614585009911139
 51
238.2499561843818014
  0
ARC
  5
21C13
  8
0
 10
4651.9076218427408094
 20
292.052886277890309
 30
0.0
 40
0.0719441156978276
 50
202.2010537010179121
 51
227.1874198486370915
  0
ARC
  5
21C14
  8
0
 10
4651.8845093419477053
 20
292.0425576379395238
 30
0.0
 40
0.0466497128866296
 50
186.1014125060872004
 51
201.181984745610805
  0
ARC
  5
21C15
  8
0
 10
4652.1120497792480819
 20
292.4248598740679199
 30
0.0
 40
0.5282906611689522
 50
248.6775832051081068
 51
252.4584806310938063
  0
ARC
  5
21C16
  8
0
 10
4652.0510398437963886
 20
292.2707378617726022
 30
0.0
 40
0.3625351437704166
 50
242.4063568714111909
 51
248.8028409847275952
  0
ARC
  5
21C17
  8
0
 10
4651.9782275804664096
 20
292.1342285834795121
 30
0.0
 40
0.2078307054404365
 50
232.1687437203030981
 51
242.7645966998481128
  0
ARC
  5
21C18
  8
0
 10
4651.9220042404122069
 20
292.0621624218792931
 30
0.0
 40
0.1164276405004675
 50
219.861893964176403
 51
232.269840152010886
  0
ARC
  5
21C19
  8
0
 10
4651.8865887320216643
 20
292.0326707095571237
 30
0.0
 40
0.0703406244380223
 50
204.5397731459084127
 51
219.9120696781644995
  0
ARC
  5
21C1A
  8
0
 10
4651.8687232919810413
 20
292.0243468273195049
 30
0.0
 40
0.0506320262102686
 50
188.5402400040038913
 51
204.3677092052053865
  0
ARC
  5
21C1B
  8
0
 10
4652.1173136869392692
 20
292.4580189583043079
 30
0.0
 40
0.5656405437192125
 50
248.5096499781919022
 51
253.5941122423924128
  0
ARC
  5
21C1C
  8
0
 10
4652.0377349360705921
 20
292.2572217066586973
 30
0.0
 40
0.3496499589996693
 50
240.8155362689385868
 51
248.5891917340375983
  0
ARC
  5
21C1D
  8
0
 10
4651.9659857415708757
 20
292.1283752316535924
 30
0.0
 40
0.2021735195321563
 50
231.5449213556995005
 51
240.762384239251702
  0
ARC
  5
21C1E
  8
0
 10
4651.912678364268686
 20
292.0613164549254748
 30
0.0
 40
0.1165081641613982
 50
219.1305051154674004
 51
231.5650261467550877
  0
ARC
  5
21C1F
  8
0
 10
4651.8804227521768553
 20
292.0345304593187166
 30
0.0
 40
0.0745839962205537
 50
208.306296998758512
 51
218.8063057501987885
  0
ARC
  5
21C20
  8
0
 10
4651.8678982057972462
 20
292.0275827906049813
 30
0.0
 40
0.0602628520471195
 50
202.3098762421365961
 51
208.1371070430622865
  0
ARC
  5
21C21
  8
0
 10
4652.2158338745321089
 20
291.4618520757391025
 30
0.0
 40
0.5788348107643292
 50
100.2834593812993944
 51
107.044986734331502
  0
ARC
  5
21C22
  8
0
 10
4652.1225038935699558
 20
291.7523577898509757
 30
0.0
 40
0.2737628296194954
 50
106.1917435247764985
 51
120.4308467446572024
  0
ARC
  5
21C23
  8
0
 10
4652.0395656830087319
 20
291.8945385594267918
 30
0.0
 40
0.1091618358446729
 50
120.6940951092156951
 51
136.1116071567896029
  0
ARC
  5
21C24
  8
0
 10
4652.0005760831672887
 20
291.9323549360300944
 30
0.0
 40
0.0548463941023538
 50
136.3457951584711054
 51
154.4824140149821119
  0
ARC
  5
21C25
  8
0
 10
4651.9830523877990345
 20
291.9408503148769114
 30
0.0
 40
0.035372568391401
 50
154.6730323585557869
 51
180.6235349179686978
  0
ARC
  5
21C26
  8
0
 10
4651.9810928361803235
 20
291.9411523038908172
 30
0.0
 40
0.03341798308197
 50
181.1778408135513132
 51
192.7233841224600894
  0
ARC
  5
21C27
  8
0
 10
4651.9882608981915837
 20
291.943088161603896
 30
0.0
 40
0.0408375667054964
 50
193.1577582549386989
 51
211.5004534053493046
  0
ARC
  5
21C28
  8
0
 10
4652.0094065994326229
 20
291.9563379828280745
 30
0.0
 40
0.0657907248649456
 50
211.7168968033122098
 51
224.820182673905208
  0
ARC
  5
21C29
  8
0
 10
4652.2701747785449697
 20
291.1844192525610993
 30
0.0
 40
0.850998204438987
 50
94.9576749188458678
 51
100.5257946880773972
  0
ARC
  5
21C2A
  8
0
 10
4652.1040271974134157
 20
291.7928797471112148
 30
0.0
 40
0.2181054814552009
 50
112.1408445901475943
 51
121.732893398356893
  0
ARC
  5
21C2B
  8
0
 10
4652.0426671142349733
 20
291.8915278082624809
 30
0.0
 40
0.1019318866640148
 50
121.5629225831811056
 51
138.0026821995444948
  0
ARC
  5
21C2C
  8
0
 10
4651.9993908356145766
 20
291.9300765812869258
 30
0.0
 40
0.0439782405033764
 50
137.6021287990785993
 51
168.5725761452870017
  0
ARC
  5
21C2D
  8
0
 10
4651.9878826578496955
 20
291.9333319346151256
 30
0.0
 40
0.0320661599492099
 50
170.2001142197458989
 51
191.0880212888216931
  0
ARC
  5
21C2E
  8
0
 10
4651.9925813313293474
 20
291.9343377422915182
 30
0.0
 40
0.0368706508251338
 50
191.2176195904195879
 51
203.1969617066926901
  0
ARC
  5
21C2F
  8
0
 10
4652.0013443212619677
 20
291.9382747513133154
 30
0.0
 40
0.0464762687541831
 50
203.4028940029467947
 51
214.8722832061332042
  0
ARC
  5
21C30
  8
0
 10
4652.0354032362738508
 20
291.9668860305176281
 30
0.0
 40
0.0910304265695029
 50
220.8275763008383876
 51
235.5323106741240906
  0
ARC
  5
21C31
  8
0
 10
4652.1002678971217392
 20
292.06359194764309
 30
0.0
 40
0.2074725594725961
 50
235.8782058612308958
 51
248.9657377609879063
  0
ARC
  5
21C32
  8
0
 10
4652.1886072466768383
 20
292.2872926098218045
 30
0.0
 40
0.4479796577105536
 50
248.6893585919993086
 51
257.7496578640923985
  0
ARC
  5
21C33
  8
0
 10
4652.269482809980218
 20
292.6508075786936161
 30
0.0
 40
0.820379998222881
 50
257.6168117840031755
 51
265.6581741659931026
  0
ARC
  5
21C34
  8
0
 10
4652.2916868620413879
 20
292.8871694081407782
 30
0.0
 40
1.0577530179618619
 50
265.4281695268571184
 51
269.9652158958429027
  0
ARC
  5
21C35
  8
0
 10
4652.2165281563757162
 20
291.5103228519737968
 30
0.0
 40
0.5137041713236529
 50
102.5890843262267964
 51
105.9095248391892028
  0
ARC
  5
21C36
  8
0
 10
4652.1784924417515867
 20
291.6422939535534056
 30
0.0
 40
0.3763620234640835
 50
105.8481758717032051
 51
110.7833239673202002
  0
ARC
  5
21C37
  8
0
 10
4652.1198718083323911
 20
291.7921172465721042
 30
0.0
 40
0.215493506810457
 50
110.3463161059054016
 51
121.564164407869896
  0
ARC
  5
21C38
  8
0
 10
4652.1040071283832731
 20
291.828357228507798
 30
0.0
 40
0.1763949377756788
 50
123.335456230987603
 51
127.6925958667038969
  0
ARC
  5
21C39
  8
0
 10
4652.0345491545012919
 20
291.9178155816172193
 30
0.0
 40
0.0631385447508255
 50
127.4519206659262949
 51
150.8802262061601027
  0
ARC
  5
21C3A
  8
0
 10
4652.0083909477361885
 20
291.933056498982296
 30
0.0
 40
0.0328750342783718
 50
151.8998085421532949
 51
182.2249434376525983
  0
ARC
  5
21C3B
  8
0
 10
4652.0083611248137458
 20
291.93365889302288
 30
0.0
 40
0.0328741530566804
 50
183.2761307359425871
 51
204.9896397559915044
  0
ARC
  5
21C3C
  8
0
 10
4652.0257633945711859
 20
291.9423207129530056
 30
0.0
 40
0.0523089017185316
 50
205.5365178369069952
 51
224.7689400554033909
  0
ARC
  5
21C3D
  8
0
 10
4652.080232524674102
 20
292.0016097406989957
 30
0.0
 40
0.1327861383853693
 50
226.3797050681741894
 51
245.4041237312250132
  0
ARC
  5
21C3E
  8
0
 10
4652.1666834946790914
 20
292.1830830717714775
 30
0.0
 40
0.3337900651643746
 50
244.8762949695590976
 51
254.8358555412862927
  0
ARC
  5
21C3F
  8
0
 10
4652.2426151159615983
 20
292.4562215525288025
 30
0.0
 40
0.6172832971651769
 50
254.6651865657647988
 51
261.4374150313427094
  0
ARC
  5
21C40
  8
0
 10
4652.2843704459382934
 20
292.7265364372552767
 30
0.0
 40
0.8908027496759171
 50
261.3703408214158799
 51
266.9587400288929757
  0
ARC
  5
21C41
  8
0
 10
4652.2919179557284224
 20
292.8451209617973063
 30
0.0
 40
1.0096214600979541
 50
266.8880656382423808
 51
269.9504431215426052
  0
ARC
  5
21C42
  8
0
 10
4652.0861994481247166
 20
292.0442935514531086
 30
0.0
 40
0.146326507643062
 50
234.0453032371625
 51
241.9411802140286056
  0
ARC
  5
21C43
  8
0
 10
4652.0514094757054409
 20
291.9966927902246994
 30
0.0
 40
0.0873680606560249
 50
222.776087885212803
 51
234.1851664381119065
  0
ARC
  5
21C44
  8
0
 10
4652.0248569584646248
 20
291.9722409289191205
 30
0.0
 40
0.0512721127731735
 50
207.5314679353710119
 51
222.8707964787342917
  0
ARC
  5
21C45
  8
0
 10
4652.0865590867597348
 20
291.9515805212324153
 30
0.0
 40
0.0593282892104321
 50
220.9898985312237869
 51
227.7718318311871997
  0
ARC
  5
21C46
  8
0
 10
4652.2913077284028986
 20
292.4813760670072043
 30
0.0
 40
0.618415495686513
 50
264.3160399878281055
 51
269.9756308951925803
  0
ARC
  5
21C47
  8
0
 10
4652.2910540737329939
 20
292.4790181528571225
 30
0.0
 40
0.6160440526404406
 50
256.8718174159532737
 51
264.3177956558437813
  0
ARC
  5
21C48
  8
0
 10
4652.2898235920220031
 20
292.4737777530982044
 30
0.0
 40
0.6106611343613138
 50
250.3370922173066901
 51
256.8725744415739882
  0
ARC
  5
21C49
  8
0
 10
4652.2878509168185701
 20
292.4682473804903111
 30
0.0
 40
0.6047894686694353
 50
245.2003244711841035
 51
250.3367847415842959
  0
ARC
  5
21C4A
  8
0
 10
4652.0863034819767563
 20
291.9149510754194807
 30
0.0
 40
0.0590566130261634
 50
132.1330446287686016
 51
138.9358352092868074
  0
ARC
  5
21C4B
  8
0
 10
4652.2896381913978985
 20
292.4944063116981283
 30
0.0
 40
0.5997475409891094
 50
263.0788131830489078
 51
270.1343686483716056
  0
ARC
  5
21C4C
  8
0
 10
4652.2909826860777684
 20
292.5102601500367996
 30
0.0
 40
0.6156481361448551
 50
256.5438530742907801
 51
263.1323960725018765
  0
ARC
  5
21C4D
  8
0
 10
4652.2901391864043035
 20
292.5065870853742922
 30
0.0
 40
0.6118796210102408
 50
253.2309974019837
 51
256.5406335914486249
  0
ARC
  5
21C4E
  8
0
 10
4652.2893693705091209
 20
292.5040427021924074
 30
0.0
 40
0.6092213333458184
 50
250.3856903280332915
 51
253.2312786299299887
  0
ARC
  5
21C4F
  8
0
 10
4652.2884958621716578
 20
292.5015655333443192
 30
0.0
 40
0.6065946803892041
 50
248.0766285038621106
 51
250.3848656291517898
  0
ARC
  5
21C50
  8
0
 10
4652.2878885824993631
 20
292.5000258959507278
 30
0.0
 40
0.6049396457549681
 50
247.5193556504906951
 51
248.0755407277179074
  0
ARC
  5
21C51
  8
0
 10
4652.2875271982693448
 20
292.4991582856355876
 30
0.0
 40
0.6039997832695665
 50
246.4480176633531983
 51
247.5195617734686095
  0
ARC
  5
21C52
  8
0
 10
4652.2869260874922475
 20
292.4977825705058194
 30
0.0
 40
0.6024984756666973
 50
245.1965171793586933
 51
246.4481439033571917
  0
ARC
  5
21C53
  8
0
 10
4652.8153904463588333
 20
291.2283215683028175
 30
0.0
 40
1.037079905824555
 50
136.9177191713330899
 51
137.5076259045360132
  0
ARC
  5
21C54
  8
0
 10
4652.8153838194139098
 20
291.2307574420822789
 30
0.0
 40
1.037071598173227
 50
136.8428126661574993
 51
137.5819235607432063
  0
ARC
  5
21C55
  8
0
 10
4652.0578256287953991
 20
291.6176814489725757
 30
0.0
 40
0.3232538336407891
 50
90.1688097739353083
 51
91.4273905130633437
  0
ARC
  5
21C56
  8
0
 10
4652.0577242646268132
 20
291.6249348007553976
 30
0.0
 40
0.3184302398283587
 50
91.1684670213939938
 51
91.7350334887448611
  0
ARC
  5
21C57
  8
0
 10
4652.8171447869153781
 20
291.2439182538745968
 30
0.0
 40
1.0394602484820441
 50
137.6435574822174033
 51
137.720040743360812
  0
ARC
  5
21C58
  8
0
 10
4652.2957896285515744
 20
294.3834671520659185
 30
0.0
 40
2.583345401578089
 50
268.900921906837084
 51
269.8947626798318993
  0
ARC
  5
21C59
  8
0
 10
4652.2177715506277309
 20
290.7742266993820976
 30
0.0
 40
1.0267650041418559
 50
88.4113293903605353
 51
90.5695232745671461
  0
ARC
  5
21C5A
  8
0
 10
4652.2095567249625674
 20
291.7683113539620194
 30
0.0
 40
0.0326903191091656
 50
93.4919436693237316
 51
103.9376200940828028
  0
ARC
  5
21C5B
  8
0
 10
4652.2911282873974415
 20
292.2771687850164994
 30
0.0
 40
0.4854411622686635
 50
259.3822315911958185
 51
269.9901347071152031
  0
LINE
  5
21C5C
  8
0
 10
4652.6459005786427952
 20
291.9675367669054253
 30
0.0
 11
4652.6458072513441948
 21
292.0232292004054102
 31
0.0
  0
LINE
  5
21C5D
  8
0
 10
4652.5798304761437976
 20
291.9618561633054128
 30
0.0
 11
4652.5798126942008821
 21
291.9724616924004863
 31
0.0
  0
LINE
  5
21C5E
  8
0
 10
4652.5798322169439416
 20
291.9435403108053038
 30
0.0
 11
4652.5798145514436328
 21
291.9540763799054162
 31
0.0
  0
LINE
  5
21C5F
  8
0
 10
4652.5798243232429741
 20
291.9309707545053243
 30
0.0
 11
4652.5798125685441846
 21
291.937981477705307
 31
0.0
  0
LINE
  5
21C60
  8
0
 10
4652.5601622906442572
 20
291.9517892676054203
 30
0.0
 11
4652.5601388340437552
 21
291.9657792538052945
 31
0.0
  0
LINE
  5
21C61
  8
0
 10
4652.5601639941442045
 20
291.9334957083053155
 30
0.0
 11
4652.5601463285438513
 21
291.9440317774053142
 31
0.0
  0
LINE
  5
21C62
  8
0
 10
4652.5601562574429408
 20
291.9208324300054187
 30
0.0
 11
4652.5601443830437347
 21
291.9279145820053145
 31
0.0
  0
LINE
  5
21C63
  8
0
 10
4652.551994701343574
 20
291.9859175469052843
 30
0.0
 11
4652.5519911750343454
 21
291.9880206829171243
 31
0.0
  0
LINE
  5
21C64
  8
0
 10
4652.5520106569601921
 20
291.9591236756648982
 30
0.0
 11
4652.5519843116453558
 21
291.9748365827052794
 31
0.0
  0
LINE
  5
21C65
  8
0
 10
4652.5520170327454252
 20
291.9380434539053226
 30
0.0
 11
4652.5519965062439951
 21
291.9502858720052814
 31
0.0
  0
LINE
  5
21C66
  8
0
 10
4652.5520140507442193
 20
291.9225444255054072
 30
0.0
 11
4652.5519992462441223
 21
291.9313741457053197
 31
0.0
  0
LINE
  5
21C67
  8
0
 10
4652.5520016140435473
 20
291.9126843815054144
 30
0.0
 11
4652.5519926282440792
 21
291.9180436821052922
 31
0.0
  0
LINE
  5
21C68
  8
0
 10
4652.5519792901432083
 20
291.9087212142052863
 30
0.0
 11
4652.5519941701386415
 21
291.9104267590000745
 31
0.0
  0
LINE
  5
21C69
  8
0
 10
4652.5323247964442999
 20
291.9768761035053899
 30
0.0
 11
4652.5322927846136736
 21
291.9959686044006162
 31
0.0
  0
LINE
  5
21C6A
  8
0
 10
4652.5323262323454401
 20
291.9587421474054167
 30
0.0
 11
4652.5323142745437508
 21
291.9658740334053277
 31
0.0
  0
LINE
  5
21C6B
  8
0
 10
4652.5323159847439456
 20
291.9302988767054217
 30
0.0
 11
4652.5322983192436368
 21
291.9408349458054204
 31
0.0
  0
LINE
  5
21C6C
  8
0
 10
4652.5323315768437169
 20
291.9037218323052798
 30
0.0
 11
4652.5323272282439575
 21
291.9063154175054251
 31
0.0
  0
LINE
  5
21C6D
  8
0
 10
4652.5323096571437418
 20
291.8995176311053115
 30
0.0
 11
4652.5323065431139185
 21
291.9013749259851807
 31
0.0
  0
LINE
  5
21C6E
  8
0
 10
4652.5314077176453793
 20
291.9288608229052784
 30
0.0
 11
4652.5314269734435584
 21
291.917376252005397
 31
0.0
  0
LINE
  5
21C6F
  8
0
 10
4652.5241653957427843
 20
291.9888429204053182
 30
0.0
 11
4652.5241486561517377
 21
291.9988267885105984
 31
0.0
  0
LINE
  5
21C70
  8
0
 10
4652.524185808344555
 20
291.9593908804054081
 30
0.0
 11
4652.5241567413440862
 21
291.9767270505054171
 31
0.0
  0
LINE
  5
21C71
  8
0
 10
4652.5241693651441892
 20
291.9173652503054086
 30
0.0
 11
4652.5241369364821367
 21
291.9367063441595178
 31
0.0
  0
LINE
  5
21C72
  8
0
 10
4652.5241739226430582
 20
291.8973694720053231
 30
0.0
 11
4652.5241853982815883
 21
291.9011054697966188
 31
0.0
  0
LINE
  5
21C73
  8
0
 10
4652.5044936753429283
 20
291.9808843486054002
 30
0.0
 11
4652.5044586991425604
 21
292.0017448700053251
 31
0.0
  0
LINE
  5
21C74
  8
0
 10
4652.5045137725437598
 20
291.9516203968054242
 30
0.0
 11
4652.5044848787429146
 21
291.9688532367052858
 31
0.0
  0
LINE
  5
21C75
  8
0
 10
4652.5044843507430414
 20
291.9173354100053075
 30
0.0
 11
4652.5044583952440007
 21
291.9328158035053207
 31
0.0
  0
LINE
  5
21C76
  8
0
 10
4652.5045020600427961
 20
291.8894956582054192
 30
0.0
 11
4652.5044956413230466
 21
291.8933239345424226
 31
0.0
  0
LINE
  5
21C77
  8
0
 10
4652.497227584743996
 20
291.9301930544053221
 30
0.0
 11
4652.497249161144282
 21
291.9173244422053131
 31
0.0
  0
LINE
  5
21C78
  8
0
 10
4652.4963312861082159
 20
291.9946336146771273
 30
0.0
 11
4652.4963103687014154
 21
292.0071091678315156
 31
0.0
  0
LINE
  5
21C79
  8
0
 10
4652.4963561741942613
 20
291.9625122850579828
 30
0.0
 11
4652.4963243861438968
 21
291.9814713277053215
 31
0.0
  0
LINE
  5
21C7A
  8
0
 10
4652.4963627539445952
 20
291.8894777024053155
 30
0.0
 11
4652.496358276051069
 21
291.8921484015979217
 31
0.0
  0
LINE
  5
21C7B
  8
0
 10
4652.4963414463445588
 20
291.8849083719052828
 30
0.0
 11
4652.4963379033442834
 21
291.8870214971054224
 31
0.0
  0
LINE
  5
21C7C
  8
0
 10
4652.4766578515436777
 20
291.9876973615052975
 30
0.0
 11
4652.4766200724161536
 21
292.0102295680507041
 31
0.0
  0
LINE
  5
21C7D
  8
0
 10
4652.4766824078442369
 20
291.9557738807052942
 30
0.0
 11
4652.476650804844212
 21
291.9746225722054191
 31
0.0
  0
LINE
  5
21C7E
  8
0
 10
4652.4766888973435925
 20
291.8827931303054015
 30
0.0
 11
4652.4766843590250573
 21
291.8854998951215975
 31
0.0
  0
LINE
  5
21C7F
  8
0
 10
4652.4766678651430993
 20
291.8780596163052792
 30
0.0
 11
4652.4766641371443257
 21
291.8802830631054235
 31
0.0
  0
LINE
  5
21C80
  8
0
 10
4652.4757398093443044
 20
291.9229791022053178
 30
0.0
 11
4652.4757493449442336
 21
291.9172918509053147
 31
0.0
  0
LINE
  5
21C81
  8
0
 10
4652.4684924520443019
 20
292.0032420158053128
 30
0.0
 11
4652.4684750774522399
 21
292.0136045857468048
 31
0.0
  0
LINE
  5
21C82
  8
0
 10
4652.4685219053435503
 20
291.968397873005415
 30
0.0
 11
4652.46848735414369
 21
291.9890048990052946
 31
0.0
  0
LINE
  5
21C83
  8
0
 10
4652.4685415269441364
 20
291.9394176044053211
 30
0.0
 11
4652.4685128946430268
 21
291.9564944998052738
 31
0.0
  0
LINE
  5
21C84
  8
0
 10
4652.4684917365439105
 20
291.9172808492053264
 30
0.0
 11
4652.4684859074432097
 21
291.9207574566053154
 31
0.0
  0
LINE
  5
21C85
  8
0
 10
4652.4685300759429083
 20
291.8771369213054072
 30
0.0
 11
4652.4685233772443098
 21
291.8811321641053951
 31
0.0
  0
LINE
  5
21C86
  8
0
 10
4652.4685042934443118
 20
291.8752365658053236
 30
0.0
 11
4652.4685033588439182
 21
291.8757939595053017
 31
0.0
  0
LINE
  5
21C87
  8
0
 10
4652.4488173738436672
 20
291.9972860145052778
 30
0.0
 11
4652.4487836755151875
 21
292.0173844195451238
 31
0.0
  0
LINE
  5
21C88
  8
0
 10
4652.4488464917430974
 20
291.9626419849054173
 30
0.0
 11
4652.4488121292442884
 21
291.9831364333052761
 31
0.0
  0
LINE
  5
21C89
  8
0
 10
4652.4488659015432859
 20
291.9337879856054201
 30
0.0
 11
4652.4488373856438557
 21
291.9507954321052807
 31
0.0
  0
LINE
  5
21C8A
  8
0
 10
4652.4488545669437372
 20
291.8714378536053005
 30
0.0
 11
4652.4488477518443688
 21
291.8755025452052791
 31
0.0
  0
LINE
  5
21C8B
  8
0
 10
4652.4488290685440006
 20
291.8693681001053051
 30
0.0
 11
4652.4488280999439667
 21
291.8699457899052732
 31
0.0
  0
LINE
  5
21C8C
  8
0
 10
4652.4406488924441874
 20
292.0146688272052984
 30
0.0
 11
4652.440641994166981
 21
292.0187830819486976
 31
0.0
  0
LINE
  5
21C8D
  8
0
 10
4652.4406830833859203
 20
291.9769990339921151
 30
0.0
 11
4652.44064567404439
 21
291.9993107382052813
 31
0.0
  0
LINE
  5
21C8E
  8
0
 10
4652.4407071451487354
 20
291.9453705319172059
 30
0.0
 11
4652.4406758088443894
 21
291.9640601529052901
 31
0.0
  0
LINE
  5
21C8F
  8
0
 10
4652.4407134907442014
 20
291.8724756200052752
 30
0.0
 11
4652.4407088131438286
 21
291.8752654506054114
 31
0.0
  0
LINE
  5
21C90
  8
0
 10
4652.4406928691441863
 20
291.8674971970053207
 30
0.0
 11
4652.4406888653429633
 21
291.8698851443052718
 31
0.0
  0
LINE
  5
21C91
  8
0
 10
4652.4209722137438803
 20
292.0096673960053977
 30
0.0
 11
4652.4209519164178346
 21
292.021773163168973
 31
0.0
  0
LINE
  5
21C92
  8
0
 10
4652.4210060683435586
 20
291.9721982678053109
 30
0.0
 11
4652.4209688533437657
 21
291.9943940666054232
 31
0.0
  0
LINE
  5
21C93
  8
0
 10
4652.4210299147443948
 20
291.9406982465054057
 30
0.0
 11
4652.4209987078438644
 21
291.9593106352053269
 31
0.0
  0
LINE
  5
21C94
  8
0
 10
4652.4210362104431624
 20
291.8678330367054059
 30
0.0
 11
4652.4210314922438556
 21
291.8706470966052962
 31
0.0
  0
LINE
  5
21C95
  8
0
 10
4652.4210157681436613
 20
291.8627476794052882
 30
0.0
 11
4652.4210116439444391
 21
291.86520742880532
 31
0.0
  0
LINE
  5
21C96
  8
0
 10
4652.4128396790429179
 20
291.9883332488053043
 30
0.0
 11
4652.4127992971443746
 21
292.0124178663053272
 31
0.0
  0
LINE
  5
21C97
  8
0
 10
4652.4128683069438921
 20
291.9539814426054249
 30
0.0
 11
4652.4128342203439388
 21
291.9743113917053279
 31
0.0
  0
LINE
  5
21C98
  8
0
 10
4652.4128874068592268
 20
291.9253122509376226
 30
0.0
 11
4652.4128590615437133
 21
291.9422180158052811
 31
0.0
  0
LINE
  5
21C99
  8
0
 10
4652.4128762428435948
 20
291.8628604373054145
 30
0.0
 11
4652.4128692571430292
 21
291.8670268197054156
 31
0.0
  0
LINE
  5
21C9A
  8
0
 10
4652.4128511595436066
 20
291.8605430585054137
 30
0.0
 11
4652.4128499151429423
 21
291.8612852476052808
 31
0.0
  0
LINE
  5
21C9B
  8
0
 10
4652.3931611117441207
 20
291.9844582454052784
 30
0.0
 11
4652.3931209031443359
 21
292.0084395100054167
 31
0.0
  0
LINE
  5
21C9C
  8
0
 10
4652.3931895328441897
 20
291.9502297563054185
 30
0.0
 11
4652.3931555627441412
 21
291.9704902511052751
 31
0.0
  0
LINE
  5
21C9D
  8
0
 10
4652.3932085018441285
 20
291.921638716505413
 30
0.0
 11
4652.3931802285442245
 21
291.9385014619052754
 31
0.0
  0
LINE
  5
21C9E
  8
0
 10
4652.393197409844106
 20
291.8591438834054088
 30
0.0
 11
4652.3931903521443019
 21
291.8633532762053164
 31
0.0
  0
LINE
  5
21C9F
  8
0
 10
4652.393172501943809
 20
291.8567219179053041
 30
0.0
 11
4652.3931711410441494
 21
291.857533561305388
 31
0.0
  0
LINE
  5
21CA0
  8
0
 10
4652.3849916457429572
 20
292.0024282795054091
 30
0.0
 11
4652.3849522509954113
 21
292.0259241090412843
 31
0.0
  0
LINE
  5
21CA1
  8
0
 10
4652.3850250382438389
 20
291.9652347227053042
 30
0.0
 11
4652.3849880846428277
 21
291.9872745808053196
 31
0.0
  0
LINE
  5
21CA2
  8
0
 10
4652.3850485793745975
 20
291.9339167746563248
 30
0.0
 11
4652.385017542944297
 21
291.9524274918052811
 31
0.0
  0
LINE
  5
21CA3
  8
0
 10
4652.3850547915435527
 20
291.8611013758052763
 30
0.0
 11
4652.385050064742245
 21
291.8639205414916091
 31
0.0
  0
LINE
  5
21CA4
  8
0
 10
4652.3850346032440939
 20
291.8558645359054253
 30
0.0
 11
4652.3850303085428095
 21
291.8584259756053143
 31
0.0
  0
LINE
  5
21CA5
  8
0
 10
4652.365311523643868
 20
291.9994806251053205
 30
0.0
 11
4652.3652681235453201
 21
292.0253652876053252
 31
0.0
  0
LINE
  5
21CA6
  8
0
 10
4652.3653447319429688
 20
291.9623968957054103
 30
0.0
 11
4652.36530788264281
 21
291.9843745743053205
 31
0.0
  0
LINE
  5
21CA7
  8
0
 10
4652.3653681511432296
 20
291.9311516709054217
 30
0.0
 11
4652.3653371828440868
 21
291.9496217543053262
 31
0.0
  0
LINE
  5
21CA8
  8
0
 10
4652.3653743300428687
 20
291.8583561523054186
 30
0.0
 11
4652.3653695805487587
 21
291.8611888426044061
 31
0.0
  0
LINE
  5
21CA9
  8
0
 10
4652.3653542431429742
 20
291.8530587984053
 30
0.0
 11
4652.3653498894445875
 21
291.8556554257447146
 31
0.0
  0
LINE
  5
21CAA
  8
0
 10
4652.3571388200443835
 20
292.0193815931053223
 30
0.0
 11
4652.357124157261751
 21
292.028126758098324
 31
0.0
  0
LINE
  5
21CAB
  8
0
 10
4652.357177261544166
 20
291.9791767160053269
 30
0.0
 11
4652.3571372841443008
 21
292.0030200219052858
 31
0.0
  0
LINE
  5
21CAC
  8
0
 10
4652.3572054061432937
 20
291.9451130865053869
 30
0.0
 11
4652.3571715917441907
 21
291.9652806960053226
 31
0.0
  0
LINE
  5
21CAD
  8
0
 10
4652.3572241997444507
 20
291.9166266524053981
 30
0.0
 11
4652.357196023043798
 21
291.933431808905425
 31
0.0
  0
LINE
  5
21CAE
  8
0
 10
4652.357213204344589
 20
291.8540742304052742
 30
0.0
 11
4652.3572060500428051
 21
291.8583412121054153
 31
0.0
  0
LINE
  5
21CAF
  8
0
 10
4652.3571885309438585
 20
291.8515123628054084
 30
0.0
 11
4652.3571870143441629
 21
291.8524168915054133
 31
0.0
  0
LINE
  5
21CB0
  8
0
 10
4652.3374571248432403
 20
292.0173721203054242
 30
0.0
 11
4652.3374373091592133
 21
292.0291906201144911
 31
0.0
  0
LINE
  5
21CB1
  8
0
 10
4652.3374954208438794
 20
291.9772540138052932
 30
0.0
 11
4652.3374555261443675
 21
292.0010480649053193
 31
0.0
  0
LINE
  5
21CB2
  8
0
 10
4652.3375234667428231
 20
291.943249313005424
 30
0.0
 11
4652.3374897080439041
 21
291.963383711705319
 31
0.0
  0
LINE
  5
21CB3
  8
0
 10
4652.3375421975442805
 20
291.9148003081053275
 30
0.0
 11
4652.3375140554444442
 21
291.9315848550053261
 31
0.0
  0
LINE
  5
21CB4
  8
0
 10
4652.3375312367443257
 20
291.8522272765054026
 30
0.0
 11
4652.3375240478444539
 21
291.8565148678052878
 31
0.0
  0
LINE
  5
21CB5
  8
0
 10
4652.3375066472453909
 20
291.8496153785052911
 30
0.0
 11
4652.3375050749427828
 21
291.8505531180052799
 31
0.0
  0
LINE
  5
21CB6
  8
0
 10
4652.3293248352429146
 20
291.9958917630053179
 30
0.0
 11
4652.3292816174443942
 21
292.0216677885052832
 31
0.0
  0
LINE
  5
21CB7
  8
0
 10
4652.3293578232432992
 20
291.9589394898054024
 30
0.0
 11
4652.3293210987430939
 21
291.9808427212053061
 31
0.0
  0
LINE
  5
21CB8
  8
0
 10
4652.3293810963441501
 20
291.9277813868052931
 30
0.0
 11
4652.3293502097430974
 21
291.9462027915054136
 31
0.0
  0
LINE
  5
21CB9
  8
0
 10
4652.3293872352433027
 20
291.8550097264052852
 30
0.0
 11
4652.3293824138454511
 21
291.8578852739054241
 31
0.0
  0
LINE
  5
21CBA
  8
0
 10
4652.3293672699437593
 20
291.8496398357053181
 30
0.0
 11
4652.3293628255441945
 21
291.8522905691053211
 31
0.0
  0
LINE
  5
21CBB
  8
0
 10
4652.3096414343453944
 20
291.9948996543054136
 30
0.0
 11
4652.3095982656441265
 21
292.0206463716053236
 31
0.0
  0
LINE
  5
21CBC
  8
0
 10
4652.3096743628439071
 20
291.9579828770054064
 30
0.0
 11
4652.309637672043209
 21
291.9798660019054068
 31
0.0
  0
LINE
  5
21CBD
  8
0
 10
4652.3096975963444493
 20
291.9268483171053958
 30
0.0
 11
4652.3096667318441177
 21
291.9452565656054048
 31
0.0
  0
LINE
  5
21CBE
  8
0
 10
4652.3097037244433523
 20
291.8540831065054135
 30
0.0
 11
4652.3096988951438107
 21
291.8569634151053265
 31
0.0
  0
LINE
  5
21CBF
  8
0
 10
4652.3096837921439146
 20
291.8486936097053217
 30
0.0
 11
4652.3096793256454475
 21
291.8513574995054114
 31
0.0
  0
LINE
  5
21CC0
  8
0
 10
4652.5531165857828455
 20
291.9875010369067923
 30
0.0
 11
4652.551994701343574
 21
291.9859175469052843
 31
0.0
  0
LINE
  5
21CC1
  8
0
 10
4652.6081718899431507
 20
291.8997589508052783
 30
0.0
 11
4652.6158715959436449
 21
291.9067079212052818
 31
0.0
  0
LINE
  5
21CC2
  8
0
 10
4652.5488663116439056
 20
291.9488153394053143
 30
0.0
 11
4652.5484217262428501
 21
291.9486090056054195
 31
0.0
  0
LINE
  5
21CC3
  8
0
 10
4652.5488664661443181
 20
291.9488150380054208
 30
0.0
 11
4652.5484217262428501
 21
291.9486090056054195
 31
0.0
  0
LINE
  5
21CC4
  8
0
 10
4652.5314269734435584
 20
291.917376252005397
 30
0.0
 11
4652.497249161144282
 21
291.9173244422053131
 31
0.0
  0
LINE
  5
21CC5
  8
0
 10
4652.4757493449442336
 20
291.9172918509053147
 30
0.0
 11
4652.4564120010436454
 21
291.9172625376053247
 31
0.0
  0
LINE
  5
21CC6
  8
0
 10
4652.5354043151437509
 20
291.958746813405412
 30
0.0
 11
4652.5266564870444199
 21
291.9587335527053256
 31
0.0
  0
LINE
  5
21CC7
  8
0
 10
4652.3387485689436289
 20
291.8585202798054183
 30
0.0
 11
4652.339232931342849
 21
291.8584128558053976
 31
0.0
  0
LINE
  5
21CC8
  8
0
 10
4652.2910447032436423
 20
292.5561153390335107
 30
0.0
 11
4653.0231085938830802
 21
292.5573440948311941
 31
0.0
  0
ARC
  5
21CC9
  8
0
 10
4652.2940530372143257
 20
291.0187368339121008
 30
0.0
 40
1.0176103075230449
 50
84.8465817183407438
 51
89.4614817560673714
  0
ARC
  5
21CCA
  8
0
 10
4652.294380290592926
 20
291.0497319462385803
 30
0.0
 40
0.9804046106984264
 50
85.833258914090294
 51
88.0473871285649636
  0
ARC
  5
21CCB
  8
0
 10
4652.3039510230946689
 20
291.1109395190126179
 30
0.0
 40
0.9352339718137169
 50
79.7986694031371968
 51
86.7335011552309254
  0
ARC
  5
21CCC
  8
0
 10
4652.300007212635137
 20
291.128813228863919
 30
0.0
 40
0.9011235158814237
 50
82.8655783621061914
 51
85.8247427316591143
  0
ARC
  5
21CCD
  8
0
 10
4652.3219090960437825
 20
291.3032372609741856
 30
0.0
 40
0.7253298029245436
 50
77.611015431423013
 51
82.8710492977923394
  0
ARC
  5
21CCE
  8
0
 10
4652.3753528764245857
 20
291.5169982174513734
 30
0.0
 40
0.5124293883618892
 50
68.8476174879795053
 51
79.654876136448209
  0
ARC
  5
21CCF
  8
0
 10
4652.297470055944359
 20
291.5126084185054083
 30
0.0
 40
0.4808710069
 50
61.8745119225331592
 51
62.4220654718132266
  0
ARC
  5
21CD0
  8
0
 10
4652.298664930142877
 20
291.5128349408054191
 30
0.0
 40
0.4784025011
 50
58.5292145352992534
 51
60.7646274024882018
  0
ARC
  5
21CD1
  8
0
 10
4652.2988228883441479
 20
291.511160510705281
 30
0.0
 40
0.4780891691
 50
58.5994900038032327
 51
60.8899663382118206
  0
ARC
  5
21CD2
  8
0
 10
4652.2988814092441316
 20
291.5304077615052734
 30
0.0
 40
0.4779761258
 50
58.3061219895116665
 51
60.2746043655843806
  0
ARC
  5
21CD3
  8
0
 10
4652.2989104777498142
 20
291.5237910977581919
 30
0.0
 40
0.477916060940915
 50
58.3057779823703584
 51
60.765712325444639
  0
ARC
  5
21CD4
  8
0
 10
4652.2993261729443475
 20
291.5416795033053177
 30
0.0
 40
0.4771165629
 50
58.5277651350036905
 51
58.8549884135912222
  0
ARC
  5
21CD5
  8
0
 10
4652.2934175707532631
 20
290.9513662869279074
 30
0.0
 40
1.0951490705302671
 50
86.6590104866010762
 51
90.1241432820455373
  0
ARC
  5
21CD6
  8
0
 10
4652.2931992688781975
 20
291.0170442446255947
 30
0.0
 40
1.0131135752536371
 50
88.0436223015078383
 51
90.1218497249590342
  0
ARC
  5
21CD7
  8
0
 10
4652.7143899133443483
 20
292.2942425752053168
 30
0.0
 40
0.4087529423
 50
222.1033053510008983
 51
224.1233153141054117
  0
ARC
  5
21CD8
  8
0
 10
4652.7578226270443338
 20
292.3491924796052785
 30
0.0
 40
0.5355499775000001
 50
216.6437704058020017
 51
218.2860809389250107
  0
ARC
  5
21CD9
  8
0
 10
4652.7100897243435611
 20
292.3253720491052832
 30
0.0
 40
0.5192042274999999
 50
217.7908569237883114
 51
219.5311814772551031
  0
ARC
  5
21CDA
  8
0
 10
4652.7353276420435577
 20
292.3331501949053859
 30
0.0
 40
0.5117423562
 50
217.4934194153148042
 51
219.2704790487858872
  0
ARC
  5
21CDB
  8
0
 10
4652.7107375050445626
 20
292.3080385986053216
 30
0.0
 40
0.4631729807000001
 50
219.9099155729996937
 51
221.7732062184070969
  0
ARC
  5
21CDC
  8
0
 10
4652.7314091138441654
 20
292.3140691367054274
 30
0.0
 40
0.4490287093
 50
219.9552716840769904
 51
221.4445792134071951
  0
ARC
  5
21CDD
  8
0
 10
4652.6645351459437734
 20
292.2830899761053161
 30
0.0
 40
0.4477641329
 50
221.2024813142060964
 51
223.0808508128390883
  0
ARC
  5
21CDE
  8
0
 10
4652.6894869279431077
 20
292.2910732022053253
 30
0.0
 40
0.4397943975
 50
220.917550066012808
 51
222.8403401689903092
  0
ARC
  5
21CDF
  8
0
 10
4652.6702587742438482
 20
292.2673074990054261
 30
0.0
 40
0.3959656761
 50
223.5578338372999099
 51
225.5882424257129912
  0
ARC
  5
21CE0
  8
0
 10
4652.6950561335443126
 20
292.2774670142052855
 30
0.0
 40
0.3871820538000001
 50
223.2009670470145011
 51
225.2902825661815029
  0
ARC
  5
21CE1
  8
0
 10
4652.6516760558442911
 20
292.250700115505424
 30
0.0
 40
0.3748413118
 50
224.6492957763904883
 51
226.7530296780996082
  0
ARC
  5
21CE2
  8
0
 10
4652.6789413441438228
 20
292.2554378082053859
 30
0.0
 40
0.3458342371
 50
226.0607063087969095
 51
228.2849718628218909
  0
ARC
  5
21CE3
  8
0
 10
4652.6623284534443883
 20
292.2391808240054161
 30
0.0
 40
0.3266083796
 50
227.2588317917812901
 51
229.5688176165994037
  0
ARC
  5
21CE4
  8
0
 10
4652.6516496651438501
 20
292.2194604523053272
 30
0.0
 40
0.290410306
 50
230.4706327107940069
 51
232.9450738905468938
  0
ARC
  5
21CE5
  8
0
 10
4652.608500522443137
 20
292.1248957405052806
 30
0.0
 40
0.1603428176
 50
249.3682396343035066
 51
253.0823747741056025
  0
ARC
  5
21CE6
  8
0
 10
4652.597226877544017
 20
292.2044061249052902
 30
0.0
 40
0.3259429625
 50
228.9890580378142033
 51
231.2441563633340991
  0
ARC
  5
21CE7
  8
0
 10
4652.6219285969436896
 20
292.2128332642054147
 30
0.0
 40
0.3171840312
 50
228.7637719694996861
 51
231.0885722776108935
  0
ARC
  5
21CE8
  8
0
 10
4652.6133195380443794
 20
292.1933626124053944
 30
0.0
 40
0.2833465505999999
 50
232.0324634168071896
 51
234.5156492612148043
  0
ARC
  5
21CE9
  8
0
 10
4652.6377333125437872
 20
292.2039814768053247
 30
0.0
 40
0.2735929572
 50
231.7903959980012871
 51
234.3697551578891023
  0
ARC
  5
21CEA
  8
0
 10
4652.6000625624437816
 20
292.1782418386054019
 30
0.0
 40
0.266968658
 50
233.3476769337997041
 51
235.9387127767085133
  0
ARC
  5
21CEB
  8
0
 10
4652.6322791487427821
 20
292.187113301405418
 30
0.0
 40
0.2426135712
 50
235.439204997781502
 51
238.2157583086398915
  0
ARC
  5
21CEC
  8
0
 10
4652.5964127405441104
 20
292.161659774105317
 30
0.0
 40
0.2381725593
 50
237.0412791669922115
 51
239.8195780786423086
  0
ARC
  5
21CED
  8
0
 10
4652.6209686813435837
 20
292.1726747273053206
 30
0.0
 40
0.2282334485
 50
236.9036493748992882
 51
239.8067546320023098
  0
ARC
  5
21CEE
  8
0
 10
4652.6114947567439231
 20
292.1460551852052845
 30
0.0
 40
0.1905172898
 50
242.7204375629193862
 51
246.0038412998096931
  0
ARC
  5
21CEF
  8
0
 10
4652.5771193276441409
 20
292.1194559323052999
 30
0.0
 40
0.1862447838
 50
244.3036209305186048
 51
247.6190500731972861
  0
ARC
  5
21CF0
  8
0
 10
4652.5841444714969839
 20
292.0937785008370042
 30
0.0
 40
0.1440003033057953
 50
256.4169107713555036
 51
260.4131426662611943
  0
ARC
  5
21CF1
  8
0
 10
4652.5800935523438966
 20
292.0871905247054201
 30
0.0
 40
0.1397545107
 50
258.409307790714422
 51
262.4994845084809185
  0
ARC
  5
21CF2
  8
0
 10
4652.5548322311533411
 20
292.1052731075267843
 30
0.0
 40
0.1739882975758726
 50
269.0670701023635161
 51
272.3118209444982085
  0
ARC
  5
21CF3
  8
0
 10
4652.5370191239589985
 20
292.0447460187010051
 30
0.0
 40
0.1260551641430165
 50
276.0592020225934107
 51
280.5764709875534209
  0
ARC
  5
21CF4
  8
0
 10
4652.5338405220436471
 20
292.0428371677052723
 30
0.0
 40
0.1261092777
 50
278.2840173567047941
 51
282.8287125879894006
  0
ARC
  5
21CF5
  8
0
 10
4652.586897429144301
 20
292.0795991519053132
 30
0.0
 40
0.1257214183
 50
266.7784649257820888
 51
271.2619468225746004
  0
ARC
  5
21CF6
  8
0
 10
4652.564768942943374
 20
292.0599033281052925
 30
0.0
 40
0.122848586
 50
277.0422402506106891
 51
281.6905582957994056
  0
ARC
  5
21CF7
  8
0
 10
4652.5594082309062287
 20
292.0614471035211182
 30
0.0
 40
0.1279536272081502
 50
265.9313894555343722
 51
270.3384217911111023
  0
ARC
  5
21CF8
  8
0
 10
4652.5423498444442885
 20
292.1993697899054041
 30
0.0
 40
0.3583257574
 50
227.4090277327001957
 51
229.5119620553400921
  0
ARC
  5
21CF9
  8
0
 10
4652.5669024686440025
 20
292.2034955704053232
 30
0.0
 40
0.3501745373
 50
227.2865799494888961
 51
229.4427370783824927
  0
ARC
  5
21CFA
  8
0
 10
4652.5573892727443308
 20
292.1825009929053181
 30
0.0
 40
0.3163080423
 50
230.3422419700036983
 51
232.6209393459157013
  0
ARC
  5
21CFB
  8
0
 10
4652.5819864313452854
 20
292.1886865227053249
 30
0.0
 40
0.3075842497
 50
230.1846052961896021
 51
232.5331318696144933
  0
ARC
  5
21CFC
  8
0
 10
4652.5423739945454145
 20
292.1665898946054085
 30
0.0
 40
0.2977364447
 50
231.5454912971939905
 51
233.9264844548947906
  0
ARC
  5
21CFD
  8
0
 10
4652.5752527317436034
 20
292.1694925729054262
 30
0.0
 40
0.2759228177
 50
233.5147350956191019
 51
236.0166971188070022
  0
ARC
  5
21CFE
  8
0
 10
4652.5374402087436465
 20
292.1478056822052736
 30
0.0
 40
0.2682465719
 50
234.9435293236078905
 51
237.4725821362889917
  0
ARC
  5
21CFF
  8
0
 10
4652.5626027382440952
 20
292.1547285125054145
 30
0.0
 40
0.259958756
 50
234.8330858654954056
 51
237.4462906786106089
  0
ARC
  5
21D00
  8
0
 10
4652.5605864729441237
 20
292.1384586842053181
 30
0.0
 40
0.2331810132
 50
238.5786344281796971
 51
241.3708527672011996
  0
ARC
  5
21D01
  8
0
 10
4652.5856844866439133
 20
292.1476687149054214
 30
0.0
 40
0.2242155085
 50
238.4995291631157954
 51
241.4056739080155864
  0
ARC
  5
21D02
  8
0
 10
4652.5865319638432993
 20
292.1343677646053152
 30
0.0
 40
0.2003129828
 50
242.7043972716029998
 51
245.8279201157237139
  0
ARC
  5
21D03
  8
0
 10
4652.6191494977438197
 20
292.2600878348052902
 30
0.0
 40
0.4324862963000001
 50
222.4089450393890957
 51
224.3092606003862954
  0
ARC
  5
21D04
  8
0
 10
4652.6439749684441267
 20
292.26621576780542
 30
0.0
 40
0.4247748263
 50
222.2078335705886047
 51
224.149811521095387
  0
ARC
  5
21D05
  8
0
 10
4652.6269167521440977
 20
292.2425127846054238
 30
0.0
 40
0.3832582092
 50
224.9117314886129009
 51
226.9603412826403996
  0
ARC
  5
21D06
  8
0
 10
4652.6090187910440363
 20
292.2260891901053128
 30
0.0
 40
0.3625453514
 50
226.0034499057966002
 51
228.129539464513698
  0
ARC
  5
21D07
  8
0
 10
4652.6378249746439906
 20
292.2288245787053143
 30
0.0
 40
0.335960471
 50
227.5704026851068988
 51
229.8057692712609139
  0
ARC
  5
21D08
  8
0
 10
4652.5841681932442953
 20
292.2197231535052993
 30
0.0
 40
0.3705043244
 50
226.1889387773005069
 51
228.2631591117369965
  0
ARC
  5
21D09
  8
0
 10
4652.511514098092448
 20
291.9313864249123185
 30
0.0
 40
0.0383771517818246
 50
341.5354327624780808
 51
344.0920501870699013
  0
ARC
  5
21D0A
  8
0
 10
4652.4811484102519898
 20
292.0245469133228085
 30
0.0
 40
0.1350918006020992
 50
287.8163327706359951
 51
292.2540891402447869
  0
ARC
  5
21D0B
  8
0
 10
4652.4740943787182914
 20
292.0165026977779235
 30
0.0
 40
0.1305963827393921
 50
279.0651586318742829
 51
283.4641606727190037
  0
ARC
  5
21D0C
  8
0
 10
4652.5024839175748639
 20
292.028128494512714
 30
0.0
 40
0.1288635055896483
 50
279.6951954805736023
 51
284.1635372630032066
  0
ARC
  5
21D0D
  8
0
 10
4652.5057702806780071
 20
292.0294169708545837
 30
0.0
 40
0.1284708877844417
 50
277.4827437792671958
 51
281.9316234520953799
  0
ARC
  5
21D0E
  8
0
 10
4652.4575749959440145
 20
291.9294054247052941
 30
0.0
 40
0.0928542187
 50
11.9357275228975102
 51
13.3614308708953207
  0
ARC
  5
21D0F
  8
0
 10
4652.4245671754542855
 20
292.0301015018420117
 30
0.0
 40
0.1609770752339337
 50
285.8393021307552999
 51
289.1752131714957272
  0
ARC
  5
21D10
  8
0
 10
4652.4246438973168551
 20
292.0101929811849004
 30
0.0
 40
0.142405650157568
 50
264.5835178346623024
 51
268.548320600341583
  0
ARC
  5
21D11
  8
0
 10
4652.4211348207300034
 20
292.0064537529586914
 30
0.0
 40
0.1396717196064004
 50
266.6073392086786953
 51
270.6507148188101723
  0
ARC
  5
21D12
  8
0
 10
4652.4652949514920692
 20
292.0163275703300201
 30
0.0
 40
0.1340196577923411
 50
270.6674052439545903
 51
274.8770009798074057
  0
ARC
  5
21D13
  8
0
 10
4652.4332382468619471
 20
292.0046918224975911
 30
0.0
 40
0.1341659035613747
 50
272.4708233384184837
 51
276.6841273361125104
  0
ARC
  5
21D14
  8
0
 10
4652.4301254857227832
 20
292.0016834708275724
 30
0.0
 40
0.1322209660495547
 50
274.5823501839145138
 51
278.8810855092597194
  0
ARC
  5
21D15
  8
0
 10
4652.4488080128421643
 20
291.972419871556383
 30
0.0
 40
0.0986127452909301
 50
281.5208281104787034
 51
286.8796222237642155
  0
ARC
  5
21D16
  8
0
 10
4652.4621503396183471
 20
292.0129411378097757
 30
0.0
 40
0.1319629537317355
 50
272.768127251729311
 51
277.0615874871331243
  0
ARC
  5
21D17
  8
0
 10
4652.4420317068816075
 20
292.0057162431456277
 30
0.0
 40
0.1322719843177531
 50
280.8092611143159729
 51
285.1801947170259837
  0
ARC
  5
21D18
  8
0
 10
4652.471136530602962
 20
292.0140936293453819
 30
0.0
 40
0.1295470415720585
 50
281.2175333729502995
 51
285.6969387595563035
  0
ARC
  5
21D19
  8
0
 10
4652.384201692156239
 20
292.008344635400988
 30
0.0
 40
0.1511655206210759
 50
259.0695291072535724
 51
262.8453463054602253
  0
ARC
  5
21D1A
  8
0
 10
4652.3805746076659489
 20
292.0064428371156282
 30
0.0
 40
0.1499339214988385
 50
261.0333786419911917
 51
264.8283145276225241
  0
ARC
  5
21D1B
  8
0
 10
4652.391935688000558
 20
291.9989734555257996
 30
0.0
 40
0.1398352644414538
 50
266.4853723344124887
 51
270.5169820199541277
  0
ARC
  5
21D1C
  8
0
 10
4652.3590202143332135
 20
291.9911954979855864
 30
0.0
 40
0.1382818415118541
 50
268.5498750280252125
 51
272.6253638218224751
  0
ARC
  5
21D1D
  8
0
 10
4652.3885235046109301
 20
291.9962367863623172
 30
0.0
 40
0.1378550760046617
 50
268.5479909596725747
 51
272.6434848159120747
  0
ARC
  5
21D1E
  8
0
 10
4652.4282620982694425
 20
291.9324440743512241
 30
0.0
 40
0.0663443953756641
 50
280.1695039923491777
 51
288.0594191133467916
  0
ARC
  5
21D1F
  8
0
 10
4652.3556804849986293
 20
291.9878711181464155
 30
0.0
 40
0.1354626042330029
 50
270.6372205317247222
 51
274.8093071503453757
  0
ARC
  5
21D20
  8
0
 10
4652.3681374448406132
 20
291.9878819413037263
 30
0.0
 40
0.1335279215070558
 50
276.5380572633255269
 51
280.8062989898090223
  0
ARC
  5
21D21
  8
0
 10
4652.4008999357965877
 20
291.9948281019263163
 30
0.0
 40
0.1336034607607255
 50
274.4146806125539797
 51
278.6595956261303968
  0
ARC
  5
21D22
  8
0
 10
4652.3977690737028752
 20
291.992593352190795
 30
0.0
 40
0.1321712907873715
 50
276.5517595572380856
 51
280.8720675232586927
  0
ARC
  5
21D23
  8
0
 10
4652.3575189769480858
 20
292.0239354222129009
 30
0.0
 40
0.1709558266142539
 50
288.2951208578973024
 51
291.8018668045580739
  0
ARC
  5
21D24
  8
0
 10
4652.4194292826332457
 20
291.9473873348360939
 30
0.0
 40
0.0828340711335849
 50
284.361900249844382
 51
290.7880596384508181
  0
ARC
  5
21D25
  8
0
 10
4652.3837377665076929
 20
292.0105492519186896
 30
0.0
 40
0.1528052607615792
 50
280.9834893871498025
 51
284.7719094467501009
  0
ARC
  5
21D26
  8
0
 10
4652.3070483551400685
 20
292.0011379738589881
 30
0.0
 40
0.1531333400080193
 50
278.3806105076654944
 51
282.1259221893649283
  0
ARC
  5
21D27
  8
0
 10
4652.3534275091506061
 20
292.0045126023861144
 30
0.0
 40
0.1522576592261122
 50
281.3305261348855879
 51
285.1311153944781722
  0
ARC
  5
21D28
  8
0
 10
4652.3509364014025778
 20
292.0006943781440896
 30
0.0
 40
0.1490710525507005
 50
261.0307330917602826
 51
264.8407267838786083
  0
ARC
  5
21D29
  8
0
 10
4652.3419211607169927
 20
291.997035434437521
 30
0.0
 40
0.1463217583646332
 50
275.98920467119558
 51
279.8839026701350008
  0
ARC
  5
21D2A
  8
0
 10
4652.3171936960452513
 20
291.9931603219021099
 30
0.0
 40
0.1446617765324343
 50
263.1136519088673253
 51
267.0242360199436007
  0
ARC
  5
21D2B
  8
0
 10
4652.3117089574898273
 20
291.9935935663115174
 30
0.0
 40
0.1453478913755108
 50
276.3060277144417114
 51
280.2229205596216275
  0
ARC
  5
21D2C
  8
0
 10
4652.3471036752162036
 20
291.997102735204578
 30
0.0
 40
0.1458948292347362
 50
263.0155326671595049
 51
266.900719339862178
  0
ARC
  5
21D2D
  8
0
 10
4652.3258324982953127
 20
291.9849051452031858
 30
0.0
 40
0.135792513515406
 50
270.776938599953894
 51
274.9318341561702823
  0
ARC
  5
21D2E
  8
0
 10
4652.3210845890898781
 20
292.0284539608550745
 30
0.0
 40
0.180159587969833
 50
290.223704389322279
 51
293.5927281247089127
  0
ARC
  5
21D2F
  8
0
 10
4652.3113353105791248
 20
292.0198637038856759
 30
0.0
 40
0.1720201461381821
 50
285.4680333289238092
 51
288.9013619935726069
  0
ARC
  5
21D30
  8
0
 10
4652.3474656558137212
 20
292.0142685924413968
 30
0.0
 40
0.162798252257526
 50
283.3424071969807869
 51
286.9331347055742185
  0
ARC
  5
21D31
  8
0
 10
4652.3447602214728249
 20
292.0136455314424779
 30
0.0
 40
0.1633680673377885
 50
254.0496199072441073
 51
257.6087611391499763
  0
ARC
  5
21D32
  8
0
 10
4652.3172257073156288
 20
292.0117547285736919
 30
0.0
 40
0.1633491023824169
 50
283.5584270170335799
 51
287.1341171686726739
  0
ARC
  5
21D33
  8
0
 10
4652.525280009744165
 20
292.1332875371052751
 30
0.0
 40
0.2525415630999999
 50
236.2717700404795096
 51
238.9173513189223002
  0
ARC
  5
21D34
  8
0
 10
4652.5095071087444012
 20
292.0364480723052907
 30
0.0
 40
0.1329906832
 50
288.6311157889139736
 51
293.1643011212024135
  0
ARC
  5
21D35
  8
0
 10
4652.5172087749442653
 20
292.1617875691052859
 30
0.0
 40
0.3054257247
 50
231.648277119416889
 51
233.9658842396221985
  0
ARC
  5
21D36
  8
0
 10
4652.5029970136438351
 20
292.1464331192053123
 30
0.0
 40
0.2875855856
 50
232.866165876711392
 51
235.2885772069120094
  0
ARC
  5
21D37
  8
0
 10
4652.4711590017477647
 20
292.0887136521881757
 30
0.0
 40
0.1971607843259672
 50
294.7049673186552923
 51
298.3290772555998274
  0
ARC
  5
21D38
  8
0
 10
4652.4241347324486924
 20
292.057015519081574
 30
0.0
 40
0.1866405091096463
 50
292.7602475562622999
 51
296.0795429716318949
  0
ARC
  5
21D39
  8
0
 10
4652.3044383243441189
 20
292.2146005206053019
 30
0.0
 40
0.3864135524
 50
315.4543776510012094
 51
317.5733466335017852
  0
ARC
  5
21D3A
  8
0
 10
4652.3366148287796022
 20
292.1709796088582038
 30
0.0
 40
0.3288112911008926
 50
310.9260671295899101
 51
313.2356065259357933
  0
ARC
  5
21D3B
  8
0
 10
4652.3825384601450423
 20
292.1657077856143019
 30
0.0
 40
0.3066320034706752
 50
310.0455336237516235
 51
312.4911841370602019
  0
ARC
  5
21D3C
  8
0
 10
4652.353708456644199
 20
292.1563582979052853
 30
0.0
 40
0.3079117309
 50
309.6836636104853255
 51
312.1053784711817798
  0
ARC
  5
21D3D
  8
0
 10
4652.4045258723635925
 20
292.1247893640448865
 30
0.0
 40
0.2583362498598849
 50
304.8107339335758752
 51
307.5139628102400025
  0
ARC
  5
21D3E
  8
0
 10
4652.3762313462257225
 20
292.0927660250055737
 30
0.0
 40
0.2361306782816093
 50
300.5805825886204161
 51
303.3962546280719721
  0
ARC
  5
21D3F
  8
0
 10
4652.417766958888933
 20
292.0887648969014094
 30
0.0
 40
0.2189855031886112
 50
299.0720258998812824
 51
302.0629549372674774
  0
ARC
  5
21D40
  8
0
 10
4652.3876142393237387
 20
292.0805429972947991
 30
0.0
 40
0.2207084946063646
 50
299.0163230678463151
 51
301.9766522728177733
  0
ARC
  5
21D41
  8
0
 10
4652.3845611168935648
 20
292.0602538098203809
 30
0.0
 40
0.2014511875045456
 50
294.6340064296982746
 51
297.7543849905550815
  0
ARC
  5
21D42
  8
0
 10
4652.3112280303766966
 20
292.0440543114839897
 30
0.0
 40
0.1972870175842907
 50
291.9754901600497874
 51
295.0942068062158796
  0
ARC
  5
21D43
  8
0
 10
4652.3577563079197716
 20
292.0475963155028012
 30
0.0
 40
0.1947149632962108
 50
294.6679213364844827
 51
297.8928441290195224
  0
ARC
  5
21D44
  8
0
 10
4652.3489098379286588
 20
292.0373685364382936
 30
0.0
 40
0.1858622544269639
 50
290.1305443702872822
 51
293.3987955820712159
  0
ARC
  5
21D45
  8
0
 10
4652.3956228640372501
 20
292.0445694098916078
 30
0.0
 40
0.1831875860618544
 50
292.8770717227945966
 51
296.2567920266882879
  0
ARC
  5
21D46
  8
0
 10
4652.386629116766926
 20
292.0328395778751087
 30
0.0
 40
0.1739568688864914
 50
288.1067410343591177
 51
291.5544537993919789
  0
ARC
  5
21D47
  8
0
 10
4652.2775633262453994
 20
291.9977486076630271
 30
0.0
 40
0.149872592441035
 50
278.5513367219684255
 51
282.3737988438895172
  0
ARC
  5
21D48
  8
0
 10
4652.2808319231444329
 20
292.0211413173756227
 30
0.0
 40
0.1741202653749859
 50
285.6133987002298227
 51
289.0076047087489997
  0
ARC
  5
21D49
  8
0
 10
4652.2761618086633462
 20
292.0249418102449113
 30
0.0
 40
0.178072623338961
 50
287.3913845394446867
 51
290.7436650943145082
  0
ARC
  5
21D4A
  8
0
 10
4652.2594362568397628
 20
292.2196307912253133
 30
0.0
 40
0.4060725784721108
 50
316.0968924821191877
 51
318.1359118177961136
  0
ARC
  5
21D4B
  8
0
 10
4652.2735276527428141
 20
292.2101202022054167
 30
0.0
 40
0.3911054444
 50
315.0515753779829993
 51
317.1290394627840215
  0
ARC
  5
21D4C
  8
0
 10
4652.0918548352428843
 20
292.2508607056053052
 30
0.0
 40
0.4663564706
 50
318.109818786198673
 51
319.9523371740835955
  0
ARC
  5
21D4D
  8
0
 10
4652.0583131350440453
 20
292.2456395154052871
 30
0.0
 40
0.4515865427000001
 50
316.3476084500640013
 51
318.1851697551097118
  0
ARC
  5
21D4E
  8
0
 10
4652.1386058448442782
 20
292.2369278020054253
 30
0.0
 40
0.4467148887
 50
317.2911608074982723
 51
319.1847952604916259
  0
ARC
  5
21D4F
  8
0
 10
4652.1046870486443368
 20
292.2292608442053279
 30
0.0
 40
0.4328686375000001
 50
315.3986435421248871
 51
317.2830241636850133
  0
ARC
  5
21D50
  8
0
 10
4652.0853824531441205
 20
292.2231583788054081
 30
0.0
 40
0.4192611772000001
 50
315.2943122094941941
 51
317.2384443185093801
  0
ARC
  5
21D51
  8
0
 10
4652.1304533824441023
 20
292.2074838643052885
 30
0.0
 40
0.4018010766
 50
314.3248162149974974
 51
316.3194643270028905
  0
ARC
  5
21D52
  8
0
 10
4652.0951367197440049
 20
292.2030909533053205
 30
0.0
 40
0.3882711318
 50
312.4562690011263157
 51
314.4545906139097724
  0
ARC
  5
21D53
  8
0
 10
4652.0747338445444257
 20
292.1991587806052735
 30
0.0
 40
0.375044734
 50
312.4141956961159963
 51
314.484071187905613
  0
ARC
  5
21D54
  8
0
 10
4652.1179429929443359
 20
292.1819390938053971
 30
0.0
 40
0.3599562464999999
 50
311.3050195448914792
 51
313.4241760046980971
  0
ARC
  5
21D55
  8
0
 10
4652.1016445140430733
 20
292.1604033798054161
 30
0.0
 40
0.3207909755
 50
308.1640794083963897
 51
310.4348686198019891
  0
ARC
  5
21D56
  8
0
 10
4652.1891916444437811
 20
292.260353388805413
 30
0.0
 40
0.4736970364000001
 50
319.6738026927030205
 51
321.5477770891960176
  0
ARC
  5
21D57
  8
0
 10
4652.2235917425441585
 20
292.2598765433053245
 30
0.0
 40
0.4644590210000001
 50
320.0849937668157281
 51
321.1393900347620729
  0
ARC
  5
21D58
  8
0
 10
4652.2907893658439207
 20
292.4711781038054141
 30
0.0
 40
0.614532094
 50
270.8914847118974194
 51
274.476018332985177
  0
ARC
  5
21D59
  8
0
 10
4652.290965983444039
 20
292.4694881844052929
 30
0.0
 40
0.6128327540999999
 50
276.0938584483841964
 51
279.7182994555844857
  0
ARC
  5
21D5A
  8
0
 10
4652.2914528864712338
 20
292.4595400338055811
 30
0.0
 40
0.6047838471170351
 50
274.3705899593412028
 51
276.2416358171798834
  0
ARC
  5
21D5B
  8
0
 10
4652.2907857269101441
 20
292.4654689317533212
 30
0.0
 40
0.6116784432566408
 50
271.7723271183396037
 51
273.6181987652836938
  0
ARC
  5
21D5C
  8
0
 10
4652.2909464363983716
 20
292.4638455264337153
 30
0.0
 40
0.6100466322439743
 50
277.0077509522080277
 51
278.8741247224862718
  0
ARC
  5
21D5D
  8
0
 10
4652.3058790885688722
 20
292.3856193588725887
 30
0.0
 40
0.5295140393339052
 50
279.4908107958955839
 51
281.657068272851177
  0
ARC
  5
21D5E
  8
0
 10
4652.2915989437442477
 20
292.4662425377053978
 30
0.0
 40
0.6095254304
 50
281.3626131739832772
 51
285.0697147359080077
  0
ARC
  5
21D5F
  8
0
 10
4652.2910420649350272
 20
292.4526008718153776
 30
0.0
 40
0.6015321605979154
 50
271.7754783005754007
 51
273.6525157165257838
  0
ARC
  5
21D60
  8
0
 10
4652.2915635689741976
 20
292.4606159227417947
 30
0.0
 40
0.6067575420766779
 50
282.3207654296990086
 51
284.2299849301132895
  0
ARC
  5
21D61
  8
0
 10
4652.3005249180077953
 20
292.4310918300727167
 30
0.0
 40
0.5750470558974128
 50
284.9473686750914112
 51
286.9865570681662916
  0
ARC
  5
21D62
  8
0
 10
4652.2906886312421193
 20
292.4572913309219189
 30
0.0
 40
0.6062508275248378
 50
277.0740730158526048
 51
278.9524616413677904
  0
ARC
  5
21D63
  8
0
 10
4652.2908298326528893
 20
292.4556917744940847
 30
0.0
 40
0.6052688836185885
 50
274.4252324251003756
 51
276.2966293639490232
  0
ARC
  5
21D64
  8
0
 10
4652.2929750537214204
 20
292.461556257212294
 30
0.0
 40
0.604640423028947
 50
286.7609295229635222
 51
290.6007092648815728
  0
ARC
  5
21D65
  8
0
 10
4652.2911918639047144
 20
292.4532116094715093
 30
0.0
 40
0.6027616399172918
 50
279.7430713317249911
 51
281.6468071558460906
  0
ARC
  5
21D66
  8
0
 10
4652.2977870659533437
 20
292.4272882854123168
 30
0.0
 40
0.5754295664848833
 50
282.3652910038974255
 51
284.3792646845708987
  0
ARC
  5
21D67
  8
0
 10
4652.2955975831491742
 20
292.4671947937601999
 30
0.0
 40
0.6019912196238689
 50
294.8332907880829907
 51
295.2106321039884733
  0
ARC
  5
21D68
  8
0
 10
4652.2929181799172511
 20
292.4559563415706975
 30
0.0
 40
0.6019034335601821
 50
287.7771730994119821
 51
289.755192757829775
  0
ARC
  5
21D69
  8
0
 10
4652.3183369032849441
 20
292.4101082648098213
 30
0.0
 40
0.5447224535104924
 50
294.0480586764397231
 51
295.4005969486420895
  0
ARC
  5
21D6A
  8
0
 10
4652.2890372486172055
 20
292.4673035736335009
 30
0.0
 40
0.6130864091459093
 50
290.5749486077068013
 51
292.5536363272682934
  0
ARC
  5
21D6B
  8
0
 10
4652.2946146019439766
 20
292.4573386284054095
 30
0.0
 40
0.6001147442
 50
292.3674412734857242
 51
293.6556482489031055
  0
ARC
  5
21D6C
  8
0
 10
4652.3057509931932145
 20
292.4496636066464816
 30
0.0
 40
0.5804636435763793
 50
295.9928482835330783
 51
298.1754495264145248
  0
ARC
  5
21D6D
  8
0
 10
4652.2918816097271701
 20
292.4372040563998212
 30
0.0
 40
0.5884223178105228
 50
274.4469051744213743
 51
276.372036280556415
  0
ARC
  5
21D6E
  8
0
 10
4652.2907860810291822
 20
292.4470073298660964
 30
0.0
 40
0.5986120874305441
 50
271.8090831137407122
 51
273.6953356200772873
  0
ARC
  5
21D6F
  8
0
 10
4652.2921551142835597
 20
292.4492418360247825
 30
0.0
 40
0.5986753381957327
 50
285.1735478133368247
 51
287.1340746526968246
  0
ARC
  5
21D70
  8
0
 10
4652.3038965733658188
 20
292.4167905723202807
 30
0.0
 40
0.5636390143858707
 50
287.8497337875427888
 51
289.9638116865867232
  0
ARC
  5
21D71
  8
0
 10
4652.2952157300351246
 20
292.4248270088415893
 30
0.0
 40
0.5756883863371925
 50
279.7967457213828766
 51
281.7906647283944039
  0
ARC
  5
21D72
  8
0
 10
4652.2909534712698587
 20
292.4453552447048992
 30
0.0
 40
0.5969510492114471
 50
277.1596564983890971
 51
279.0677790372085951
  0
ARC
  5
21D73
  8
0
 10
4652.2969306010199944
 20
292.4556297532374174
 30
0.0
 40
0.5960670458216346
 50
296.206274436002218
 51
298.3333422721361785
  0
ARC
  5
21D74
  8
0
 10
4652.2953735757610048
 20
292.4498378311608917
 30
0.0
 40
0.5953081374238931
 50
293.4558690882699921
 51
295.5363972098023169
  0
ARC
  5
21D75
  8
0
 10
4652.2916010115241079
 20
292.4420444779797776
 30
0.0
 40
0.5935764146962988
 50
282.5930837761450789
 51
284.5470836032095008
  0
ARC
  5
21D76
  8
0
 10
4652.3532716264126066
 20
292.2274519755168853
 30
0.0
 40
0.3700563637935148
 50
284.9645526388961798
 51
288.1429989833316085
  0
ARC
  5
21D77
  8
0
 10
4652.2940212904713917
 20
292.443869745629172
 30
0.0
 40
0.5929863262898883
 50
290.7904082489342841
 51
292.8378621598408245
  0
ARC
  5
21D78
  8
0
 10
4652.2907858077442143
 20
292.4397065370054065
 30
0.0
 40
0.5919266236000001
 50
271.3856646942736006
 51
274.1793645939416137
  0
ARC
  5
21D79
  8
0
 10
4652.334975915960058
 20
292.2589859455061969
 30
0.0
 40
0.4058578377714461
 50
282.2058020774774718
 51
285.4042935691365983
  0
ARC
  5
21D7A
  8
0
 10
4652.2935628025252299
 20
292.4465757577480076
 30
0.0
 40
0.5951827623718965
 50
293.6486373917509241
 51
295.7347214554467882
  0
ARC
  5
21D7B
  8
0
 10
4652.290955093143566
 20
292.4380443634054245
 30
0.0
 40
0.5902553191
 50
276.7893608925023727
 51
279.6178663631329755
  0
ARC
  5
21D7C
  8
0
 10
4652.290832809891981
 20
292.4369247127377776
 30
0.0
 40
0.5891610146383602
 50
274.5437816815718861
 51
276.4668006255902242
  0
ARC
  5
21D7D
  8
0
 10
4652.2930112330650445
 20
292.4373088453723994
 30
0.0
 40
0.5886335521516314
 50
288.1801048348353902
 51
290.2078938166828834
  0
ARC
  5
21D7E
  8
0
 10
4652.2912163669816437
 20
292.4343727927112013
 30
0.0
 40
0.586579565464369
 50
280.0096867467265156
 51
281.9678513387755743
  0
ARC
  5
21D7F
  8
0
 10
4652.2922376134429214
 20
292.4302896334422144
 30
0.0
 40
0.582369170175931
 50
285.598043114529105
 51
287.6181438697270778
  0
ARC
  5
21D80
  8
0
 10
4652.2955424684460013
 20
292.4311501350393883
 30
0.0
 40
0.5819723540332931
 50
294.0062191244526275
 51
296.1443415198298794
  0
ARC
  5
21D81
  8
0
 10
4652.392008565742799
 20
292.1924465652562048
 30
0.0
 40
0.32443116944972
 50
289.4967894146628851
 51
294.6714014778800106
  0
ARC
  5
21D82
  8
0
 10
4652.0602475622454222
 20
292.3050634100054026
 30
0.0
 40
0.5545591667999999
 50
321.8519346820838791
 51
323.5264457653019008
  0
ARC
  5
21D83
  8
0
 10
4652.109173503544298
 20
292.2928274321052982
 30
0.0
 40
0.5323711226
 50
321.2209977592002019
 51
322.941396505107889
  0
ARC
  5
21D84
  8
0
 10
4652.0934945256440187
 20
292.2821226500054195
 30
0.0
 40
0.5167836675000002
 50
320.9227765087870239
 51
322.6854371926000908
  0
ARC
  5
21D85
  8
0
 10
4652.1578130482430424
 20
292.2823827017052736
 30
0.0
 40
0.5097959749000001
 50
320.6476516841296984
 51
322.4225155766044963
  0
ARC
  5
21D86
  8
0
 10
4652.1345765643436607
 20
292.2758014984053148
 30
0.0
 40
0.5042463812
 50
321.037645215884595
 51
322.0746021239150991
  0
ARC
  5
21D87
  8
0
 10
4652.0617237903443311
 20
292.2737096667053152
 30
0.0
 40
0.5014329174000001
 50
319.0964351484882968
 51
320.842044687194516
  0
ARC
  5
21D88
  8
0
 10
4652.1424451458442491
 20
292.2694569689052742
 30
0.0
 40
0.4941385916
 50
320.2757312892720734
 51
321.0359532453945235
  0
ARC
  5
21D89
  8
0
 10
4652.1097182276444073
 20
292.2591481938054017
 30
0.0
 40
0.4806091420000001
 50
318.2979430807362178
 51
320.0905280860890798
  0
ARC
  5
21D8A
  8
0
 10
4652.0399678950452653
 20
292.2405691197054125
 30
0.0
 40
0.4364940662
 50
316.296692472987786
 51
318.1982625033983254
  0
ARC
  5
21D8B
  8
0
 10
4652.0510763059428427
 20
292.2206256599054086
 30
0.0
 40
0.4039976887
 50
313.5423517393192014
 51
315.4976633287856203
  0
ARC
  5
21D8C
  8
0
 10
4652.0311967612442459
 20
292.2181509231053269
 30
0.0
 40
0.3899060385
 50
313.5524804217830024
 51
315.5812053847860739
  0
ARC
  5
21D8D
  8
0
 10
4651.9960225862441803
 20
292.3112795529053187
 30
0.0
 40
0.5592068693
 50
322.3872600544082729
 51
324.0696830573039051
  0
ARC
  5
21D8E
  8
0
 10
4651.9650772070435778
 20
292.3073588359054042
 30
0.0
 40
0.5416722345000001
 50
320.8313096335627961
 51
322.5071103891905864
  0
ARC
  5
21D8F
  8
0
 10
4652.0449982799436839
 20
292.2958364234053192
 30
0.0
 40
0.538068338
 50
321.6273850580041085
 51
323.3463831039081242
  0
ARC
  5
21D90
  8
0
 10
4651.9490394725444276
 20
292.3030089791053001
 30
0.0
 40
0.5242347027000001
 50
320.8350870319072783
 51
322.5687794322137734
  0
ARC
  5
21D91
  8
0
 10
4652.0136718570429366
 20
292.2896851027052776
 30
0.0
 40
0.5215921655
 50
319.9383771429712056
 51
321.6458774647048244
  0
ARC
  5
21D92
  8
0
 10
4651.9971899134443447
 20
292.2839145813052824
 30
0.0
 40
0.5050125112
 50
319.8748698237831718
 51
321.6380785523920167
  0
ARC
  5
21D93
  8
0
 10
4651.9648302458435865
 20
292.2829883943052778
 30
0.0
 40
0.4877412642000001
 50
318.3647453254216089
 51
320.1332974188997014
  0
ARC
  5
21D94
  8
0
 10
4652.0447527146443463
 20
292.2665304119054213
 30
0.0
 40
0.4857554627000001
 50
318.9690112254882024
 51
320.7683246074990961
  0
ARC
  5
21D95
  8
0
 10
4651.947643577744202
 20
292.2806563495054206
 30
0.0
 40
0.4706669557
 50
318.4395806340941135
 51
320.2773055630104864
  0
ARC
  5
21D96
  8
0
 10
4652.01184232054311
 20
292.2634466300053191
 30
0.0
 40
0.4696970204000001
 50
317.3326308112910965
 51
319.1324124849140276
  0
ARC
  5
21D97
  8
0
 10
4651.9940989711440125
 20
292.259725631005324
 30
0.0
 40
0.4535944193
 50
317.3414413465166035
 51
319.2076836065867269
  0
ARC
  5
21D98
  8
0
 10
4651.9642101121453379
 20
292.3567883094053172
 30
0.0
 40
0.6436690634000001
 50
325.7613977326763006
 51
326.8912736423314982
  0
ARC
  5
21D99
  8
0
 10
4651.9394155728441547
 20
292.3565428172054226
 30
0.0
 40
0.6391568985000001
 50
325.6029519875045253
 51
327.1947463275856762
  0
ARC
  5
21D9A
  8
0
 10
4652.0175493211436333
 20
292.3413879369053916
 30
0.0
 40
0.6172101951000001
 50
325.1667008762319142
 51
326.0737384229120721
  0
ARC
  5
21D9B
  8
0
 10
4651.9900197081442457
 20
292.3415452249054169
 30
0.0
 40
0.616546826
 50
324.9326453494052771
 51
326.5551097580087117
  0
ARC
  5
21D9C
  8
0
 10
4651.9610505637438109
 20
292.3346807896052724
 30
0.0
 40
0.5983173006
 50
323.2874123994570255
 51
324.8913466866014232
  0
ARC
  5
21D9D
  8
0
 10
4652.0403610584444323
 20
292.3280018812054095
 30
0.0
 40
0.5934523453000001
 50
324.3312283183093996
 51
325.9811384440163806
  0
ARC
  5
21D9E
  8
0
 10
4651.9464577415428721
 20
292.3284080165053069
 30
0.0
 40
0.5802955537
 50
323.206478929488128
 51
324.8588457981135207
  0
ARC
  5
21D9F
  8
0
 10
4652.0109197327428774
 20
292.3190259195052931
 30
0.0
 40
0.5764925920000001
 50
322.540093748024276
 51
324.176074885596222
  0
ARC
  5
21DA0
  8
0
 10
4651.8764324828443932
 20
292.3789926279054043
 30
0.0
 40
0.6716189311000001
 50
327.1490052560861272
 51
327.5253580571376801
  0
ARC
  5
21DA1
  8
0
 10
4651.8491972830443046
 20
292.3828954532053217
 30
0.0
 40
0.6688169788
 50
327.158655389606281
 51
327.4294556067663962
  0
ARC
  5
21DA2
  8
0
 10
4651.9151987760442353
 20
292.3705487456052765
 30
0.0
 40
0.6641150702
 50
326.4216618063750843
 51
327.3596879059647904
  0
ARC
  5
21DA3
  8
0
 10
4651.8923378262443293
 20
292.3703814029054229
 30
0.0
 40
0.6567186559
 50
326.3426040900138219
 51
327.5288985496953842
  0
ARC
  5
21DA4
  8
0
 10
4651.8258039031252338
 20
292.3790935684219789
 30
0.0
 40
0.6416459296609122
 50
325.9021301287185111
 51
326.8000660639985995
  0
ARC
  5
21DA5
  8
0
 10
4651.8591666430438636
 20
292.3709231942053179
 30
0.0
 40
0.6420939477000001
 50
324.9777531935288835
 51
326.5354501173982271
  0
ARC
  5
21DA6
  8
0
 10
4651.8450031087440948
 20
292.3676347982054153
 30
0.0
 40
0.6227700556000001
 50
325.0501215476988932
 51
326.6609685715004048
  0
ARC
  5
21DA7
  8
0
 10
4651.9105132762442736
 20
292.3519896853052842
 30
0.0
 40
0.6201466780000001
 50
324.0978862079631995
 51
325.6757864767926094
  0
ARC
  5
21DA8
  8
0
 10
4651.8961704919429394
 20
292.3471972977054065
 30
0.0
 40
0.6014433984000001
 50
324.0912283566942165
 51
325.7197474633974821
  0
ARC
  5
21DA9
  8
0
 10
4651.8656902231441563
 20
292.3477790984052831
 30
0.0
 40
0.5820530267000001
 50
322.8026836084192155
 51
324.4331397552080034
  0
ARC
  5
21DAA
  8
0
 10
4651.8503433329442487
 20
292.3463869217052888
 30
0.0
 40
0.5630615190000001
 50
322.9599234736106723
 51
324.6537137362968224
  0
ARC
  5
21DAB
  8
0
 10
4651.9158037522438462
 20
292.3267220688052817
 30
0.0
 40
0.5617848157999999
 50
321.7828205077294115
 51
323.4329739540967239
  0
ARC
  5
21DAC
  8
0
 10
4651.9001511157439381
 20
292.3238249190052898
 30
0.0
 40
0.5435398249
 50
321.8593371058876187
 51
323.5698688921905273
  0
ARC
  5
21DAD
  8
0
 10
4652.2907845242443727
 20
292.5223864249052781
 30
0.0
 40
0.6146431188000001
 50
270.8918085598788252
 51
274.475694484986775
  0
ARC
  5
21DAE
  8
0
 10
4652.2909280694439076
 20
292.5208611555053153
 30
0.0
 40
0.6131108671
 50
276.0946807632187188
 51
279.7174771407957223
  0
ARC
  5
21DAF
  8
0
 10
4652.2908280439442024
 20
292.525192593905274
 30
0.0
 40
0.6121772249000001
 50
274.3758998326912888
 51
276.2270706556745949
  0
ARC
  5
21DB0
  8
0
 10
4652.2907856169431398
 20
292.5276327564052963
 30
0.0
 40
0.6116900484000001
 50
271.7723447698933228
 51
273.6181813870124984
  0
ARC
  5
21DB1
  8
0
 10
4652.2909379665443339
 20
292.5260616308053159
 30
0.0
 40
0.6101111153000001
 50
277.0078493506777022
 51
278.8740258382230195
  0
ARC
  5
21DB2
  8
0
 10
4652.2914939547436006
 20
292.5177884877052747
 30
0.0
 40
0.6099859800000001
 50
281.3640131236061848
 51
285.0683147862213218
  0
ARC
  5
21DB3
  8
0
 10
4652.2911850649443295
 20
292.5227183213053195
 30
0.0
 40
0.6096765314
 50
279.6327059853247192
 51
281.5152088011718092
  0
ARC
  5
21DB4
  8
0
 10
4652.2907857264435734
 20
292.5338846760054139
 30
0.0
 40
0.6073308815999999
 50
271.7839846399273824
 51
273.6440652344679165
  0
ARC
  5
21DB5
  8
0
 10
4652.2915224387443232
 20
292.5229443432053245
 30
0.0
 40
0.6069385436000001
 50
282.3210499603943049
 51
284.2297000380958139
  0
ARC
  5
21DB6
  8
0
 10
4652.2909332789431573
 20
292.5323561206054137
 30
0.0
 40
0.6057948007000001
 50
277.0573834345742057
 51
278.9381486029673169
  0
ARC
  5
21DB7
  8
0
 10
4652.2921190558454327
 20
292.5188213127053132
 30
0.0
 40
0.605667869
 50
284.9983400688989263
 51
286.9355816007160911
  0
ARC
  5
21DB8
  8
0
 10
4652.2908291653438937
 20
292.5350624121052761
 30
0.0
 40
0.6052819687
 50
274.4252529353847194
 51
276.2966094178245271
  0
ARC
  5
21DB9
  8
0
 10
4652.2927713879444127
 20
292.513257052005315
 30
0.0
 40
0.6052770551
 50
286.7629496465785905
 51
290.5986891878151823
  0
ARC
  5
21DBA
  8
0
 10
4652.4832381185251506
 20
292.0747458406834198
 30
0.0
 40
0.1590079734041144
 50
294.8263869109325128
 51
295.6223966077100158
  0
ARC
  5
21DBB
  8
0
 10
4652.2956072901442894
 20
292.4845249577052755
 30
0.0
 40
0.6036455831
 50
294.9248198097042177
 51
295.1360230220113863
  0
ARC
  5
21DBC
  8
0
 10
4652.2911649130437581
 20
292.5327148791052991
 30
0.0
 40
0.6029098558000001
 50
279.7433053076118199
 51
281.6465730793194098
  0
ARC
  5
21DBD
  8
0
 10
4652.2848886751116879
 20
292.5067405347888894
 30
0.0
 40
0.6264418344446295
 50
296.0655178192243966
 51
298.0877731754292199
  0
ARC
  5
21DBE
  8
0
 10
4652.291572447244107
 20
292.5290001830052802
 30
0.0
 40
0.602377294
 50
282.4098545360233175
 51
284.3347630656494971
  0
ARC
  5
21DBF
  8
0
 10
4652.2928186060453299
 20
292.5184029206054106
 30
0.0
 40
0.6022142620000001
 50
287.7776836820117978
 51
289.7546822953107153
  0
ARC
  5
21DC0
  8
0
 10
4652.29560174834387
 20
292.4949278642054082
 30
0.0
 40
0.6019819235
 50
294.8799352489032799
 51
295.2106310154117068
  0
ARC
  5
21DC1
  8
0
 10
4652.2951929209439186
 20
292.502302407105276
 30
0.0
 40
0.6008314937
 50
294.0772676741083842
 51
295.3058552490584248
  0
ARC
  5
21DC2
  8
0
 10
4652.2968493216649222
 20
292.473367564118405
 30
0.0
 40
0.6006631647118611
 50
296.0001350091882273
 51
298.1068567627763173
  0
ARC
  5
21DC3
  8
0
 10
4652.2939060068438266
 20
292.5135915925054064
 30
0.0
 40
0.6001393636
 50
290.5437180314025909
 51
292.5644307692650159
  0
ARC
  5
21DC4
  8
0
 10
4652.2946624532442002
 20
292.5083273221054014
 30
0.0
 40
0.5999961497000001
 50
292.3671935382611196
 51
293.6556579355972758
  0
ARC
  5
21DC5
  8
0
 10
4652.2908274109440754
 20
292.5412270815053262
 30
0.0
 40
0.5997982438000001
 50
274.464797265155994
 51
276.3543033564556026
  0
ARC
  5
21DC6
  8
0
 10
4652.29683265494441
 20
292.490516021305325
 30
0.0
 40
0.5996407359
 50
296.0493845325769939
 51
298.1606654747210996
  0
ARC
  5
21DC7
  8
0
 10
4652.2920934782432596
 20
292.5288141551054082
 30
0.0
 40
0.5988988427
 50
285.1739139342154772
 51
287.1337090461868797
  0
ARC
  5
21DC8
  8
0
 10
4652.2907859296428796
 20
292.5435876241053279
 30
0.0
 40
0.5986294137
 50
271.8091102814946112
 51
273.6953081948801128
  0
ARC
  5
21DC9
  8
0
 10
4652.2929174663431695
 20
292.5243921958053193
 30
0.0
 40
0.5975753860000002
 50
287.9092016055716954
 51
289.9043311807898817
  0
ARC
  5
21DCA
  8
0
 10
4652.2911989385438574
 20
292.5386907805054193
 30
0.0
 40
0.5972340063
 50
279.8323005783469739
 51
281.7552027659751843
  0
ARC
  5
21DCB
  8
0
 10
4652.2909444933429768
 20
292.54198596560542
 30
0.0
 40
0.5970194599999999
 50
277.1597658912003794
 51
279.0676697616937076
  0
ARC
  5
21DCC
  8
0
 10
4652.2966548262429569
 20
292.5011166189054279
 30
0.0
 40
0.5966734731000001
 50
296.2071617148986888
 51
298.0245728254903952
  0
ARC
  5
21DCD
  8
0
 10
4652.2951698223441781
 20
292.5124381945053074
 30
0.0
 40
0.5958005160000001
 50
293.456728997299706
 51
295.5355375455125113
  0
ARC
  5
21DCE
  8
0
 10
4652.2915558315453382
 20
292.5387974512054257
 30
0.0
 40
0.5937718303000001
 50
282.5934054833796267
 51
284.5467621724188803
  0
ARC
  5
21DCF
  8
0
 10
4652.2939160028436163
 20
292.5234917959052723
 30
0.0
 40
0.5932711193
 50
290.7908998219197088
 51
292.8373707719114805
  0
ARC
  5
21DD0
  8
0
 10
4652.2921615401437521
 20
292.5347485016052929
 30
0.0
 40
0.5931745447
 50
285.3158282244424981
 51
287.2970438429949809
  0
ARC
  5
21DD1
  8
0
 10
4652.2907860799441551
 20
292.5496158197054228
 30
0.0
 40
0.5919343765000001
 50
271.828262045749625
 51
273.7366594448185992
  0
ARC
  5
21DD2
  8
0
 10
4652.2954127134453302
 20
292.5182016820053263
 30
0.0
 40
0.590898229
 50
293.620176317201981
 51
295.7359040334177962
  0
ARC
  5
21DD3
  8
0
 10
4652.2909753186440867
 20
292.5478084394054008
 30
0.0
 40
0.5901165013
 50
277.2396172633419269
 51
279.1711127932006775
  0
ARC
  5
21DD4
  8
0
 10
4652.2908291155436018
 20
292.5507397175052802
 30
0.0
 40
0.5892078659000001
 50
274.5438580731810134
 51
276.4667240982075782
  0
ARC
  5
21DD5
  8
0
 10
4652.2929274976440865
 20
292.5341143244053796
 30
0.0
 40
0.5888902783
 50
288.1805467081147754
 51
290.207451590706512
  0
ARC
  5
21DD6
  8
0
 10
4652.294022709444107
 20
292.5294133567052768
 30
0.0
 40
0.5875219998
 50
290.9913795634140001
 51
293.0614964872825112
  0
ARC
  5
21DD7
  8
0
 10
4652.2916063877437409
 20
292.5446406901053251
 30
0.0
 40
0.5868855120000001
 50
282.7371912098452071
 51
284.7156433881960993
  0
ARC
  5
21DD8
  8
0
 10
4652.2911867438442641
 20
292.5482978270052854
 30
0.0
 40
0.5867391400999999
 50
280.0099532003059721
 51
281.9675851805827733
  0
ARC
  5
21DD9
  8
0
 10
4652.2921692509444256
 20
292.5442898798053193
 30
0.0
 40
0.5826111107
 50
285.598462572775702
 51
287.6177243544860858
  0
ARC
  5
21DDA
  8
0
 10
4652.2930175917435918
 20
292.5399281355053063
 30
0.0
 40
0.5819644085000001
 50
288.3937771940613857
 51
290.4481472693598789
  0
ARC
  5
21DDB
  8
0
 10
4652.2908305388436929
 20
292.5566399515054172
 30
0.0
 40
0.5812621405
 50
274.604479357318894
 51
276.5546427104947043
  0
ARC
  5
21DDC
  8
0
 10
4652.2907863575437659
 20
292.5589508271053205
 30
0.0
 40
0.5793921311
 50
271.8662807174047771
 51
273.8152531993744105
  0
ARC
  5
21DDD
  8
0
 10
4652.2912434097443111
 20
292.553935219605421
 30
0.0
 40
0.5785250575000001
 50
280.1463383968763878
 51
282.133578247569119
  0
ARC
  5
21DDE
  8
0
 10
4652.2909559962436106
 20
292.5572938151054245
 30
0.0
 40
0.5777259417
 50
277.3961065927218783
 51
279.3690582047079829
  0
ARC
  5
21DDF
  8
0
 10
4652.2938173341435686
 20
292.5395384946053241
 30
0.0
 40
0.5775804784
 50
291.3907731451994891
 51
291.8821942254076021
  0
ARC
  5
21DE0
  8
0
 10
4652.2922411832441867
 20
292.5499986492054063
 30
0.0
 40
0.5744626708000001
 50
285.8163958597144187
 51
287.8672121791245218
  0
ARC
  5
21DE1
  8
0
 10
4652.2916099673439021
 20
292.5539995375053195
 30
0.0
 40
0.5743662255
 50
283.0176443362025793
 51
285.0409548950174212
  0
ARC
  5
21DE2
  8
0
 10
4652.2928450164436072
 20
292.5498424779053153
 30
0.0
 40
0.5700282846000001
 50
288.8097887046773735
 51
289.1124210184066214
  0
ARC
  5
21DE3
  8
0
 10
4652.2917053309438415
 20
292.5594372160052785
 30
0.0
 40
0.564762589
 50
283.2312731348152965
 51
285.2913686274922043
  0
ARC
  5
21DE4
  8
0
 10
4652.290786563344227
 20
292.5647346473053858
 30
0.0
 40
0.5701468456000001
 50
271.8948604941890039
 51
273.8762378122868881
  0
ARC
  5
21DE5
  8
0
 10
4652.2909890658438599
 20
292.5628685699052767
 30
0.0
 40
0.5682691300000001
 50
277.5148234108456791
 51
279.5220458140170763
  0
ARC
  5
21DE6
  8
0
 10
4652.2908333626437525
 20
292.5657588961054216
 30
0.0
 40
0.566633541
 50
274.721387094706472
 51
276.7215955190878276
  0
ARC
  5
21DE7
  8
0
 10
4652.2912207326444332
 20
292.5632199272054095
 30
0.0
 40
0.5640643037
 50
280.4096566292744228
 51
282.4490701738934035
  0
ARC
  5
21DE8
  8
0
 10
4652.290835552344106
 20
292.5713956067053232
 30
0.0
 40
0.5559816494000001
 50
274.8099423946746924
 51
276.8490748520086981
  0
ARC
  5
21DE9
  8
0
 10
4652.2907869473428946
 20
292.5736603255052728
 30
0.0
 40
0.5533343778000001
 50
271.9500575102106836
 51
273.9910478519000208
  0
ARC
  5
21DEA
  8
0
 10
4652.2909447982428901
 20
292.5721263707052913
 30
0.0
 40
0.5517918479000001
 50
277.7428134575893068
 51
278.7782211114094935
  0
ARC
  5
21DEB
  8
0
 10
4652.2908177912440806
 20
292.8238915004054093
 30
0.0
 40
0.7792928455000001
 50
322.4045048447082991
 51
339.9989394461077268
  0
ARC
  5
21DEC
  8
0
 10
4652.2897459425948909
 20
292.7732212702493939
 30
0.0
 40
0.7292405205128305
 50
335.6324030739024238
 51
342.7755959056020174
  0
LINE
  5
21DED
  8
0
 10
4652.5225007341441597
 20
291.9020401247053087
 30
0.0
 11
4652.5229852283428045
 21
291.9023750592053261
 31
0.0
  0
LINE
  5
21DEE
  8
0
 10
4652.4668560333439018
 20
291.8823170047053281
 30
0.0
 11
4652.4673406092442747
 21
291.8826031553052758
 31
0.0
  0
LINE
  5
21DEF
  8
0
 10
4652.5057197430442102
 20
291.8955794570052831
 30
0.0
 11
4652.5062038500436756
 21
291.8956243362052874
 31
0.0
  0
LINE
  5
21DF0
  8
0
 10
4652.4112015586451889
 20
291.8684231934054196
 30
0.0
 11
4652.4116862108439818
 21
291.8686638411052741
 31
0.0
  0
LINE
  5
21DF1
  8
0
 10
4652.4500719869429304
 20
291.8776785693053171
 30
0.0
 11
4652.4505561873438637
 21
291.8776677271054041
 31
0.0
  0
LINE
  5
21DF2
  8
0
 10
4652.355538043044362
 20
291.8599215582053148
 30
0.0
 11
4652.3560227687439692
 21
291.860118346705292
 31
0.0
  0
LINE
  5
21DF3
  8
0
 10
4652.39441472044291
 20
291.8654498220054165
 30
0.0
 11
4652.3948990048438645
 21
291.8653888830053234
 31
0.0
  0
LINE
  5
21DF4
  8
0
 10
4652.299865897242853
 20
291.8565671272053237
 30
0.0
 11
4652.3003506959439619
 21
291.8567203954053184
 31
0.0
  0
LINE
  5
21DF5
  8
0
 10
4652.5224820036428355
 20
291.895933816605293
 30
0.0
 11
4652.5323065431139185
 21
291.9013749259851807
 31
0.0
  0
LINE
  5
21DF6
  8
0
 10
4652.4407139280438059
 20
291.934627850905315
 30
0.0
 11
4652.4505565504432525
 21
291.9292838592053272
 31
0.0
  0
LINE
  5
21DF7
  8
0
 10
4652.5618215412441714
 20
291.9141790167054182
 30
0.0
 11
4652.5519792901350229
 21
291.9087212141891996
 31
0.0
  0
LINE
  5
21DF8
  8
0
 10
4652.5321689105567202
 20
291.9768079064929225
 30
0.0
 11
4652.5224826089443013
 21
291.9819607034053206
 31
0.0
  0
LINE
  5
21DF9
  8
0
 10
4652.5500008598428394
 20
291.9371019935053937
 30
0.0
 11
4652.5500008129192793
 21
291.9304327150042013
 31
0.0
  0
LINE
  5
21DFA
  8
0
 10
4652.4505561873438637
 20
291.8776677271054041
 30
0.0
 11
4652.4407134907442014
 21
291.8724756200052752
 31
0.0
  0
LINE
  5
21DFB
  8
0
 10
4652.3392332944431473
 20
291.9100289878052763
 30
0.0
 11
4652.3387489284441472
 21
291.9096176436053156
 31
0.0
  0
LINE
  5
21DFC
  8
0
 10
4652.3003510554435707
 20
291.9078177592052725
 30
0.0
 11
4652.2998662604441051
 21
291.9081832593054173
 31
0.0
  0
LINE
  5
21DFD
  8
0
 10
4652.6155671169453854
 20
291.9073717151053984
 30
0.0
 11
4652.6188755432440303
 21
291.9117019884052979
 31
0.0
  0
LINE
  5
21DFE
  8
0
 10
4652.3948993680442072
 20
291.9170050150053157
 30
0.0
 11
4652.3944150799443378
 21
291.9165471858054275
 31
0.0
  0
LINE
  5
21DFF
  8
0
 10
4652.356023128243578
 20
291.9112157104053153
 30
0.0
 11
4652.3555384061428413
 21
291.9115376903054084
 31
0.0
  0
LINE
  5
21E00
  8
0
 10
4652.4505565504432525
 20
291.9292838592053272
 30
0.0
 11
4652.4500723464443581
 21
291.928775933105328
 31
0.0
  0
LINE
  5
21E01
  8
0
 10
4652.4116865703454096
 20
291.919761204905285
 30
0.0
 11
4652.4112019217436682
 21
291.9200393255052859
 31
0.0
  0
LINE
  5
21E02
  8
0
 10
4652.5062042132440183
 20
291.9472404682052797
 30
0.0
 11
4652.5057201025438189
 21
291.946676820805294
 31
0.0
  0
LINE
  5
21E03
  8
0
 10
4652.4673409687429739
 20
291.9337005191052867
 30
0.0
 11
4652.4668563964432906
 21
291.9339331368054218
 31
0.0
  0
LINE
  5
21E04
  8
0
 10
4652.522985550024714
 20
291.953472437355174
 30
0.0
 11
4652.5225014290326726
 21
291.9536561308499927
 31
0.0
  0
ARC
  5
21E05
  8
0
 10
4653.7343597067174414
 20
292.1150844104710131
 30
0.0
 40
0.8582302098711505
 50
155.4003490364910078
 51
161.6706726648646963
  0
ARC
  5
21E06
  8
0
 10
4654.2893782260589433
 20
291.9377157485811267
 30
0.0
 40
1.4408814887264461
 50
161.9160805882748946
 51
167.1889064828600056
  0
ARC
  5
21E07
  8
0
 10
4637.7621479982462915
 20
295.4599003809005922
 30
0.0
 40
15.4576410336989696
 50
346.9693080201085991
 51
348.0421990197439186
  0
ARC
  5
21E08
  8
0
 10
4651.5367471840354483
 20
292.7251908560248239
 30
0.0
 40
1.6426770828060639
 50
350.6664062497371219
 51
354.0494416840239751
  0
ARC
  5
21E09
  8
0
 10
4652.328936841587165
 20
292.6045125004620786
 30
0.0
 40
0.8414559699804568
 50
336.1007648699610968
 51
350.0264336043047138
  0
ARC
  5
21E0A
  8
0
 10
4652.3651546035707725
 20
292.5893750581199129
 30
0.0
 40
0.8022113521259893
 50
323.2351765209044174
 51
336.0412464339843268
  0
ARC
  5
21E0B
  8
0
 10
4652.3631112505599958
 20
292.5918224344728742
 30
0.0
 40
0.805313450696434
 50
307.0046344613821248
 51
323.1826998630876915
  0
ARC
  5
21E0C
  8
0
 10
4652.3329902343502908
 20
292.633762767967994
 30
0.0
 40
0.8569364989797758
 50
290.1999331667472006
 51
306.9251508642798854
  0
ARC
  5
21E0D
  8
0
 10
4652.3017385375260346
 20
292.7200195525545041
 30
0.0
 40
0.9486791536107478
 50
275.9887912416864992
 51
290.1724710559360005
  0
ARC
  5
21E0E
  8
0
 10
4652.2904692477259232
 20
292.8116243181843856
 30
0.0
 40
1.0409610473790609
 50
270.0316737828428018
 51
276.0796259878158025
  0
ARC
  5
21E0F
  8
0
 10
4652.2890947356254401
 20
293.5299883424303857
 30
0.0
 40
1.708981746293051
 50
270.0653751505453783
 51
271.6029690077052123
  0
ARC
  5
21E10
  8
0
 10
4652.2915655627675733
 20
293.4646062904673727
 30
0.0
 40
1.6435562879256751
 50
271.5806267023460236
 51
274.9953665767848747
  0
ARC
  5
21E11
  8
0
 10
4652.3231446050349405
 20
293.1445717165494784
 30
0.0
 40
1.321992416745948
 50
274.839686173000473
 51
281.5750443577884994
  0
ARC
  5
21E12
  8
0
 10
4652.4295861399150454
 20
292.6303707157766212
 30
0.0
 40
0.7968919921729837
 50
281.4958304906400031
 51
289.7147265672251137
  0
ARC
  5
21E13
  8
0
 10
4652.5704795602496233
 20
292.2396722006806726
 30
0.0
 40
0.3815670347736202
 50
289.5889474126722121
 51
301.3092812179710904
  0
ARC
  5
21E14
  8
0
 10
4652.6777004535906599
 20
292.0616958172101931
 30
0.0
 40
0.1737926066023384
 50
301.5993838190304928
 51
315.146065515007308
  0
ARC
  5
21E15
  8
0
 10
4652.7374052537370517
 20
292.0021650386037209
 30
0.0
 40
0.0894803277641205
 50
315.2049027895071163
 51
330.7916582034657722
  0
ARC
  5
21E16
  8
0
 10
4652.7620699565786708
 20
291.9884442626075156
 30
0.0
 40
0.0612561886810131
 50
330.7356735311469151
 51
346.9573245755021276
  0
ARC
  5
21E17
  8
0
 10
4652.2947315015799177
 20
290.4624441464405891
 30
0.0
 40
1.687043071167821
 50
86.5020386987423677
 51
89.8747879314122571
  0
ARC
  5
21E18
  8
0
 10
4652.3086695530637371
 20
290.6650173234635872
 30
0.0
 40
1.4839977034432059
 50
81.8383182347810418
 51
86.56197861976203
  0
ARC
  5
21E19
  8
0
 10
4652.3675410422702043
 20
291.0626209008244132
 30
0.0
 40
1.082065033728532
 50
75.6756997817228267
 51
81.9351450880391354
  0
ARC
  5
21E1A
  8
0
 10
4652.4878778676938964
 20
291.5235939318537248
 30
0.0
 40
0.6056560677945548
 50
66.4697485099688805
 51
75.9165870065961741
  0
ARC
  5
21E1B
  8
0
 10
4652.6302425432440941
 20
291.8435262368894882
 30
0.0
 40
0.2555049513781362
 50
50.6965887436077907
 51
67.0975061040775813
  0
ARC
  5
21E1C
  8
0
 10
4652.7330050638729517
 20
291.9676094131897912
 30
0.0
 40
0.0944010158619919
 50
26.7035506303212706
 51
51.2551453221503621
  0
ARC
  5
21E1D
  8
0
 10
4652.7678601587367666
 20
291.9855943749000744
 30
0.0
 40
0.0551829384426431
 50
1.2696620977087729
 51
26.2843241696697483
  0
ARC
  5
21E1E
  8
0
 10
4652.7714296724043379
 20
291.9860817521422973
 30
0.0
 40
0.0516051160527204
 50
347.1674919442111218
 51
0.8164833557573775
  0
ARC
  5
21E1F
  8
0
 10
4652.3622577449423261
 20
292.7933006421725963
 30
0.0
 40
0.9521976380769706
 50
277.6208884856648069
 51
285.9245468561559278
  0
ARC
  5
21E20
  8
0
 10
4652.4977554415208942
 20
292.3232349206917888
 30
0.0
 40
0.4629964565721935
 50
285.7605398081196881
 51
297.0511745394348964
  0
ARC
  5
21E21
  8
0
 10
4652.6151156518790231
 20
292.0914171400988835
 30
0.0
 40
0.2031676090605966
 50
297.3067995562595911
 51
309.7631003170677104
  0
ARC
  5
21E22
  8
0
 10
4652.6911734562772835
 20
292.0026375522908779
 30
0.0
 40
0.086291800625345
 50
308.6471737283160905
 51
337.6318027005959834
  0
ARC
  5
21E23
  8
0
 10
4652.7266978112911602
 20
291.9859301642280229
 30
0.0
 40
0.0471218656627369
 50
339.9806604540672197
 51
12.9633967345497201
  0
ARC
  5
21E24
  8
0
 10
4652.7113352090727858
 20
291.9810553517477842
 30
0.0
 40
0.06319994992904
 50
14.1459331523488796
 51
39.5053610781657127
  0
ARC
  5
21E25
  8
0
 10
4652.6646403783597634
 20
291.9431438899648015
 30
0.0
 40
0.1233462768667528
 50
39.2945760800023223
 51
53.9559427875089668
  0
ARC
  5
21E26
  8
0
 10
4652.5735955051450219
 20
291.8120856592645964
 30
0.0
 40
0.2829084524540814
 50
54.6647798605186992
 51
68.7475220067382935
  0
ARC
  5
21E27
  8
0
 10
4652.4707358000696331
 20
291.5639128785898038
 30
0.0
 40
0.5515195984995542
 50
68.133830082757342
 51
73.4953925438919526
  0
ARC
  5
21E28
  8
0
 10
4652.4165380456279308
 20
291.3830347102866085
 30
0.0
 40
0.7403424229499129
 50
73.4506205773573271
 51
76.460441560779401
  0
ARC
  5
21E29
  8
0
 10
4652.354206451637765
 20
291.1125217228757833
 30
0.0
 40
1.01793398329147
 50
76.6142323497922604
 51
81.8516706072651772
  0
ARC
  5
21E2A
  8
0
 10
4652.3068442748099187
 20
290.7842824597983054
 30
0.0
 40
1.349572478539159
 50
81.8363605787864259
 51
86.3596073815578222
  0
ARC
  5
21E2B
  8
0
 10
4652.2941654117112193
 20
290.5984676703299101
 30
0.0
 40
1.535817604576178
 50
86.3277052998256238
 51
90.1164223842639274
  0
ARC
  5
21E2C
  8
0
 10
4652.5951129771865453
 20
292.0613925006416025
 30
0.0
 40
0.0758445946285748
 50
311.9744612065597948
 51
325.8097090320658253
  0
ARC
  5
21E2D
  8
0
 10
4652.6189806832699105
 20
292.0450564782398146
 30
0.0
 40
0.0469219960879473
 50
325.9323879671093209
 51
345.0738265589445746
  0
ARC
  5
21E2E
  8
0
 10
4652.6292662974656196
 20
292.0419885217431215
 30
0.0
 40
0.0361945791447336
 50
345.5726816464018043
 51
16.207982906947219
  0
ARC
  5
21E2F
  8
0
 10
4652.6132842982169677
 20
292.0362115216489087
 30
0.0
 40
0.0531649768408008
 50
17.378894900662651
 51
41.9506079037492299
  0
ARC
  5
21E30
  8
0
 10
4652.5679465082694151
 20
291.994730956782405
 30
0.0
 40
0.1146142740257221
 50
42.2216231947579388
 51
58.7423840316924171
  0
ARC
  5
21E31
  8
0
 10
4652.6114634582791041
 20
292.0231955834515816
 30
0.0
 40
0.0343438095175795
 50
0.0560831749373356
 51
11.5652884166014793
  0
ARC
  5
21E32
  8
0
 10
4652.6039406440258972
 20
292.0212228240710033
 30
0.0
 40
0.0421115343780359
 50
12.1428598713107299
 51
32.1361117182555134
  0
ARC
  5
21E33
  8
0
 10
4652.5800323761332038
 20
292.0056426660423767
 30
0.0
 40
0.0706459316012058
 50
32.5217504763935281
 51
49.0978598647411033
  0
ARC
  5
21E34
  8
0
 10
4652.5171376940497794
 20
291.9287828981850907
 30
0.0
 40
0.1699431320789381
 50
50.0377901842064006
 51
68.1110379115732485
  0
ARC
  5
21E35
  8
0
 10
4652.3832768801830753
 20
291.5984168579644233
 30
0.0
 40
0.5263980157007997
 50
67.997067414936879
 51
81.1520926252984935
  0
ARC
  5
21E36
  8
0
 10
4652.3029140287389964
 20
291.1498117769186251
 30
0.0
 40
0.9820806550423808
 50
80.5450023058704261
 51
87.0229074629804273
  0
ARC
  5
21E37
  8
0
 10
4652.2933641325580538
 20
290.9999406040450936
 30
0.0
 40
1.132246906029394
 50
86.9341894388030596
 51
90.1173715757607994
  0
ARC
  5
21E38
  8
0
 10
4652.5754645632969186
 20
291.9675363644893196
 30
0.0
 40
0.0704360153486998
 50
340.4590669625579267
 51
0.0003273430900437
  0
ARC
  5
21E39
  8
0
 10
4652.5637915472389068
 20
291.9720760311498111
 30
0.0
 40
0.0829559689079362
 50
322.1157172729509739
 51
340.2008899486983751
  0
ARC
  5
21E3A
  8
0
 10
4652.5484621039204285
 20
291.983049420450584
 30
0.0
 40
0.1017959682331341
 50
318.357900793998283
 51
322.5392966422897985
  0
ARC
  5
21E3B
  8
0
 10
4652.5446414404887037
 20
291.9862996014236955
 30
0.0
 40
0.1068109105196811
 50
311.8267847142257096
 51
318.4168237332365266
  0
ARC
  5
21E3C
  8
0
 10
4652.5374947863801935
 20
292.2415099669988194
 30
0.0
 40
0.3064364861804862
 50
290.4717997980674795
 51
301.7223389889911118
  0
ARC
  5
21E3D
  8
0
 10
4652.6215515989315463
 20
292.105394318117078
 30
0.0
 40
0.146458340443791
 50
301.7500438156181986
 51
314.0385414990088861
  0
ARC
  5
21E3E
  8
0
 10
4652.6744675637473847
 20
292.052886277890309
 30
0.0
 40
0.0719441156978276
 50
312.8125801513629085
 51
337.7989462989821163
  0
ARC
  5
21E3F
  8
0
 10
4652.6975800645386698
 20
292.0425576379395238
 30
0.0
 40
0.0466497128866296
 50
338.818015254389195
 51
353.8985874939127143
  0
ARC
  5
21E40
  8
0
 10
4652.4700396272401122
 20
292.4248598740679199
 30
0.0
 40
0.5282906611689522
 50
287.5415193689061084
 51
291.3224167948919217
  0
ARC
  5
21E41
  8
0
 10
4652.531049562690896
 20
292.2707378617726022
 30
0.0
 40
0.3625351437704166
 50
291.1971590152722911
 51
297.5936431285887807
  0
ARC
  5
21E42
  8
0
 10
4652.603861826022694
 20
292.1342285834795121
 30
0.0
 40
0.2078307054404365
 50
297.2354033001519156
 51
307.8312562796967882
  0
ARC
  5
21E43
  8
0
 10
4652.6600851660759872
 20
292.0621624218792931
 30
0.0
 40
0.1164276405004675
 50
307.730159847989114
 51
320.1381060358236823
  0
ARC
  5
21E44
  8
0
 10
4652.6955006744647108
 20
292.0326707095571237
 30
0.0
 40
0.0703406244380223
 50
320.0879303218354721
 51
335.4602268540916157
  0
ARC
  5
21E45
  8
0
 10
4652.7133661145071528
 20
292.0243468273195049
 30
0.0
 40
0.0506320262102686
 50
335.6322907947945851
 51
351.4597599959960803
  0
ARC
  5
21E46
  8
0
 10
4652.4647757195498343
 20
292.4580189583043079
 30
0.0
 40
0.5656405437192125
 50
286.4058877576076156
 51
291.4903500218080126
  0
ARC
  5
21E47
  8
0
 10
4652.544354470415783
 20
292.2572217066586973
 30
0.0
 40
0.3496499589996693
 50
291.4108082659623733
 51
299.1844637310613848
  0
ARC
  5
21E48
  8
0
 10
4652.6161036649173184
 20
292.1283752316535924
 30
0.0
 40
0.2021735195321563
 50
299.2376157607483265
 51
308.4550786443004995
  0
ARC
  5
21E49
  8
0
 10
4652.6694110422176891
 20
292.0613164549254748
 30
0.0
 40
0.1165081641613982
 50
308.4349738532447986
 51
320.869494884532628
  0
ARC
  5
21E4A
  8
0
 10
4652.7016666543113388
 20
292.0345304593187166
 30
0.0
 40
0.0745839962205537
 50
321.1936942498012968
 51
331.693703001241488
  0
ARC
  5
21E4B
  8
0
 10
4652.7141912006909479
 20
292.0275827906049813
 30
0.0
 40
0.0602628520471195
 50
331.8628929569376851
 51
337.6901237578633754
  0
ARC
  5
21E4C
  8
0
 10
4652.3662555319551757
 20
291.4618520757391025
 30
0.0
 40
0.5788348107643292
 50
72.9550132656684838
 51
79.716540618700634
  0
ARC
  5
21E4D
  8
0
 10
4652.4595855129182382
 20
291.7523577898509757
 30
0.0
 40
0.2737628296194954
 50
59.5691532553427265
 51
73.8082564752234447
  0
ARC
  5
21E4E
  8
0
 10
4652.5425237234785527
 20
291.8945385594267918
 30
0.0
 40
0.1091618358446729
 50
43.8883928432103332
 51
59.3059048907842765
  0
ARC
  5
21E4F
  8
0
 10
4652.5815133233209053
 20
291.9323549360300944
 30
0.0
 40
0.0548463941023538
 50
25.5175859850178917
 51
43.654204841528859
  0
ARC
  5
21E50
  8
0
 10
4652.5990370186882501
 20
291.9408503148769114
 30
0.0
 40
0.035372568391401
 50
359.3764650820313022
 51
25.3269676414441989
  0
ARC
  5
21E51
  8
0
 10
4652.6009965703078706
 20
291.9411523038908172
 30
0.0
 40
0.03341798308197
 50
347.2766158775398821
 51
358.8221591864486868
  0
ARC
  5
21E52
  8
0
 10
4652.5938285082966104
 20
291.943088161603896
 30
0.0
 40
0.0408375667054964
 50
328.4995465946507238
 51
346.8422417450613011
  0
ARC
  5
21E53
  8
0
 10
4652.5726828070537522
 20
291.9563379828280745
 30
0.0
 40
0.0657907248649456
 50
315.179817326094792
 51
328.2831031966878186
  0
ARC
  5
21E54
  8
0
 10
4652.3119146279432243
 20
291.1844192525610993
 30
0.0
 40
0.850998204438987
 50
79.4742053119225886
 51
85.0423250811541465
  0
ARC
  5
21E55
  8
0
 10
4652.4780622090747784
 20
291.7928797471112148
 30
0.0
 40
0.2181054814552009
 50
58.267106601643043
 51
67.8591554098524057
  0
ARC
  5
21E56
  8
0
 10
4652.5394222922541303
 20
291.8915278082624809
 30
0.0
 40
0.1019318866640148
 50
41.9973178004554768
 51
58.4370774168188802
  0
ARC
  5
21E57
  8
0
 10
4652.5826985708727079
 20
291.9300765812869258
 30
0.0
 40
0.0439782405033764
 50
11.4274238547129894
 51
42.397871200921422
  0
ARC
  5
21E58
  8
0
 10
4652.5942067486366795
 20
291.9333319346151256
 30
0.0
 40
0.0320661599492099
 50
348.9119787111782216
 51
9.7998857802540975
  0
ARC
  5
21E59
  8
0
 10
4652.5895080751579371
 20
291.9343377422915182
 30
0.0
 40
0.0368706508251338
 50
336.8030382933072815
 51
348.7823804095802984
  0
ARC
  5
21E5A
  8
0
 10
4652.5807450852253169
 20
291.9382747513133154
 30
0.0
 40
0.0464762687541831
 50
325.1277167938666821
 51
336.5971059970531769
  0
ARC
  5
21E5B
  8
0
 10
4652.5466861702143433
 20
291.9668860305176281
 30
0.0
 40
0.0910304265695029
 50
304.467689325875881
 51
319.172423699161584
  0
ARC
  5
21E5C
  8
0
 10
4652.4818215093673643
 20
292.06359194764309
 30
0.0
 40
0.2074725594725961
 50
291.0342622390122074
 51
304.1217941387690757
  0
ARC
  5
21E5D
  8
0
 10
4652.3934821598113558
 20
292.2872926098218045
 30
0.0
 40
0.4479796577105536
 50
282.2503421359077151
 51
291.3106414080007198
  0
ARC
  5
21E5E
  8
0
 10
4652.3126065965070666
 20
292.6508075786936161
 30
0.0
 40
0.820379998222881
 50
274.3418258340068974
 51
282.3831882159968245
  0
ARC
  5
21E5F
  8
0
 10
4652.2904025444468061
 20
292.8871694081408918
 30
0.0
 40
1.057753017961927
 50
270.0347841041569836
 51
274.5718304731428816
  0
ARC
  5
21E60
  8
0
 10
4652.3655612501106589
 20
291.5103228519737968
 30
0.0
 40
0.5137041713236529
 50
74.0904751608107404
 51
77.4109156737731894
  0
ARC
  5
21E61
  8
0
 10
4652.4035969647347883
 20
291.6422939535534056
 30
0.0
 40
0.3763620234640835
 50
69.2166760326797998
 51
74.1518241282967949
  0
ARC
  5
21E62
  8
0
 10
4652.4622175981548935
 20
291.7921172465721042
 30
0.0
 40
0.215493506810457
 50
58.4358355921300614
 51
69.6536838940945842
  0
ARC
  5
21E63
  8
0
 10
4652.4780822781040115
 20
291.828357228507798
 30
0.0
 40
0.1763949377756788
 50
52.3074041332960604
 51
56.6645437690123472
  0
ARC
  5
21E64
  8
0
 10
4652.5475402519859927
 20
291.9178155816172193
 30
0.0
 40
0.0631385447508255
 50
29.1197737938398795
 51
52.5480793340736909
  0
ARC
  5
21E65
  8
0
 10
4652.573698458751096
 20
291.933056498982296
 30
0.0
 40
0.0328750342783718
 50
357.7750565623474017
 51
28.1001914578466589
  0
ARC
  5
21E66
  8
0
 10
4652.5737282816726292
 20
291.93365889302288
 30
0.0
 40
0.0328741530566804
 50
335.0103602440084956
 51
356.7238692640573845
  0
ARC
  5
21E67
  8
0
 10
4652.5563260119170081
 20
291.9423207129530056
 30
0.0
 40
0.0523089017185316
 50
315.2310599445966091
 51
334.4634821630929764
  0
ARC
  5
21E68
  8
0
 10
4652.5018568818131826
 20
292.0016097406989957
 30
0.0
 40
0.1327861383853693
 50
294.5958762687749868
 51
313.6202949318258106
  0
ARC
  5
21E69
  8
0
 10
4652.4154059118091027
 20
292.1830830717714775
 30
0.0
 40
0.3337900651643746
 50
285.1641444587136789
 51
295.123705030440874
  0
ARC
  5
21E6A
  8
0
 10
4652.3394742905265957
 20
292.4562215525288025
 30
0.0
 40
0.6172832971651769
 50
278.5625849686574043
 51
285.3348134342352864
  0
ARC
  5
21E6B
  8
0
 10
4652.2977189605489912
 20
292.7265364372552767
 30
0.0
 40
0.8908027496759171
 50
273.0412599711070243
 51
278.6296591785841201
  0
ARC
  5
21E6C
  8
0
 10
4652.2901714507597717
 20
292.8451209617973063
 30
0.0
 40
1.0096214600979541
 50
270.0495568784573948
 51
273.1119343617576192
  0
ARC
  5
21E6D
  8
0
 10
4652.495889958362568
 20
292.0442935514531086
 30
0.0
 40
0.146326507643062
 50
298.0588197859713091
 51
305.9546967628376137
  0
ARC
  5
21E6E
  8
0
 10
4652.5306799307827532
 20
291.9966927902246994
 30
0.0
 40
0.0873680606560249
 50
305.8148335618881219
 51
317.223912114787197
  0
ARC
  5
21E6F
  8
0
 10
4652.5572324480235693
 20
291.9722409289191205
 30
0.0
 40
0.0512721127731735
 50
317.1292035212657083
 51
332.4685320646290165
  0
ARC
  5
21E70
  8
0
 10
4652.4955303197275498
 20
291.9515805212324153
 30
0.0
 40
0.0593282892104321
 50
312.2281681688127719
 51
319.0101014687760994
  0
ARC
  5
21E71
  8
0
 10
4652.2907817071209138
 20
292.4813754846002212
 30
0.0
 40
0.6184149132671943
 50
270.0243664375461776
 51
275.6839626794670721
  0
ARC
  5
21E72
  8
0
 10
4652.2910353327552002
 20
292.4790181528571225
 30
0.0
 40
0.6160440526404406
 50
275.682204344156105
 51
283.1281825840467263
  0
ARC
  5
21E73
  8
0
 10
4652.2922658144661909
 20
292.4737777530982044
 30
0.0
 40
0.6106611343613138
 50
283.1274255584260118
 51
289.6629077826933099
  0
ARC
  5
21E74
  8
0
 10
4652.294238489667805
 20
292.4682473804903111
 30
0.0
 40
0.6047894686694353
 50
289.6632152584156756
 51
294.7996755288158965
  0
ARC
  5
21E75
  8
0
 10
4652.4957859245096188
 20
291.9149510754194807
 30
0.0
 40
0.0590566130261634
 50
41.0641647907131713
 51
47.86695537123137
  0
ARC
  5
21E76
  8
0
 10
4652.2924512150893861
 20
292.4944063116981283
 30
0.0
 40
0.5997475409891094
 50
269.8656313516285081
 51
276.9211868169510922
  0
ARC
  5
21E77
  8
0
 10
4652.2911067204113351
 20
292.5102601500367996
 30
0.0
 40
0.6156481361448551
 50
276.8676039274981235
 51
283.4561469257092199
  0
ARC
  5
21E78
  8
0
 10
4652.2919502200838906
 20
292.5065870853742922
 30
0.0
 40
0.6118796210102408
 50
283.4593664085513183
 51
286.7690025980163
  0
ARC
  5
21E79
  8
0
 10
4652.2927200359781637
 20
292.5040427021924074
 30
0.0
 40
0.6092213333458184
 50
286.7687213700700113
 51
289.6143096719666801
  0
ARC
  5
21E7A
  8
0
 10
4652.2935935443156268
 20
292.5015655333443192
 30
0.0
 40
0.6065946803892041
 50
289.6151343708481818
 51
291.9233714961379178
  0
ARC
  5
21E7B
  8
0
 10
4652.2942008239897405
 20
292.5000258959507278
 30
0.0
 40
0.6049396457549681
 50
291.9244592722820926
 51
292.4806443495094186
  0
ARC
  5
21E7C
  8
0
 10
4652.2945622082188493
 20
292.4991582856355876
 30
0.0
 40
0.6039997832695665
 50
292.4804382265314189
 51
293.5519823366468017
  0
ARC
  5
21E7D
  8
0
 10
4652.2951633189959466
 20
292.4977825705058194
 30
0.0
 40
0.6024984756666973
 50
293.5518560966427799
 51
294.8034828206413067
  0
ARC
  5
21E7E
  8
0
 10
4651.7666989601302703
 20
291.2283215683028175
 30
0.0
 40
1.037079905824555
 50
42.4923740954639371
 51
43.0822808286668604
  0
ARC
  5
21E7F
  8
0
 10
4651.7667055870733748
 20
291.2307574420822789
 30
0.0
 40
1.037071598173227
 50
42.4180764392567724
 51
43.1571873338425007
  0
ARC
  5
21E80
  8
0
 10
4652.5242637776937045
 20
291.6176814489725757
 30
0.0
 40
0.3232538336407891
 50
88.572609486936642
 51
89.8311902260647059
  0
ARC
  5
21E81
  8
0
 10
4652.5243651418613808
 20
291.6249348007553976
 30
0.0
 40
0.3184302398283587
 50
88.2649665112551247
 51
88.8315329786060204
  0
ARC
  5
21E82
  8
0
 10
4651.7649446195719065
 20
291.2439182538745968
 30
0.0
 40
1.0394602484820441
 50
42.2799592566391809
 51
42.3564425177825967
  0
ARC
  5
21E83
  8
0
 10
4652.2862997779357102
 20
294.3834671520659185
 30
0.0
 40
2.583345401578089
 50
270.1052373201681007
 51
271.0990780931629729
  0
ARC
  5
21E84
  8
0
 10
4652.3643178558613727
 20
290.7742266993820976
 30
0.0
 40
1.0267650041418559
 50
89.4304767254328539
 51
91.5886706096394647
  0
ARC
  5
21E85
  8
0
 10
4652.3725326815256267
 20
291.7683113539620194
 30
0.0
 40
0.0326903191091656
 50
76.0623799059172114
 51
86.5080563306762542
  0
ARC
  5
21E86
  8
0
 10
4652.2909611190907526
 20
292.2771687850164994
 30
0.0
 40
0.4854411622686635
 50
270.0098652928847969
 51
280.6177684088041246
  0
LINE
  5
21E87
  8
0
 10
4656.2633758046185903
 20
288.8735956937604215
 30
0.0
 11
4656.336409638745863
 21
288.8735956937604215
 31
0.0
  0
LINE
  5
21E88
  8
0
 10
4653.1335056549378351
 20
292.6361943784729078
 30
0.0
 11
4651.4487726643383212
 21
292.6361943784729078
 31
0.0
  0
LINE
  5
21E89
  8
0
 10
4652.2984182999180121
 20
292.1494831891106969
 30
0.0
 11
4652.283671106570182
 21
292.1494831891106969
 31
0.0
  0
LINE
  5
21E8A
  8
0
 10
4652.2752640552444063
 20
292.0363021941068951
 30
0.0
 11
4652.3036173306427372
 21
292.0363021941068951
 31
0.0
  0
ATTDEF
  5
21E8C
  8
DEFPOINTS
 10
4652.2910963772847026
 20
292.2794856799778813
 30
0.0
 40
0.001
  1
K-25106T-4
  3

  2
MODELNUMBER
 70
     0
1001
ACDBATTR
1070
     0
1070
     1
  0
ATTDEF
  5
21E8D
  8
DEFPOINTS
 10
4652.290970567626573
 20
292.2778188395986945
 30
0.0
 40
0.001
  1
ALEO
  3

  2
TRADENAME
 70
     0
1001
ACDBATTR
1070
     0
1070
     1
  0
ATTDEF
  5
21E8E
  8
DEFPOINTS
 10
4652.2910963772847026
 20
292.2761523466446079
 30
0.0
 40
0.001
  1
BATHROOM SINK FAUCET
  3

  2
PRODUCT
 70
     0
1001
ACDBATTR
1070
     0
1070
     1
  0
ENDSEC
  0
EOF
