  0
SECTION
  2
HEADER
  9
$ACADVER
  1
AC1009
  9
$INSBASE
 10
4442.9529836509900633
 20
264.0171610173874797
 30
0.0
  9
$EXTMIN
 10
4441.6927296899275461
 20
256.7619666662545796
 30
-0.0000000000112498
  9
$EXTMAX
 10
4448.1277024601886296
 20
264.040959353244773
 30
0.0000000000002956
  9
$LIMMIN
 10
0.0
 20
0.0
  9
$LIMMAX
 10
11.6929133858000007
 20
8.2677165353999982
  9
$ORTHOMODE
 70
     0
  9
$REGENMODE
 70
     1
  9
$FILLMODE
 70
     1
  9
$QTEXTMODE
 70
     0
  9
$MIRRTEXT
 70
     0
  9
$DRAGMODE
 70
     2
  9
$LTSCALE
 40
0.6431102362
  9
$OSMODE
 70
   563
  9
$ATTMODE
 70
     1
  9
$TEXTSIZE
 40
0.2
  9
$TRACEWID
 40
0.05
  9
$TEXTSTYLE
  7
STANDARD
  9
$CLAYER
  8
0
  9
$CELTYPE
  6
BYLAYER
  9
$CECOLOR
 62
   256
  9
$DIMSCALE
 40
1.0
  9
$DIMASZ
 40
0.1875
  9
$DIMEXO
 40
0.0625
  9
$DIMDLI
 40
0.4443307087
  9
$DIMRND
 40
0.0
  9
$DIMDLE
 40
0.0
  9
$DIMEXE
 40
0.125
  9
$DIMTP
 40
0.01
  9
$DIMTM
 40
0.01
  9
$DIMTXT
 40
2.0
  9
$DIMCEN
 40
0.1052362205
  9
$DIMTSZ
 40
0.0
  9
$DIMTOL
 70
     1
  9
$DIMLIM
 70
     0
  9
$DIMTIH
 70
     1
  9
$DIMTOH
 70
     1
  9
$DIMSE1
 70
     0
  9
$DIMSE2
 70
     0
  9
$DIMTAD
 70
     0
  9
$DIMZIN
 70
     0
  9
$DIMBLK
  1

  9
$DIMASO
 70
     1
  9
$DIMSHO
 70
     1
  9
$DIMPOST
  1
\X
  9
$DIMAPOST
  1

  9
$DIMALT
 70
     1
  9
$DIMALTD
 70
     2
  9
$DIMALTF
 40
25.3999999999999986
  9
$DIMLFAC
 40
1.0
  9
$DIMTOFL
 70
     0
  9
$DIMTVP
 40
0.0
  9
$DIMTIX
 70
     0
  9
$DIMSOXD
 70
     0
  9
$DIMSAH
 70
     0
  9
$DIMBLK1
  1

  9
$DIMBLK2
  1

  9
$DIMSTYLE
  2
STANDARD
  9
$DIMCLRD
 70
     0
  9
$DIMCLRE
 70
     0
  9
$DIMCLRT
 70
     0
  9
$DIMTFAC
 40
1.0
  9
$DIMGAP
 40
0.09
  9
$LUNITS
 70
     2
  9
$LUPREC
 70
     4
  9
$SKETCHINC
 40
0.1
  9
$FILLETRAD
 40
0.0
  9
$AUNITS
 70
     0
  9
$AUPREC
 70
     0
  9
$MENU
  1
.
  9
$ELEVATION
 40
0.0
  9
$PELEVATION
 40
0.0
  9
$THICKNESS
 40
0.0
  9
$LIMCHECK
 70
     0
  9
$BLIPMODE
 70
     0
  9
$CHAMFERA
 40
0.0
  9
$CHAMFERB
 40
0.0
  9
$SKPOLY
 70
     0
  9
$TDCREATE
 40
2458060.468368056230247
  9
$TDUPDATE
 40
2459202.5485995369963348
  9
$TDINDWG
 40
0.4786760417
  9
$TDUSRTIMER
 40
0.4786760417
  9
$USRTIMER
 70
     1
  9
$ANGBASE
 50
0.0
  9
$ANGDIR
 70
     0
  9
$PDMODE
 70
     0
  9
$PDSIZE
 40
0.3125
  9
$PLINEWID
 40
0.0
  9
$COORDS
 70
     1
  9
$SPLFRAME
 70
     0
  9
$SPLINETYPE
 70
     6
  9
$SPLINESEGS
 70
     8
  9
$ATTDIA
 70
     1
  9
$ATTREQ
 70
     1
  9
$HANDLING
 70
     1
  9
$HANDSEED
  5
1EE51
  9
$SURFTAB1
 70
     6
  9
$SURFTAB2
 70
     6
  9
$SURFTYPE
 70
     6
  9
$SURFU
 70
     6
  9
$SURFV
 70
     6
  9
$UCSNAME
  2

  9
$UCSORG
 10
0.0
 20
0.0
 30
0.0
  9
$UCSXDIR
 10
1.0
 20
0.0
 30
0.0
  9
$UCSYDIR
 10
0.0
 20
1.0
 30
0.0
  9
$PUCSNAME
  2

  9
$PUCSORG
 10
0.0
 20
0.0
 30
0.0
  9
$PUCSXDIR
 10
1.0
 20
0.0
 30
0.0
  9
$PUCSYDIR
 10
0.0
 20
1.0
 30
0.0
  9
$USERI1
 70
     0
  9
$USERI2
 70
     0
  9
$USERI3
 70
     0
  9
$USERI4
 70
     0
  9
$USERI5
 70
     0
  9
$USERR1
 40
0.0
  9
$USERR2
 40
0.0
  9
$USERR3
 40
0.0
  9
$USERR4
 40
0.0
  9
$USERR5
 40
0.0
  9
$WORLDVIEW
 70
     1
  9
$SHADEDGE
 70
     3
  9
$SHADEDIF
 70
    70
  9
$TILEMODE
 70
     1
  9
$MAXACTVP
 70
    64
  9
$PLIMCHECK
 70
     0
  9
$PEXTMIN
 10
1.0000000000000000E+20
 20
1.0000000000000000E+20
 30
1.0000000000000000E+20
  9
$PEXTMAX
 10
-1.0000000000000000E+20
 20
-1.0000000000000000E+20
 30
-1.0000000000000000E+20
  9
$PLIMMIN
 10
0.0
 20
0.0
  9
$PLIMMAX
 10
12.0
 20
9.0
  9
$UNITMODE
 70
     0
  9
$VISRETAIN
 70
     1
  9
$PLINEGEN
 70
     0
  9
$PSLTSCALE
 70
     1
  0
ENDSEC
  0
SECTION
  2
TABLES
  0
TABLE
  2
VPORT
 70
     1
  0
VPORT
  2
*ACTIVE
 70
     0
 10
0.0
 20
0.0
 11
1.0
 21
1.0
 12
533.5448595991881575
 22
127.8218578935885006
 13
0.0
 23
0.0
 14
1.0
 24
1.0
 15
0.0
 25
0.0
 16
0.0
 26
0.0
 36
60.4960186965801583
 17
3911.3653564453120453
 27
132.5796051025390057
 37
0.0
 40
9.9652069785635291
 41
1.9002217294900221
 42
50.0
 43
0.0
 44
0.0
 50
0.0
 51
0.0
 71
     0
 72
   100
 73
     1
 74
     1
 75
     0
 76
     0
 77
     0
 78
     0
  0
ENDTAB
  0
TABLE
  2
LTYPE
 70
     2
  0
LTYPE
  2
CONTINUOUS
 70
     0
  3
Solid line
 72
    65
 73
     0
 40
0.0
  0
LTYPE
  2
PHANTOM2
 70
     0
  3
___ _ _ ___ _ _ ___ _ _ ___ _ _
 72
    65
 73
     6
 40
1.25
 49
0.625
 49
-0.125
 49
0.125
 49
-0.125
 49
0.125
 49
-0.125
  0
ENDTAB
  0
TABLE
  2
LAYER
 70
     2
  0
LAYER
  2
0
 70
     0
 62
   255
  6
CONTINUOUS
  0
LAYER
  2
DEFPOINTS
 70
     0
 62
     7
  6
CONTINUOUS
  0
ENDTAB
  0
TABLE
  2
STYLE
 70
     1
  0
STYLE
  2
STANDARD
 70
     0
 40
0.0
 41
0.8
 50
0.0
 71
     0
 42
0.2
  3
txt
  4

  0
ENDTAB
  0
TABLE
  2
VIEW
 70
     0
  0
ENDTAB
  0
TABLE
  2
UCS
 70
     0
  0
ENDTAB
  0
TABLE
  2
APPID
 70
    11
  0
APPID
  2
ACAD
 70
     0
  0
APPID
  2
ACAD_MLEADERVER
 70
     0
  0
APPID
  2
ACAD_EXEMPT_FROM_CAD_STANDARDS
 70
     0
  0
APPID
  2
ACAD_NAV_VCDISPLAY
 70
     0
  0
APPID
  2
ACAECLAYERSTANDARD
 70
     0
  0
APPID
  2
ACCMTRANSPARENCY
 70
     0
  0
APPID
  2
ACAD_DSTYLE_DIMJAG
 70
     0
  0
APPID
  2
ACAD_DSTYLE_DIMTALN
 70
     0
  0
APPID
  2
ACDBATTR
 70
     0
  0
APPID
  2
ACADANNOTATIVE
 70
     0
  0
APPID
  2
DCO15
 70
     0
  0
ENDTAB
  0
TABLE
  2
DIMSTYLE
 70
     1
  0
DIMSTYLE
  2
STANDARD
 70
     0
  3

  4

  5

  6

  7

 40
1.0
 41
0.1875
 42
0.0625
 43
0.38
 44
0.125
 45
0.0
 46
0.0
 47
0.01
 48
0.01
140
0.15625
141
0.09
142
0.0
143
25.3999999999999986
144
1.0
145
0.0
146
1.0
147
0.09
 71
     1
 72
     0
 73
     1
 74
     1
 75
     0
 76
     0
 77
     0
 78
     4
170
     0
171
     2
172
     0
173
     0
174
     0
175
     0
176
     0
177
     0
178
     0
  0
ENDTAB
  0
ENDSEC
  0
SECTION
  2
BLOCKS
  0
BLOCK
  8
0
  2
$MODEL_SPACE
 70
     0
 10
0.0
 20
0.0
 30
0.0
  3
$MODEL_SPACE
  1

  0
ENDBLK
  5
21
  8
0
  0
BLOCK
 67
     1
  8
0
  2
$PAPER_SPACE
 70
     0
 10
0.0
 20
0.0
 30
0.0
  3
$PAPER_SPACE
  1

  0
ENDBLK
  5
1D
 67
     1
  8
0
  0
ENDSEC
  0
SECTION
  2
ENTITIES
  0
LINE
  5
1ECB2
  8
0
 10
4442.264863659990624
 20
257.4218474802876244
 30
0.0
 11
4442.1197022019896394
 21
263.8203106236875897
 31
0.0
  0
LINE
  5
1ECB3
  8
0
 10
4445.8112634564904511
 20
264.0171610173874797
 30
0.0
 11
4445.8112634564904511
 21
263.8399956630876204
 31
0.0
  0
LINE
  5
1ECB4
  8
0
 10
4446.1262120699511797
 20
263.1940583008220074
 30
0.0
 11
4446.1262120067913202
 21
261.9699169228875917
 31
0.0
  0
LINE
  5
1ECB5
  8
0
 10
4446.1459026849906877
 20
261.9502318835876054
 30
0.0
 11
4447.7600887948910895
 21
261.9502318835876054
 31
0.0
  0
LINE
  5
1ECB6
  8
0
 10
4446.7259703472209367
 20
262.8947345696876141
 30
0.0
 11
4446.9529957399399791
 21
262.8947345696876141
 31
0.0
  0
LINE
  5
1ECB7
  8
0
 10
4446.1390077069909239
 20
263.2100744032874786
 30
0.0
 11
4446.2176243545509351
 21
263.2100744032874786
 31
0.0
  0
LINE
  5
1ECB8
  8
0
 10
4446.1577080697898054
 20
263.296688576487611
 30
0.0
 11
4446.9529957399399791
 21
263.296688576487611
 31
0.0
  0
LINE
  5
1ECB9
  8
0
 10
4441.8309548885899858
 20
263.8203106236875897
 30
0.0
 11
4444.0750308949909595
 21
263.8203106236875897
 31
0.0
  0
LINE
  5
1ECBA
  8
0
 10
4445.8309484958908797
 20
263.8203106236875897
 30
0.0
 11
4448.075042983989988
 21
263.8203106236875897
 31
0.0
  0
LINE
  5
1ECBB
  8
0
 10
4448.0947280234895516
 20
264.0171610173874797
 30
0.0
 11
4445.8112634564904511
 21
264.0171610173874797
 31
0.0
  0
LINE
  5
1ECBC
  8
0
 10
4444.0947159344914326
 20
264.0171610173874797
 30
0.0
 11
4441.8112513674896036
 21
264.0171610173874797
 31
0.0
  0
ARC
  5
1ECBD
  8
0
 10
4447.0588595652907316
 20
263.416289874687493
 30
0.0
 40
0.8661417323
 50
187.9370563895868997
 51
204.9575332732655966
  0
ARC
  5
1ECBE
  8
0
 10
4446.1577080697898054
 20
263.3281846394875174
 30
0.0
 40
0.031496063
 50
189.7112703280089079
 51
270.0
  0
ARC
  5
1ECBF
  8
0
 10
4445.8309484958908797
 20
263.8399956630876204
 30
0.0
 40
0.0196850394
 50
180.0
 51
270.0
  0
ARC
  5
1ECC0
  8
0
 10
4444.0750308949909595
 20
263.8399956630876204
 30
0.0
 40
0.0196850394
 50
270.0
 51
0.0
  0
ARC
  5
1ECC1
  8
0
 10
4441.8309364216765971
 20
263.8399956692126125
 30
0.0
 40
0.0196850541870966
 50
180.0
 51
270.0537502368983951
  0
ARC
  5
1ECC2
  8
0
 10
4446.1458970472967849
 20
261.9699169233877001
 30
0.0
 40
0.0196850406074409
 50
180.000001455711697
 51
270.0164092114682148
  0
ARC
  5
1ECC3
  8
0
 10
4444.0612882356263071
 20
257.4303162478273066
 30
0.0
 40
1.7964445374051381
 50
180.2701037659979875
 51
188.2099566725794944
  0
ARC
  5
1ECC4
  8
0
 10
4442.7834683719602253
 20
257.2310609349506763
 30
0.0
 40
0.5034824477156832
 50
186.5323926911819115
 51
208.6813324323059078
  0
ARC
  5
1ECC5
  8
0
 10
4442.640098633100024
 20
257.1544245808448181
 30
0.0
 40
0.3409267707435676
 50
208.9460715189235032
 51
237.918913986466606
  0
ARC
  5
1ECC6
  8
0
 10
4442.738628515394339
 20
257.3630266556472748
 30
0.0
 40
0.5706596119903939
 50
240.661799583012197
 51
263.0459281146901844
  0
ARC
  5
1ECC7
  8
0
 10
4442.9329432435515628
 20
258.682230729818798
 30
0.0
 40
1.903974249700878
 50
262.047871539150492
 51
270.6030811786436061
  0
ARC
  5
1ECC8
  8
0
 10
4446.944560991398248
 20
264.6504801899217796
 30
0.0
 40
1.799186793279959
 50
257.7430276497468071
 51
269.1000995519232788
  0
ARC
  5
1ECC9
  8
0
 10
4446.7969239911681143
 20
263.9847489684552784
 30
0.0
 40
1.117291763339469
 50
245.6698956060506873
 51
257.8937521497921921
  0
ARC
  5
1ECCA
  8
0
 10
4446.5171360385184016
 20
263.3940024608793919
 30
0.0
 40
0.4638844892907105
 50
221.3275979734357009
 51
247.0973103030233062
  0
ARC
  5
1ECCB
  8
0
 10
4446.304542533311178
 20
263.2037062817760216
 30
0.0
 40
0.17859125873942
 50
183.0967799222025008
 51
220.5212849727975026
  0
ARC
  5
1ECCC
  8
0
 10
4446.9410233533262726
 20
264.4784555958125907
 30
0.0
 40
1.5982947808614201
 50
254.8138201848186952
 51
268.8454263310497936
  0
ARC
  5
1ECCD
  8
0
 10
4446.7069963153726349
 20
263.6626874111556162
 30
0.0
 40
0.7498071717625445
 50
234.6890401359071916
 51
255.7429825894406861
  0
ARC
  5
1ECCE
  8
0
 10
4446.4507133598926885
 20
263.2979123095469163
 30
0.0
 40
0.304010574734552
 50
205.5685176021250982
 51
234.3665355799442125
  0
ARC
  5
1ECCF
  8
0
 10
4446.3730330324533497
 20
263.2408935364138074
 30
0.0
 40
0.2100934430540368
 50
191.4643156000597912
 51
200.6785590836539939
  0
ARC
  5
1ECD0
  8
0
 10
4446.1822899939479612
 20
263.2016156777648916
 30
0.0
 40
0.0153602591367289
 50
177.8555733351174979
 51
189.2906674148156867
  0
ARC
  5
1ECD1
  8
0
 10
4446.1692414908584396
 20
263.2020920774190813
 30
0.0
 40
0.0023031002416007
 50
156.3518231318520009
 51
177.5523060012613996
  0
ARC
  5
1ECD2
  8
0
 10
4446.1677204505367627
 20
263.2027132672744187
 30
0.0
 40
0.0006618936276098
 50
135.6232559827242881
 51
152.7923937521549931
  0
ARC
  5
1ECD3
  8
0
 10
4446.1675366028648568
 20
263.2028924263722729
 30
0.0
 40
0.0004051885401171
 50
108.5687649968808017
 51
135.5493004529942027
  0
ARC
  5
1ECD4
  8
0
 10
4446.1675332357599473
 20
263.2028860340922733
 30
0.0
 40
0.0004102091304304
 50
90.0
 51
107.8386090769972014
  0
ARC
  5
1ECD5
  8
0
 10
4446.1602746361995742
 20
263.2022832800789161
 30
0.0
 40
0.0073289400253265
 50
7.944519389517982
 51
20.2039542176126012
  0
ARC
  5
1ECD6
  8
0
 10
4446.1596831273009229
 20
263.2021748429571062
 30
0.0
 40
0.0079221664524754
 50
19.4624716241889288
 51
56.0334059150057868
  0
ARC
  5
1ECD7
  8
0
 10
4446.1596264949030228
 20
263.2018560371802778
 30
0.0
 40
0.0082192597956429
 50
56.9476871803441327
 51
89.1550740664394112
  0
ARC
  5
1ECD8
  8
0
 10
4446.1396646554640029
 20
263.1967096043093193
 30
0.0
 40
0.013380935431633
 50
92.8141166162901641
 51
139.0984655348352987
  0
ARC
  5
1ECD9
  8
0
 10
4446.1414138432455729
 20
263.1961432066776752
 30
0.0
 40
0.0150909415210732
 50
141.8224711033467997
 51
173.1318267252993053
  0
ARC
  5
1ECDA
  8
0
 10
4446.1626516318801805
 20
263.1939563648932108
 30
0.0
 40
0.0364397045057251
 50
173.7113711526421866
 51
179.8397213645301917
  0
LINE
  5
1ECDB
  8
0
 10
4443.6411036419904121
 20
257.4218474802876244
 30
0.0
 11
4443.7862650999895777
 21
263.8203106236875897
 31
0.0
  0
ARC
  5
1ECDC
  8
0
 10
4441.8442344298609896
 20
257.4303492122310217
 30
0.0
 40
1.7968893246228581
 50
351.791027585411598
 51
359.728911976014615
  0
ARC
  5
1ECDD
  8
0
 10
4443.1224989300208108
 20
257.2310609349506763
 30
0.0
 40
0.5034824477156832
 50
331.3186675676940922
 51
353.4676073088180033
  0
ARC
  5
1ECDE
  8
0
 10
4443.2658686688810121
 20
257.1544245808448181
 30
0.0
 40
0.3409267707435676
 50
302.0810860135334224
 51
331.0539284810765253
  0
ARC
  5
1ECDF
  8
0
 10
4443.1673387865866971
 20
257.3630266556472748
 30
0.0
 40
0.5706596119903939
 50
276.9540718853098156
 51
299.3382004169877746
  0
ARC
  5
1ECE0
  8
0
 10
4442.9730240523886096
 20
258.6822307879662048
 30
0.0
 40
1.9039743081246021
 50
269.3969180405459269
 51
277.9521283987622269
  0
LINE
  5
1ECE1
  8
0
 10
4447.779779409929688
 20
263.1940583008220074
 30
0.0
 11
4447.7797794730895475
 21
261.9699169228875917
 31
0.0
  0
LINE
  5
1ECE2
  8
0
 10
4447.180021132659931
 20
262.8947345696876141
 30
0.0
 11
4446.9529957399399791
 21
262.8947345696876141
 31
0.0
  0
LINE
  5
1ECE3
  8
0
 10
4447.7669837728908533
 20
263.2100744032874786
 30
0.0
 11
4447.6883671253290231
 21
263.2100744032874786
 31
0.0
  0
LINE
  5
1ECE4
  8
0
 10
4447.7482834100910623
 20
263.296688576487611
 30
0.0
 11
4446.9529957399399791
 21
263.296688576487611
 31
0.0
  0
ARC
  5
1ECE5
  8
0
 10
4446.8471319145910456
 20
263.416289874687493
 30
0.0
 40
0.8661417323
 50
335.0424667267342898
 51
352.062943610413015
  0
ARC
  5
1ECE6
  8
0
 10
4447.7480097258157912
 20
263.3292270107730246
 30
0.0
 40
0.0325395852590945
 50
270.4819096076747087
 51
347.7183283998642196
  0
ARC
  5
1ECE7
  8
0
 10
4448.075042983989988
 20
263.8399956630876204
 30
0.0
 40
0.0196850394
 50
270.0
 51
0.0
  0
ARC
  5
1ECE8
  8
0
 10
4447.7600944325840828
 20
261.9699169233877001
 30
0.0
 40
0.0196850406074409
 50
269.9835907885317852
 51
359.999998544288303
  0
ARC
  5
1ECE9
  8
0
 10
4446.9580168910561042
 20
264.6710605919877253
 30
0.0
 40
1.8200230592807261
 50
270.9970745934443244
 51
282.2244412320300171
  0
ARC
  5
1ECEA
  8
0
 10
4447.1090674887118439
 20
263.9847489684552784
 30
0.0
 40
1.117291763339469
 50
282.1062478502078079
 51
294.3301043939492843
  0
ARC
  5
1ECEB
  8
0
 10
4447.3888554413633756
 20
263.3940024608793919
 30
0.0
 40
0.4638844892907105
 50
292.9026896969767222
 51
318.6724020265643276
  0
ARC
  5
1ECEC
  8
0
 10
4447.6014489465724182
 20
263.2037062817760216
 30
0.0
 40
0.17859125873942
 50
319.4787150272024974
 51
356.9032200777975277
  0
ARC
  5
1ECED
  8
0
 10
4446.9649864982902727
 20
264.4783790810619735
 30
0.0
 40
1.5982161254360729
 50
271.165994773346597
 51
285.1862627479814023
  0
ARC
  5
1ECEE
  8
0
 10
4447.1989951645091423
 20
263.6626874111556162
 30
0.0
 40
0.7498071717625445
 50
284.2570174105591718
 51
305.3109598640928084
  0
ARC
  5
1ECEF
  8
0
 10
4447.4552781199881792
 20
263.2979123095469163
 30
0.0
 40
0.304010574734552
 50
305.6334644200558159
 51
334.4314823978749018
  0
ARC
  5
1ECF0
  8
0
 10
4447.5329584474266085
 20
263.2408935364138074
 30
0.0
 40
0.2100934430540368
 50
339.3214409163459777
 51
348.5356843999401804
  0
ARC
  5
1ECF1
  8
0
 10
4447.7237014859329065
 20
263.2016156777648916
 30
0.0
 40
0.0153602591367289
 50
350.7093325851843133
 51
2.1444266648825452
  0
ARC
  5
1ECF2
  8
0
 10
4447.7367499890224281
 20
263.2020920774190813
 30
0.0
 40
0.0023031002416007
 50
2.4476939987385871
 51
23.6481768681479885
  0
ARC
  5
1ECF3
  8
0
 10
4447.738271029344105
 20
263.2027132672744187
 30
0.0
 40
0.0006618936276098
 50
27.2076062478449714
 51
44.3767440172756977
  0
ARC
  5
1ECF4
  8
0
 10
4447.7384548770169204
 20
263.2028924263722729
 30
0.0
 40
0.0004051885401171
 50
44.4506995470057333
 51
71.4312350031191983
  0
ARC
  5
1ECF5
  8
0
 10
4447.7384582441209204
 20
263.2028860340922733
 30
0.0
 40
0.0004102091304304
 50
72.1613909230027843
 51
90.0
  0
ARC
  5
1ECF6
  8
0
 10
4447.7457168436812935
 20
263.2022832800789161
 30
0.0
 40
0.0073289400253265
 50
159.7960457823874094
 51
172.0554806104819932
  0
ARC
  5
1ECF7
  8
0
 10
4447.7463083525808543
 20
263.2021748429571062
 30
0.0
 40
0.0079221664524754
 50
123.966594084994199
 51
160.5375283758110072
  0
ARC
  5
1ECF8
  8
0
 10
4447.7463649849760259
 20
263.2018560371802778
 30
0.0
 40
0.0082192597956429
 50
90.844925933560603
 51
123.0523128196557963
  0
ARC
  5
1ECF9
  8
0
 10
4447.7663268244159553
 20
263.1967096043093193
 30
0.0
 40
0.013380935431633
 50
40.9015344651646799
 51
87.1858833837098359
  0
ARC
  5
1ECFA
  8
0
 10
4447.7645776366352948
 20
263.1961432066776752
 30
0.0
 40
0.0150909415210732
 50
6.8681732747006556
 51
38.17752889665325
  0
ARC
  5
1ECFB
  8
0
 10
4447.7433398480015967
 20
263.1939563648932108
 30
0.0
 40
0.0364397045057251
 50
0.1602786354697493
 51
6.2886288473577787
  0
ARC
  5
1ECFC
  8
0
 10
4446.952985157785406
 20
264.7237772043283144
 30
0.0
 40
1.843820959141329
 50
268.6274008055523836
 51
271.3836794467990217
  0
ARC
  5
1ECFD
  8
0
 10
4446.971341750285319
 20
269.5097892221588154
 30
0.0
 40
6.6585013847576802
 50
269.5263975151194131
 51
270.1578658969964977
  0
LINE
  5
1ECFE
  8
0
 10
4448.0947280234895516
 20
264.0171610173874797
 30
0.0
 11
4448.0947280234895516
 21
263.8399956630876204
 31
0.0
  0
LINE
  5
1ECFF
  8
0
 10
4447.7798045994177301
 20
263.322305260893188
 30
0.0
 11
4447.7798045994177301
 21
263.8203106236875897
 31
0.0
  0
LINE
  5
1ED00
  8
0
 10
4446.1266633356899547
 20
263.322871780637513
 30
0.0
 11
4446.1266633356899547
 21
263.8203106236875897
 31
0.0
  0
LINE
  5
1ED01
  8
0
 10
4444.0947159344914326
 20
264.0171610173874797
 30
0.0
 11
4444.0947159344914326
 21
263.8399956630876204
 31
0.0
  0
LINE
  5
1ED02
  8
0
 10
4441.8112513674896036
 20
264.0171610173874797
 30
0.0
 11
4441.8112513674896036
 21
263.8399956692126125
 31
0.0
  0
ATTDEF
  5
1ED04
  8
DEFPOINTS
 10
4442.9546345930230018
 20
264.0210075641406888
 30
0.0
 40
0.001
  1
K-25105T-4
  3

  2
MODELNUMBER
 70
     0
1001
ACDBATTR
1070
     0
1070
     1
  0
ATTDEF
  5
1ED05
  8
DEFPOINTS
 10
4442.9545087833648722
 20
264.0193407237613883
 30
0.0
 40
0.001
  1
ALEO S
  3

  2
TRADENAME
 70
     0
1001
ACDBATTR
1070
     0
1070
     1
  0
ATTDEF
  5
1ED06
  8
DEFPOINTS
 10
4442.9546345930230018
 20
264.0176742308073017
 30
0.0
 40
0.001
  1
BATHROOM SINK FAUCET
  3

  2
PRODUCT
 70
     0
1001
ACDBATTR
1070
     0
1070
     1
  0
ENDSEC
  0
EOF
