  0
SECTION
  2
HEADER
  9
$ACADVER
  1
AC1009
  9
$INSBASE
 10
4433.2783235076567507
 20
256.6859045351328064
 30
0.0
  9
$EXTMIN
 10
4426.5975803445180645
 20
256.6808164532101841
 30
0.0
  9
$EXTMAX
 10
4434.2232053974566952
 20
269.252833669190295
 30
0.0
  9
$LIMMIN
 10
0.0
 20
0.0
  9
$LIMMAX
 10
11.6929133858000007
 20
8.2677165353999982
  9
$ORTHOMODE
 70
     0
  9
$REGENMODE
 70
     1
  9
$FILLMODE
 70
     1
  9
$QTEXTMODE
 70
     0
  9
$MIRRTEXT
 70
     0
  9
$DRAGMODE
 70
     2
  9
$LTSCALE
 40
0.6431102362
  9
$OSMODE
 70
   563
  9
$ATTMODE
 70
     1
  9
$TEXTSIZE
 40
0.2
  9
$TRACEWID
 40
0.05
  9
$TEXTSTYLE
  7
STANDARD
  9
$CLAYER
  8
0
  9
$CELTYPE
  6
BYLAYER
  9
$CECOLOR
 62
   256
  9
$DIMSCALE
 40
1.0
  9
$DIMASZ
 40
0.1875
  9
$DIMEXO
 40
0.0625
  9
$DIMDLI
 40
0.4443307087
  9
$DIMRND
 40
0.0
  9
$DIMDLE
 40
0.0
  9
$DIMEXE
 40
0.125
  9
$DIMTP
 40
0.01
  9
$DIMTM
 40
0.01
  9
$DIMTXT
 40
2.0
  9
$DIMCEN
 40
0.1052362205
  9
$DIMTSZ
 40
0.0
  9
$DIMTOL
 70
     1
  9
$DIMLIM
 70
     0
  9
$DIMTIH
 70
     1
  9
$DIMTOH
 70
     1
  9
$DIMSE1
 70
     0
  9
$DIMSE2
 70
     0
  9
$DIMTAD
 70
     0
  9
$DIMZIN
 70
     0
  9
$DIMBLK
  1

  9
$DIMASO
 70
     1
  9
$DIMSHO
 70
     1
  9
$DIMPOST
  1
\X
  9
$DIMAPOST
  1

  9
$DIMALT
 70
     1
  9
$DIMALTD
 70
     2
  9
$DIMALTF
 40
25.3999999999999986
  9
$DIMLFAC
 40
1.0
  9
$DIMTOFL
 70
     0
  9
$DIMTVP
 40
0.0
  9
$DIMTIX
 70
     0
  9
$DIMSOXD
 70
     0
  9
$DIMSAH
 70
     0
  9
$DIMBLK1
  1

  9
$DIMBLK2
  1

  9
$DIMSTYLE
  2
STANDARD
  9
$DIMCLRD
 70
     0
  9
$DIMCLRE
 70
     0
  9
$DIMCLRT
 70
     0
  9
$DIMTFAC
 40
1.0
  9
$DIMGAP
 40
0.09
  9
$LUNITS
 70
     2
  9
$LUPREC
 70
     4
  9
$SKETCHINC
 40
0.1
  9
$FILLETRAD
 40
0.0
  9
$AUNITS
 70
     0
  9
$AUPREC
 70
     0
  9
$MENU
  1
.
  9
$ELEVATION
 40
0.0
  9
$PELEVATION
 40
0.0
  9
$THICKNESS
 40
0.0
  9
$LIMCHECK
 70
     0
  9
$BLIPMODE
 70
     0
  9
$CHAMFERA
 40
0.0
  9
$CHAMFERB
 40
0.0
  9
$SKPOLY
 70
     0
  9
$TDCREATE
 40
2458060.468368056230247
  9
$TDUPDATE
 40
2459201.6710300929844379
  9
$TDINDWG
 40
0.4851690972
  9
$TDUSRTIMER
 40
0.4851690972
  9
$USRTIMER
 70
     1
  9
$ANGBASE
 50
0.0
  9
$ANGDIR
 70
     0
  9
$PDMODE
 70
     0
  9
$PDSIZE
 40
0.3125
  9
$PLINEWID
 40
0.0
  9
$COORDS
 70
     1
  9
$SPLFRAME
 70
     0
  9
$SPLINETYPE
 70
     6
  9
$SPLINESEGS
 70
     8
  9
$ATTDIA
 70
     1
  9
$ATTREQ
 70
     1
  9
$HANDLING
 70
     1
  9
$HANDSEED
  5
1D65B
  9
$SURFTAB1
 70
     6
  9
$SURFTAB2
 70
     6
  9
$SURFTYPE
 70
     6
  9
$SURFU
 70
     6
  9
$SURFV
 70
     6
  9
$UCSNAME
  2

  9
$UCSORG
 10
0.0
 20
0.0
 30
0.0
  9
$UCSXDIR
 10
1.0
 20
0.0
 30
0.0
  9
$UCSYDIR
 10
0.0
 20
1.0
 30
0.0
  9
$PUCSNAME
  2

  9
$PUCSORG
 10
0.0
 20
0.0
 30
0.0
  9
$PUCSXDIR
 10
1.0
 20
0.0
 30
0.0
  9
$PUCSYDIR
 10
0.0
 20
1.0
 30
0.0
  9
$USERI1
 70
     0
  9
$USERI2
 70
     0
  9
$USERI3
 70
     0
  9
$USERI4
 70
     0
  9
$USERI5
 70
     0
  9
$USERR1
 40
0.0
  9
$USERR2
 40
0.0
  9
$USERR3
 40
0.0
  9
$USERR4
 40
0.0
  9
$USERR5
 40
0.0
  9
$WORLDVIEW
 70
     1
  9
$SHADEDGE
 70
     3
  9
$SHADEDIF
 70
    70
  9
$TILEMODE
 70
     1
  9
$MAXACTVP
 70
    64
  9
$PLIMCHECK
 70
     0
  9
$PEXTMIN
 10
1.0000000000000000E+20
 20
1.0000000000000000E+20
 30
1.0000000000000000E+20
  9
$PEXTMAX
 10
-1.0000000000000000E+20
 20
-1.0000000000000000E+20
 30
-1.0000000000000000E+20
  9
$PLIMMIN
 10
0.0
 20
0.0
  9
$PLIMMAX
 10
12.0
 20
9.0
  9
$UNITMODE
 70
     0
  9
$VISRETAIN
 70
     1
  9
$PLINEGEN
 70
     0
  9
$PSLTSCALE
 70
     1
  0
ENDSEC
  0
SECTION
  2
TABLES
  0
TABLE
  2
VPORT
 70
     1
  0
VPORT
  2
*ACTIVE
 70
     0
 10
0.0
 20
0.0
 11
1.0
 21
1.0
 12
520.7381134244474197
 22
129.1207517471102051
 13
0.0
 23
0.0
 14
1.0
 24
1.0
 15
0.0
 25
0.0
 16
0.0
 26
0.0
 36
60.4960186965801583
 17
3911.3653564453120453
 27
132.5796051025390057
 37
0.0
 40
23.3826362745909613
 41
1.9002217294900221
 42
50.0
 43
0.0
 44
0.0
 50
0.0
 51
0.0
 71
     0
 72
   100
 73
     1
 74
     1
 75
     0
 76
     0
 77
     0
 78
     0
  0
ENDTAB
  0
TABLE
  2
LTYPE
 70
     3
  0
LTYPE
  2
CONTINUOUS
 70
     0
  3
Solid line
 72
    65
 73
     0
 40
0.0
  0
LTYPE
  2
PHANTOM2
 70
     0
  3
___ _ _ ___ _ _ ___ _ _ ___ _ _
 72
    65
 73
     6
 40
1.25
 49
0.625
 49
-0.125
 49
0.125
 49
-0.125
 49
0.125
 49
-0.125
  0
ENDTAB
  0
TABLE
  2
LAYER
 70
     2
  0
LAYER
  2
0
 70
     0
 62
   255
  6
CONTINUOUS
  0
LAYER
  2
DEFPOINTS
 70
     0
 62
     7
  6
CONTINUOUS
  0
ENDTAB
  0
TABLE
  2
STYLE
 70
     1
  0
STYLE
  2
STANDARD
 70
     0
 40
0.0
 41
0.8
 50
0.0
 71
     0
 42
0.2
  3
txt
  4

  0
ENDTAB
  0
TABLE
  2
VIEW
 70
     0
  0
ENDTAB
  0
TABLE
  2
UCS
 70
     0
  0
ENDTAB
  0
TABLE
  2
APPID
 70
    11
  0
APPID
  2
ACAD
 70
     0
  0
APPID
  2
ACAD_MLEADERVER
 70
     0
  0
APPID
  2
ACAD_EXEMPT_FROM_CAD_STANDARDS
 70
     0
  0
APPID
  2
ACAD_NAV_VCDISPLAY
 70
     0
  0
APPID
  2
ACAECLAYERSTANDARD
 70
     0
  0
APPID
  2
ACCMTRANSPARENCY
 70
     0
  0
APPID
  2
ACAD_DSTYLE_DIMJAG
 70
     0
  0
APPID
  2
ACAD_DSTYLE_DIMTALN
 70
     0
  0
APPID
  2
ACDBATTR
 70
     0
  0
APPID
  2
ACADANNOTATIVE
 70
     0
  0
APPID
  2
DCO15
 70
     0
  0
ENDTAB
  0
TABLE
  2
DIMSTYLE
 70
     2
  0
DIMSTYLE
  2
STANDARD
 70
     0
  3

  4

  5

  6

  7

 40
1.0
 41
0.1875
 42
0.0625
 43
0.38
 44
0.125
 45
0.0
 46
0.0
 47
0.01
 48
0.01
140
0.15625
141
0.09
142
0.0
143
25.3999999999999986
144
1.0
145
0.0
146
1.0
147
0.09
 71
     1
 72
     0
 73
     1
 74
     1
 75
     0
 76
     0
 77
     0
 78
     4
170
     0
171
     2
172
     0
173
     0
174
     0
175
     0
176
     0
177
     0
178
     0
  0
ENDTAB
  0
ENDSEC
  0
SECTION
  2
BLOCKS
  0
BLOCK
  8
0
  2
$MODEL_SPACE
 70
     0
 10
0.0
 20
0.0
 30
0.0
  3
$MODEL_SPACE
  1

  0
ENDBLK
  5
21
  8
0
  0
BLOCK
 67
     1
  8
0
  2
$PAPER_SPACE
 70
     0
 10
0.0
 20
0.0
 30
0.0
  3
$PAPER_SPACE
  1

  0
ENDBLK
  5
1D
 67
     1
  8
0
  0
ENDSEC
  0
SECTION
  2
ENTITIES
  0
LINE
  5
1D277
  8
0
 10
4427.0358231673044429
 20
267.366264887527791
 30
0.0
 11
4427.0299130781058921
 21
267.3480755034327103
 31
0.0
  0
LINE
  5
1D278
  8
0
 10
4432.3334416178568063
 20
256.6859045351328064
 30
0.0
 11
4434.2232053974566952
 21
256.6859045351328064
 31
0.0
  0
LINE
  5
1D279
  8
0
 10
4434.2035203580571761
 20
256.8827549288326964
 30
0.0
 11
4432.3531266572572349
 21
256.8827549288326964
 31
0.0
  0
LINE
  5
1D27A
  8
0
 10
4427.3868930227490637
 20
267.1344830158543004
 30
0.0
 11
4427.4044553848052601
 21
267.1885344086326768
 31
0.0
  0
LINE
  5
1D27B
  8
0
 10
4427.4218036792053681
 20
267.1400035679326948
 30
0.0
 11
4427.4247138321052262
 21
267.1489600973326901
 31
0.0
  0
LINE
  5
1D27C
  8
0
 10
4427.4190544995053642
 20
267.131542462732682
 30
0.0
 11
4427.4207678892053082
 21
267.136815734032723
 31
0.0
  0
LINE
  5
1D27D
  8
0
 10
4427.4179778603047453
 20
267.1282289079326802
 30
0.0
 11
4427.4185437650057793
 21
267.1299705834326801
 31
0.0
  0
LINE
  5
1D27E
  8
0
 10
4427.4263054197062957
 20
267.1538585004327047
 30
0.0
 11
4427.4305027676045938
 21
267.1667766089327074
 31
0.0
  0
LINE
  5
1D27F
  8
0
 10
4427.4327022861052683
 20
267.1735460308327106
 30
0.0
 11
4427.4344099207055478
 21
267.1788015898326876
 31
0.0
  0
LINE
  5
1D280
  8
0
 10
4427.4226083070052482
 20
267.1397636552326844
 30
0.0
 11
4427.4255926509049459
 21
267.1489485212326827
 31
0.0
  0
LINE
  5
1D281
  8
0
 10
4427.4198733781058763
 20
267.131346409332707
 30
0.0
 11
4427.4216304306055463
 21
267.1367540610327183
 31
0.0
  0
LINE
  5
1D282
  8
0
 10
4427.4188021982126884
 20
267.1280496568710987
 30
0.0
 11
4427.4193912024056772
 21
267.1298624253327034
 31
0.0
  0
LINE
  5
1D283
  8
0
 10
4427.4270952627048246
 20
267.1535730847327272
 30
0.0
 11
4427.4313996914052041
 21
267.1668207542326741
 31
0.0
  0
LINE
  5
1D284
  8
0
 10
4427.43347627820458
 20
267.1732118311326758
 30
0.0
 11
4427.4352082220048032
 21
267.1785422060327164
 31
0.0
  0
LINE
  5
1D285
  8
0
 10
4427.4445182009058044
 20
267.1722746241326831
 30
0.0
 11
4427.442003113881583
 21
267.1645339821719745
 31
0.0
  0
LINE
  5
1D286
  8
0
 10
4427.4380556515961871
 20
267.1523849423429056
 30
0.0
 11
4427.4362364193184476
 21
267.1467859211225004
 31
0.0
  0
LINE
  5
1D287
  8
0
 10
4427.4307054427226831
 20
267.129763325580484
 30
0.0
 11
4427.4301217689608166
 21
267.1279669623081077
 31
0.0
  0
LINE
  5
1D288
  8
0
 10
4427.4335001291501612
 20
267.1383644857866102
 30
0.0
 11
4427.4323162855516784
 21
267.1347209898518145
 31
0.0
  0
LINE
  5
1D289
  8
0
 10
4427.4359239868053919
 20
267.1255774446327109
 30
0.0
 11
4427.4362153686051897
 21
267.1264742254326734
 31
0.0
  0
LINE
  5
1D28A
  8
0
 10
4427.4372850250811098
 20
267.129766289665497
 30
0.0
 11
4427.438167255719236
 21
267.1324815164376218
 31
0.0
  0
LINE
  5
1D28B
  8
0
 10
4427.4403368511111694
 20
267.1391588443268006
 30
0.0
 11
4427.4417899142817987
 21
267.1436309130262998
 31
0.0
  0
LINE
  5
1D28C
  8
0
 10
4427.4451702849255526
 20
267.1540346242538817
 30
0.0
 11
4427.4473324318023515
 21
267.1606890279653044
 31
0.0
  0
LINE
  5
1D28D
  8
0
 10
4427.4489620963049674
 20
267.1307838688326797
 30
0.0
 11
4427.4513438145058899
 21
267.1381140435327097
 31
0.0
  0
LINE
  5
1D28E
  8
0
 10
4427.447054605606354
 20
267.1249132159326791
 30
0.0
 11
4427.4482286902048145
 21
267.1285266769327222
 31
0.0
  0
LINE
  5
1D28F
  8
0
 10
4427.4525898478050294
 20
267.1419489397326856
 30
0.0
 11
4427.4562513228047465
 21
267.1532178010327243
 31
0.0
  0
LINE
  5
1D290
  8
0
 10
4427.458049345606014
 20
267.1587515461326916
 30
0.0
 11
4427.461684541404793
 21
267.1699395284326783
 31
0.0
  0
LINE
  5
1D291
  8
0
 10
4427.4636866235287016
 20
267.1411805527989145
 30
0.0
 11
4427.462176535659637
 21
267.1365329801972166
 31
0.0
  0
LINE
  5
1D292
  8
0
 10
4427.4692269347287947
 20
267.1582318775695057
 30
0.0
 11
4427.4670474893000574
 21
267.1515242342134115
 31
0.0
  0
LINE
  5
1D293
  8
0
 10
4427.4580246784598785
 20
267.123754877681904
 30
0.0
 11
4427.4576930652074225
 21
267.1227342769889219
 31
0.0
  0
LINE
  5
1D294
  8
0
 10
4427.4599907538977277
 20
267.1298058355841931
 30
0.0
 11
4427.4591020743710033
 21
267.1270707614486923
 31
0.0
  0
LINE
  5
1D295
  8
0
 10
4427.464578854280262
 20
267.1236796486601861
 30
0.0
 11
4427.465169223319208
 21
267.1254966177680217
 31
0.0
  0
LINE
  5
1D296
  8
0
 10
4427.4667987937991711
 20
267.1305119200334843
 30
0.0
 11
4427.4679966110015812
 21
267.1341984221751886
 31
0.0
  0
LINE
  5
1D297
  8
0
 10
4427.4707659505438642
 20
267.1427215728523947
 30
0.0
 11
4427.4726078916391998
 21
267.1483904848706743
 31
0.0
  0
LINE
  5
1D298
  8
0
 10
4427.4766060761867266
 20
267.1606956314789159
 30
0.0
 11
4427.4778979095053728
 21
267.164671485732697
 31
0.0
  0
LINE
  5
1D299
  8
0
 10
4427.4761537719050466
 20
267.1243828311327206
 30
0.0
 11
4427.4779443367060594
 21
267.1298936229327978
 31
0.0
  0
LINE
  5
1D29A
  8
0
 10
4427.4750713335060937
 20
267.1210514283326916
 30
0.0
 11
4427.4756625173058637
 21
267.1228709050326984
 31
0.0
  0
LINE
  5
1D29B
  8
0
 10
4427.4789411610054231
 20
267.1329615328327236
 30
0.0
 11
4427.4819846888058237
 21
267.1423285481326957
 31
0.0
  0
LINE
  5
1D29C
  8
0
 10
4427.4835178992052533
 20
267.1470472843327002
 30
0.0
 11
4427.4879131074048928
 21
267.160574344432689
 31
0.0
  0
LINE
  5
1D29D
  8
0
 10
4427.4901775553807965
 20
267.1326228478587268
 30
0.0
 11
4427.4889683459314256
 21
267.128901283750281
 31
0.0
  0
LINE
  5
1D29E
  8
0
 10
4427.4948341094986972
 20
267.1469542477146888
 30
0.0
 11
4427.4929739099679864
 21
267.141229142104919
 31
0.0
  0
LINE
  5
1D29F
  8
0
 10
4427.4873234923134078
 20
267.1238389447718191
 30
0.0
 11
4427.486727670115215
 21
267.1220051927144254
 31
0.0
  0
LINE
  5
1D2A0
  8
0
 10
4427.492715843305632
 20
267.1201879865326987
 30
0.0
 11
4427.4930136323209808
 21
267.1211044870473188
 31
0.0
  0
LINE
  5
1D2A1
  8
0
 10
4427.4941068522102796
 20
267.1244690718153265
 30
0.0
 11
4427.4950087285242262
 21
267.1272447619251125
 31
0.0
  0
LINE
  5
1D2A2
  8
0
 10
4427.497227562333137
 20
267.1340736299119953
 30
0.0
 11
4427.4987609845265979
 21
267.1387930184387756
 31
0.0
  0
LINE
  5
1D2A3
  8
0
 10
4427.5021753215778517
 20
267.1493012672718237
 30
0.0
 11
4427.5043742289090005
 21
267.15606880808798
 31
0.0
  0
LINE
  5
1D2A4
  8
0
 10
4427.5061473424048017
 20
267.1266051393326961
 30
0.0
 11
4427.5085882485063848
 21
267.1341174758326815
 31
0.0
  0
LINE
  5
1D2A5
  8
0
 10
4427.5041936271063605
 20
267.1205922219327249
 30
0.0
 11
4427.5053960418053975
 21
267.1242928739328022
 31
0.0
  0
LINE
  5
1D2A6
  8
0
 10
4427.5098659198047244
 20
267.1380497437327222
 30
0.0
 11
4427.5136231590058742
 21
267.1496133371326778
 31
0.0
  0
LINE
  5
1D2A7
  8
0
 10
4427.5175288091131733
 20
267.126712941227197
 30
0.0
 11
4427.5166165236587403
 21
267.1239052154456886
 31
0.0
  0
LINE
  5
1D2A8
  8
0
 10
4427.5213256332517631
 20
267.1383983642326143
 30
0.0
 11
4427.5197737705575491
 21
267.1336222221023036
 31
0.0
  0
LINE
  5
1D2A9
  8
0
 10
4427.5155109151055512
 20
267.1205025020327071
 30
0.0
 11
4427.5152097880054498
 21
267.1195757283327907
 31
0.0
  0
LINE
  5
1D2AA
  8
0
 10
4427.5222732423972047
 20
267.1210678973387189
 30
0.0
 11
4427.5228798537345938
 21
267.1229348550850773
 31
0.0
  0
LINE
  5
1D2AB
  8
0
 10
4427.5245548968678122
 20
267.1280901077287808
 30
0.0
 11
4427.5257866766096413
 21
267.1318811359473102
 31
0.0
  0
LINE
  5
1D2AC
  8
0
 10
4427.5286364982830491
 20
267.1406519853637178
 30
0.0
 11
4427.5305334691365715
 21
267.1464902611933212
 31
0.0
  0
LINE
  5
1D2AD
  8
0
 10
4427.5342193291053263
 20
267.1229134207326865
 30
0.0
 11
4427.5360639639056899
 21
267.1285906228326894
 31
0.0
  0
LINE
  5
1D2AE
  8
0
 10
4427.5331047575064076
 20
267.1194831223327242
 30
0.0
 11
4427.533713440205247
 21
267.1213564549327089
 31
0.0
  0
LINE
  5
1D2AF
  8
0
 10
4427.5370913956048753
 20
267.131752732732707
 30
0.0
 11
4427.5402306964060699
 21
267.1414145071327084
 31
0.0
  0
LINE
  5
1D2B0
  8
0
 10
4427.5457536231360791
 20
267.1234915769613281
 30
0.0
 11
4427.5451387283574149
 21
267.1215991252449271
 31
0.0
  0
LINE
  5
1D2B1
  8
0
 10
4427.5487013880610903
 20
267.1325638642429112
 30
0.0
 11
4427.5474521127125627
 21
267.1287189901293004
 31
0.0
  0
LINE
  5
1D2B2
  8
0
 10
4427.5513234115051091
 20
267.1203867146326729
 30
0.0
 11
4427.5516310716047883
 21
267.1213335949327075
 31
0.0
  0
LINE
  5
1D2B3
  8
0
 10
4427.5527610474528046
 20
267.1248113031505795
 30
0.0
 11
4427.5536935382697266
 21
267.1276812149787929
 31
0.0
  0
LINE
  5
1D2B4
  8
0
 10
4427.5559891836219322
 20
267.1347464845824788
 30
0.0
 11
4427.557326867705342
 21
267.1388634528327088
 31
0.0
  0
LINE
  5
1D2B5
  8
0
 10
4427.5631816946051913
 20
267.121962006332808
 30
0.0
 11
4427.5644274545047665
 21
267.1257960611328031
 31
0.0
  0
LINE
  5
1D2B6
  8
0
 10
4427.5652061616046922
 20
267.1281926752326967
 30
0.0
 11
4427.5675898188055726
 21
267.1355288178327214
 31
0.0
  0
LINE
  5
1D2B7
  8
0
 10
4427.5769761406054386
 20
267.1294961948327114
 30
0.0
 11
4427.576028084005884
 21
267.1265783765326773
 31
0.0
  0
LINE
  5
1D2B8
  8
0
 10
4427.5748797182059207
 20
267.1230440703326963
 30
0.0
 11
4427.574567057805325
 21
267.122081800532726
 31
0.0
  0
LINE
  5
1D2B9
  8
0
 10
4427.5818737642648557
 20
267.1243226224991076
 30
0.0
 11
4427.5825044110688395
 21
267.1262635539280836
 31
0.0
  0
LINE
  5
1D2BA
  8
0
 10
4427.593074623206121
 20
267.1238745707327098
 30
0.0
 11
4427.5936927152597491
 21
267.125826394434398
 31
0.0
  0
LINE
  5
1D2BB
  8
0
 10
4427.7098002260072462
 20
267.1472764663377006
 30
0.0
 11
4427.7038901369060113
 21
267.1290870821326848
 31
0.0
  0
LINE
  5
1D2BC
  8
0
 10
4426.7736463461060339
 20
267.5646198855326929
 30
0.0
 11
4426.8673289026046405
 21
267.4210119928328027
 31
0.0
  0
LINE
  5
1D2BD
  8
0
 10
4427.0375123195326523
 20
267.3077614378772751
 30
0.0
 11
4427.0322772510053255
 21
267.3180358382326745
 31
0.0
  0
LINE
  5
1D2BE
  8
0
 10
4427.9851304728053947
 20
267.1646898039326743
 30
0.0
 11
4427.8782944907052297
 21
267.0925293610326889
 31
0.0
  0
LINE
  5
1D2BF
  8
0
 10
4427.6740462082407248
 20
267.1009390400998882
 30
0.0
 11
4427.684320608705093
 21
267.1061741085327981
 31
0.0
  0
LINE
  5
1D2C0
  8
0
 10
4433.3151894188567894
 20
268.008639800232686
 30
0.0
 11
4434.0978990721578157
 21
268.34088033643269
 31
0.0
  0
LINE
  5
1D2C1
  8
0
 10
4427.0375123195326523
 20
267.3077614378772751
 30
0.0
 11
4427.6740462082407248
 21
267.1009390400998882
 31
0.0
  0
LINE
  5
1D2C2
  8
0
 10
4426.8673289026046405
 20
267.4210119928328027
 30
0.0
 11
4427.8782944907052297
 21
267.0925293610326889
 31
0.0
  0
LINE
  5
1D2C3
  8
0
 10
4427.4356666979047077
 20
267.1268918089327258
 30
0.0
 11
4427.4361456796059429
 21
267.1268053295327149
 31
0.0
  0
LINE
  5
1D2C4
  8
0
 10
4427.4356666979047077
 20
267.1268918089327258
 30
0.0
 11
4427.4361450576052448
 21
267.1268024993327117
 31
0.0
  0
LINE
  5
1D2C5
  8
0
 10
4432.3334416178568063
 20
256.8630698894327224
 30
0.0
 11
4432.3334416178568063
 21
256.6859045351328064
 31
0.0
  0
LINE
  5
1D2C6
  8
0
 10
4432.4515518541566053
 20
268.5369323029328257
 30
0.0
 11
4432.4515518541566053
 21
268.0048021729327274
 31
0.0
  0
LINE
  5
1D2C7
  8
0
 10
4432.4515518541566053
 20
266.3305108344326868
 30
0.0
 11
4432.4515518541566053
 21
256.8827549288326964
 31
0.0
  0
LINE
  5
1D2C8
  8
0
 10
4428.4278904368056828
 20
267.3158257950327084
 30
0.0
 11
4431.6019061848573983
 21
267.3158257950327084
 31
0.0
  0
LINE
  5
1D2C9
  8
0
 10
4434.0775343859568238
 20
267.9063769761327194
 30
0.0
 11
4426.6251340954049738
 21
267.9063769761327194
 31
0.0
  0
LINE
  5
1D2CA
  8
0
 10
4433.2382738425567368
 20
267.9929911493326813
 30
0.0
 11
4432.4633746059580517
 21
267.9929911493326813
 31
0.0
  0
LINE
  5
1D2CB
  8
0
 10
4434.1050951612578501
 20
269.2331486296326943
 30
0.0
 11
4434.1050951612578501
 21
268.3517524410327155
 31
0.0
  0
LINE
  5
1D2CC
  8
0
 10
4434.1050951612578501
 20
256.8827549288326964
 30
0.0
 11
4434.1050951612578501
 21
267.8788179210326916
 31
0.0
  0
LINE
  5
1D2CD
  8
0
 10
4431.6019061848573983
 20
269.0284242202328073
 30
0.0
 11
4430.7374573321503703
 21
269.0283545196251112
 31
0.0
  0
LINE
  5
1D2CE
  8
0
 10
4431.6019061848573983
 20
269.0284242203326812
 30
0.0
 11
4431.7998456077566516
 21
269.0225094389326728
 31
0.0
  0
LINE
  5
1D2CF
  8
0
 10
4434.2232053974566952
 20
256.8630698894327224
 30
0.0
 11
4434.2232053974566952
 21
256.6859045351328064
 31
0.0
  0
LINE
  5
1D2D0
  8
0
 10
4434.0854076302575777
 20
269.2528336690327251
 30
0.0
 11
4429.8910794152570816
 21
269.2528336690327251
 31
0.0
  0
ARC
  5
1D2D1
  8
0
 10
4432.3531266572572349
 20
256.8630698894327224
 30
0.0
 40
0.0196850394
 50
90.0
 51
180.0
  0
ARC
  5
1D2D2
  8
0
 10
4427.0673562480060355
 20
267.3359094800327966
 30
0.0
 40
0.0393700787
 50
162.0000000000050022
 51
207.0000000000092086
  0
ARC
  5
1D2D3
  8
0
 10
4427.666446966904914
 20
267.1412531055327122
 30
0.0
 40
0.0393700787
 50
296.9999999999786269
 51
342.0000000000050022
  0
ARC
  5
1D2D4
  8
0
 10
4427.5356857879060044
 20
267.5574724007327063
 30
0.0
 40
0.4371620252000001
 50
259.9106445301579811
 51
262.173234636695895
  0
ARC
  5
1D2D5
  8
0
 10
4427.5335237749059161
 20
267.5565258244326969
 30
0.0
 40
0.4364155379
 50
258.7292996834211749
 51
260.9888182329485176
  0
ARC
  5
1D2D6
  8
0
 10
4427.5401619344047504
 20
267.5535260693326904
 30
0.0
 40
0.4324677775
 50
255.559606241864202
 51
257.8259325098969157
  0
ARC
  5
1D2D7
  8
0
 10
4427.538036095105781
 20
267.5531615394327218
 30
0.0
 40
0.432371908
 50
254.3817985040105043
 51
256.6452824378328046
  0
ARC
  5
1D2D8
  8
0
 10
4427.5264910332416548
 20
267.5705001139940009
 30
0.0
 40
0.4510654809623527
 50
268.5668707354657272
 51
270.8401265055326235
  0
ARC
  5
1D2D9
  8
0
 10
4427.5197370809128188
 20
267.446990829942024
 30
0.0
 40
0.3275427476431579
 50
267.236591988322175
 51
270.4071513867650083
  0
ARC
  5
1D2DA
  8
0
 10
4427.4719737639843515
 20
267.3738555036392768
 30
0.0
 40
0.2509522684389835
 50
260.9114628806026985
 51
264.2456547779460152
  0
ARC
  5
1D2DB
  8
0
 10
4427.5451487556047141
 20
267.5698429774326996
 30
0.0
 40
0.4482438523
 50
269.9987182891450743
 51
272.3056427823923968
  0
ARC
  5
1D2DC
  8
0
 10
4427.5432280269051262
 20
267.5689326397327932
 30
0.0
 40
0.4476779156
 50
270.3079413104073865
 51
271.0755216044134954
  0
ARC
  5
1D2DD
  8
0
 10
4427.5123477592433119
 20
267.715391454705923
 30
0.0
 40
0.5947446170182801
 50
260.9505445457334076
 51
262.6171668334122842
  0
ARC
  5
1D2DE
  8
0
 10
4427.5571622020042923
 20
268.0593504188071847
 30
0.0
 40
0.9418831701914179
 50
263.9378799797693205
 51
264.9999791644630136
  0
ARC
  5
1D2DF
  8
0
 10
4427.5432365919059521
 20
267.5671307988328067
 30
0.0
 40
0.4458760546000001
 50
268.7761668655995777
 51
270.3080851390045041
  0
ARC
  5
1D2E0
  8
0
 10
4427.5104072856047424
 20
267.5648516041322864
 30
0.0
 40
0.4452488292995548
 50
261.7883620668259255
 51
263.2006489912361076
  0
ARC
  5
1D2E1
  8
0
 10
4427.5312314791053723
 20
267.5634676433326717
 30
0.0
 40
0.4436999936000001
 50
264.2434631304670916
 51
266.5063890187806805
  0
ARC
  5
1D2E2
  8
0
 10
4427.5291095017046246
 20
267.5617670420327272
 30
0.0
 40
0.4421384389
 50
263.0569390223922142
 51
265.3172014460245123
  0
ARC
  5
1D2E3
  8
0
 10
4427.5169015872052114
 20
267.5606830924327255
 30
0.0
 40
0.4413320588000001
 50
258.6599484970508911
 51
260.8938524696105219
  0
ARC
  5
1D2E4
  8
0
 10
4427.5148288198079172
 20
267.5602951445472968
 30
0.0
 40
0.4408862263511855
 50
257.498353039012386
 51
259.7287908104595999
  0
ARC
  5
1D2E5
  8
0
 10
4427.5546741255047891
 20
267.5550784235326773
 30
0.0
 40
0.4312124812000001
 50
261.2354434230016977
 51
263.5384937415079776
  0
ARC
  5
1D2E6
  8
0
 10
4427.5524930967058026
 20
267.5538586003327168
 30
0.0
 40
0.4304693017
 50
260.0272256058167955
 51
262.3258638345787972
  0
ARC
  5
1D2E7
  8
0
 10
4427.5591612757052644
 20
267.5506532837326858
 30
0.0
 40
0.4253253644
 50
256.8191874637165029
 51
259.1283924133819028
  0
ARC
  5
1D2E8
  8
0
 10
4427.5570004180053729
 20
267.5500931197327077
 30
0.0
 40
0.4253117411
 50
255.6158724942220033
 51
257.9205868883008179
  0
ARC
  5
1D2E9
  8
0
 10
4427.5738703229053499
 20
267.5535904914327148
 30
0.0
 40
0.4234380524000001
 50
262.6600879025104973
 51
265.0171318196196921
  0
ARC
  5
1D2EA
  8
0
 10
4427.5716747807045977
 20
267.5520305230327267
 30
0.0
 40
0.4226478742000001
 50
261.4156657176201861
 51
263.7669441301353004
  0
ARC
  5
1D2EB
  8
0
 10
4427.5638636552057505
 20
267.5482196240326971
 30
0.0
 40
0.4212335803000001
 50
252.3630537883144029
 51
254.6828491148999092
  0
ARC
  5
1D2EC
  8
0
 10
4427.5784231872048622
 20
267.5487545879327058
 30
0.0
 40
0.4163875214
 50
258.1578708993544069
 51
260.5232279840947172
  0
ARC
  5
1D2ED
  8
0
 10
4427.5762191483054266
 20
267.5479065655327986
 30
0.0
 40
0.4163816297
 50
256.9196345917068811
 51
259.2789940152097188
  0
ARC
  5
1D2EE
  8
0
 10
4427.5910710783064133
 20
267.5510947080326787
 30
0.0
 40
0.4128227361
 50
262.9258903765888817
 51
264.8506871165250232
  0
ARC
  5
1D2EF
  8
0
 10
4427.5809990000061589
 20
267.5457804023326958
 30
0.0
 40
0.4119070027000001
 50
252.370899010589909
 51
254.7432655632296985
  0
ARC
  5
1D2F0
  8
0
 10
4427.5831037206053225
 20
267.5459523698327189
 30
0.0
 40
0.4111479089000001
 50
253.6040482684128108
 51
255.9827446343799124
  0
ARC
  5
1D2F1
  8
0
 10
4427.5862999679047789
 20
267.5455494584326743
 30
0.0
 40
0.4091815331000001
 50
247.7554078095839998
 51
250.1460817783789139
  0
ARC
  5
1D2F2
  8
0
 10
4427.588176671905785
 20
267.5450095661327055
 30
0.0
 40
0.4075884923000001
 50
248.9839019381562082
 51
251.3817286597999043
  0
ARC
  5
1D2F3
  8
0
 10
4427.5956712355045966
 20
267.5465304613326794
 30
0.0
 40
0.4053086359000001
 50
258.3206958835900195
 51
260.7518022953287868
  0
ARC
  5
1D2F4
  8
0
 10
4427.6004170243058979
 20
267.544031920032694
 30
0.0
 40
0.3996208749
 50
253.6486602877913867
 51
255.9870649683221018
  0
ARC
  5
1D2F5
  8
0
 10
4427.5640040601047076
 20
267.5672453755327069
 30
0.0
 40
0.4408310120000001
 50
271.5629827640224789
 51
273.7392190190385008
  0
ARC
  5
1D2F6
  8
0
 10
4427.5620821099046225
 20
267.5662181297327038
 30
0.0
 40
0.4404283133
 50
270.305109770703325
 51
272.6577114714842196
  0
ARC
  5
1D2F7
  8
0
 10
4427.5501001413058475
 20
267.5614800464326777
 30
0.0
 40
0.4388540593
 50
265.6242031325344897
 51
267.9261847918883745
  0
ARC
  5
1D2F8
  8
0
 10
4427.547995358206208
 20
267.5595110350326991
 30
0.0
 40
0.4372980099000001
 50
264.4096751187836958
 51
266.7074977016670232
  0
ARC
  5
1D2F9
  8
0
 10
4427.5691354590044284
 20
267.5604482990327142
 30
0.0
 40
0.4322734825
 50
267.1247697028121024
 51
269.4791832752102891
  0
ARC
  5
1D2FA
  8
0
 10
4427.5670598188053191
 20
267.5581330918327012
 30
0.0
 40
0.43065935
 50
265.8726810170750809
 51
268.2214377380245196
  0
ARC
  5
1D2FB
  8
0
 10
4428.4342555910880037
 20
266.6517808875044011
 30
0.0
 40
0.6644435066631901
 50
96.8730331612104436
 51
104.111259171796803
  0
ARC
  5
1D2FC
  8
0
 10
4428.4281045961051859
 20
266.6987222129326938
 30
0.0
 40
0.6171036192
 50
90.0198838990970103
 51
96.8275993716217016
  0
ARC
  5
1D2FD
  8
0
 10
4426.6251604765520824
 20
267.8787968567157805
 30
0.0
 40
0.0275801320340397
 50
90.0548049802358435
 51
201.6170577328074103
  0
ARC
  5
1D2FE
  8
0
 10
4427.4036957984053515
 20
267.6251365841328038
 30
0.0
 40
0.4546981673
 50
275.1509003098228732
 51
276.1201767183616766
  0
ARC
  5
1D2FF
  8
0
 10
4427.402172098905794
 20
267.6228909474327224
 30
0.0
 40
0.4507674114000001
 50
273.9821915781070061
 51
275.8132124687933242
  0
ARC
  5
1D300
  8
0
 10
4427.4261923213052796
 20
267.610745179732703
 30
0.0
 40
0.4585137357
 50
271.4826046953702985
 51
273.7588622240072027
  0
ARC
  5
1D301
  8
0
 10
4427.4245718842057613
 20
267.6065567863327033
 30
0.0
 40
0.4529907298
 50
270.3191669877011236
 51
272.6062531640275211
  0
ARC
  5
1D302
  8
0
 10
4427.4204332856052133
 20
267.6231676615327046
 30
0.0
 40
0.4674891479000001
 50
275.9910934420992135
 51
278.2993639221816125
  0
ARC
  5
1D303
  8
0
 10
4427.4194067958060259
 20
267.6171394765327136
 30
0.0
 40
0.4600138491
 50
274.8186967318749225
 51
277.1427886300127739
  0
ARC
  5
1D304
  8
0
 10
4427.4421667879059896
 20
267.6013318223327246
 30
0.0
 40
0.4595011132
 50
271.299776103686213
 51
273.568372417999683
  0
ARC
  5
1D305
  8
0
 10
4427.4488274186060153
 20
267.5946190672327134
 30
0.0
 40
0.4565119592000001
 50
268.0759450977474785
 51
270.3158287301088762
  0
ARC
  5
1D306
  8
0
 10
4427.4469021656050245
 20
267.5917416764327186
 30
0.0
 40
0.4526304489000001
 50
266.9233074351898267
 51
269.1689069878943883
  0
ARC
  5
1D307
  8
0
 10
4427.4667165811051746
 20
267.5901991824327979
 30
0.0
 40
0.4604424726
 50
269.1630328623269861
 51
271.3972793966921131
  0
ARC
  5
1D308
  8
0
 10
4427.4648385147056615
 20
267.5870168274327057
 30
0.0
 40
0.4565091162
 50
268.0069724671242284
 51
270.2460324666283213
  0
ARC
  5
1D309
  8
0
 10
4427.4713800873059881
 20
267.5813508567327972
 30
0.0
 40
0.4534156206000001
 50
264.853237398519525
 51
267.0732053819892258
  0
ARC
  5
1D30A
  8
0
 10
4427.4692848581053113
 20
267.5790999182327141
 30
0.0
 40
0.4504716407
 50
263.7026507709747989
 51
265.9264896903782756
  0
ARC
  5
1D30B
  8
0
 10
4427.4614192519056814
 20
267.6010029831326733
 30
0.0
 40
0.4692621774
 50
273.5135211158874995
 51
275.7689632939217859
  0
ARC
  5
1D30C
  8
0
 10
4427.4777648991048409
 20
267.5932635297327238
 30
0.0
 40
0.4675207123
 50
273.4804763192864243
 51
275.7438418993231721
  0
ARC
  5
1D30D
  8
0
 10
4427.4599036730060106
 20
267.5968974580327995
 30
0.0
 40
0.46432636
 50
272.3497988535926879
 51
274.6105739292938779
  0
ARC
  5
1D30E
  8
0
 10
4427.472644515905813
 20
267.6105168303326991
 30
0.0
 40
0.4839666162
 50
279.0416925771776846
 51
281.2143672630999731
  0
ARC
  5
1D30F
  8
0
 10
4427.4551820038059304
 20
267.6137401528328041
 30
0.0
 40
0.4799216558
 50
277.9218182793998722
 51
280.2075076209844156
  0
ARC
  5
1D310
  8
0
 10
4427.4717449575064165
 20
267.6053883752326783
 30
0.0
 40
0.4781222426
 50
277.855376973023624
 51
280.1483871001698844
  0
ARC
  5
1D311
  8
0
 10
4427.4376870283049357
 20
267.6184648599327147
 30
0.0
 40
0.4749610998
 50
276.9105420801820969
 51
279.1998516438069942
  0
ARC
  5
1D312
  8
0
 10
4427.4541786009058342
 20
267.6087348222326909
 30
0.0
 40
0.4739678477000001
 50
276.7473672007902792
 51
279.0383096561527054
  0
ARC
  5
1D313
  8
0
 10
4427.4367013286046131
 20
267.6129188136326889
 30
0.0
 40
0.4682179760000001
 50
275.7385276246016019
 51
278.0383890248132843
  0
ARC
  5
1D314
  8
0
 10
4427.4437639577054142
 20
267.6051325909327261
 30
0.0
 40
0.4643795929
 50
272.4588400025730266
 51
274.7210657087871937
  0
ARC
  5
1D315
  8
0
 10
4427.4847431305051941
 20
267.5865659705327175
 30
0.0
 40
0.4627342203
 50
270.3195022130287839
 51
272.5580945332811211
  0
ARC
  5
1D316
  8
0
 10
4427.4829271749058535
 20
267.5830622337326758
 30
0.0
 40
0.4587294119
 50
269.153964187907377
 51
271.3964915581423725
  0
ARC
  5
1D317
  8
0
 10
4427.4896003299054428
 20
267.5773762423327184
 30
0.0
 40
0.4547189948
 50
266.0181811772313836
 51
268.2435241498093887
  0
ARC
  5
1D318
  8
0
 10
4427.4875288872053716
 20
267.5748042744327222
 30
0.0
 40
0.4517080163000001
 50
264.8592458500809812
 51
267.0877063003251806
  0
ARC
  5
1D319
  8
0
 10
4427.4907799688053274
 20
267.6049856300326724
 30
0.0
 40
0.4832390537000001
 50
280.2749303105798049
 51
280.9761850065046929
  0
ARC
  5
1D31A
  8
0
 10
4427.489373413805879
 20
267.6029024085327137
 30
0.0
 40
0.4807285477
 50
279.0760590388014748
 51
281.0310002155471238
  0
ARC
  5
1D31B
  8
0
 10
4427.4969850362058423
 20
267.595487721132713
 30
0.0
 40
0.4745089411
 50
275.8991028209126171
 51
278.1711753862788896
  0
ARC
  5
1D31C
  8
0
 10
4427.479179951506012
 20
267.5976878107326797
 30
0.0
 40
0.4725335571000001
 50
274.6550065202519022
 51
276.9140855939014045
  0
ARC
  5
1D31D
  8
0
 10
4427.495730946605363
 20
267.5904552184326803
 30
0.0
 40
0.4691233188
 50
274.7060191482850087
 51
276.9825701621468284
  0
ARC
  5
1D31E
  8
0
 10
4427.5154851397046514
 20
267.5896414479327063
 30
0.0
 40
0.470362444
 50
277.2543374580035902
 51
279.571070188259398
  0
ARC
  5
1D31F
  8
0
 10
4427.5139192786045896
 20
267.5872216803326751
 30
0.0
 40
0.4678603957
 50
276.0440467323156213
 51
278.3514795351272255
  0
ARC
  5
1D320
  8
0
 10
4427.5028909724060213
 20
267.5837475764326996
 30
0.0
 40
0.4634172783
 50
272.3108162066877753
 51
273.8136298706892262
  0
ARC
  5
1D321
  8
0
 10
4427.5332116375620899
 20
267.4381402725277894
 30
0.0
 40
0.31835842735612
 50
272.2122053309917078
 51
275.3553548680570771
  0
ARC
  5
1D322
  8
0
 10
4427.5194376324725454
 20
267.57916446160948
 30
0.0
 40
0.4598844680905659
 50
271.7030014114287724
 51
273.9757539405380271
  0
ARC
  5
1D323
  8
0
 10
4427.5030034527053431
 20
267.5811758895326875
 30
0.0
 40
0.4608431475
 50
271.5552207275927117
 51
272.3097348795088237
  0
ARC
  5
1D324
  8
0
 10
4427.5011552215046322
 20
267.5799024973326823
 30
0.0
 40
0.4593203250000001
 50
270.3790145521057866
 51
272.6351983431547978
  0
ARC
  5
1D325
  8
0
 10
4427.5050135555911766
 20
267.3817881056374972
 30
0.0
 40
0.2619613109771421
 50
266.5351058930813224
 51
269.7664247163630193
  0
ARC
  5
1D326
  8
0
 10
4427.5060021524677722
 20
267.5724102013534775
 30
0.0
 40
0.4524173488936149
 50
266.0797504848777066
 51
268.3171314969264927
  0
ARC
  5
1D327
  8
0
 10
4427.5121602213839651
 20
267.6736132769598839
 30
0.0
 40
0.553491923602799
 50
256.9193926118354057
 51
260.2851302558211728
  0
ARC
  5
1D328
  8
0
 10
4427.5396383302049799
 20
267.5789906243326755
 30
0.0
 40
0.4582420384000001
 50
275.1439329224135122
 51
277.6398522602459025
  0
ARC
  5
1D329
  8
0
 10
4427.5397548586051926
 20
267.5776649935327214
 30
0.0
 40
0.4569112987
 50
274.3696159661748766
 51
275.1442833212882988
  0
ARC
  5
1D32A
  8
0
 10
4427.5492086067906712
 20
267.3936242168273907
 30
0.0
 40
0.2727977777150306
 50
272.8820383285876119
 51
276.1254135509416869
  0
ARC
  5
1D32B
  8
0
 10
4427.5565973094053334
 20
267.5745983479326924
 30
0.0
 40
0.4503024932
 50
274.7253158371789254
 51
275.1015205802880246
  0
ARC
  5
1D32C
  8
0
 10
4427.5221101007664402
 20
268.2356793061888993
 30
0.0
 40
0.9929213467971924
 50
201.6946316356792011
 51
204.2646587655981989
  0
ARC
  5
1D32D
  8
0
 10
4430.160351707956579
 20
269.4463859801326748
 30
0.0
 40
0.3631987772
 50
224.0672022857845036
 51
240.613469451801393
  0
ARC
  5
1D32E
  8
0
 10
4430.1592123590162373
 20
269.4449234819002186
 30
0.0
 40
0.3613630495576134
 50
218.3023237809958914
 51
224.0262283051135057
  0
ARC
  5
1D32F
  8
0
 10
4429.8910808347945931
 20
269.2331479428015086
 30
0.0
 40
0.0196857262823996
 50
90.0041315958253705
 51
218.3014947372612085
  0
ARC
  5
1D330
  8
0
 10
4432.4633628876808871
 20
268.0048021770431887
 30
0.0
 40
0.0118110335236235
 50
180.0000199401908958
 51
270.056845820332228
  0
ARC
  5
1D331
  8
0
 10
4434.2035203580571761
 20
256.8630698894327224
 30
0.0
 40
0.0196850394
 50
0.0
 51
90.0
  0
ARC
  5
1D332
  8
0
 10
4433.1724476027566197
 20
267.786775677832793
 30
0.0
 40
0.8661417323
 50
7.9370563962607648
 51
32.8690022282262717
  0
ARC
  5
1D333
  8
0
 10
4433.3841994126578356
 20
267.786775677832793
 30
0.0
 40
0.8661417323
 50
166.2264489898643944
 51
172.0629436037391997
  0
ARC
  5
1D334
  8
0
 10
4433.2382738424576019
 20
268.189841543032685
 30
0.0
 40
0.1968503937
 50
270.0
 51
293.0000000010793997
  0
ARC
  5
1D335
  8
0
 10
4434.077536105965919
 20
267.8788179209947771
 30
0.0
 40
0.0275590551916274
 50
0.000000078902997
 51
90.0035759288357582
  0
ARC
  5
1D336
  8
0
 10
4434.085410121588211
 20
269.2331486295212244
 30
0.0
 40
0.019685039669124
 50
0.0000003244576957
 51
90.0072513312789511
  0
LINE
  5
1D337
  8
0
 10
4427.4193912024056772
 20
267.1298624253327034
 30
0.0
 11
4427.4188344544063511
 21
267.1299597282326772
 31
0.0
  0
LINE
  5
1D338
  8
0
 10
4427.4188344544063511
 20
267.1299597282326772
 30
0.0
 11
4427.4185437650057793
 21
267.1299705834326801
 31
0.0
  0
LINE
  5
1D339
  8
0
 10
4427.4216304306055463
 20
267.1367540610327183
 30
0.0
 11
4427.4207678892053082
 21
267.136815734032723
 31
0.0
  0
LINE
  5
1D33A
  8
0
 10
4427.4255926509049459
 20
267.1489485212326827
 30
0.0
 11
4427.4247138321052262
 21
267.1489600973326901
 31
0.0
  0
LINE
  5
1D33B
  8
0
 10
4427.4417899142817987
 20
267.1436309130262998
 30
0.0
 11
4427.4255926509049459
 21
267.1489485212326827
 31
0.0
  0
LINE
  5
1D33C
  8
0
 10
4427.4313996914052041
 20
267.1668207542326741
 30
0.0
 11
4427.4305027676045938
 21
267.1667766089327074
 31
0.0
  0
LINE
  5
1D33D
  8
0
 10
4427.4179778603047453
 20
267.1282289079326802
 30
0.0
 11
4427.4188021982126884
 21
267.1280496568710987
 31
0.0
  0
LINE
  5
1D33E
  8
0
 10
4427.4190544995053642
 20
267.131542462732682
 30
0.0
 11
4427.4198733781058763
 21
267.131346409332707
 31
0.0
  0
LINE
  5
1D33F
  8
0
 10
4427.4218036792053681
 20
267.1400035679326948
 30
0.0
 11
4427.4226083070052482
 21
267.1397636552326844
 31
0.0
  0
LINE
  5
1D340
  8
0
 10
4427.4263054197062957
 20
267.1538585004327047
 30
0.0
 11
4427.4270952627048246
 21
267.1535730847327272
 31
0.0
  0
LINE
  5
1D341
  8
0
 10
4427.4327022861052683
 20
267.1735460308327106
 30
0.0
 11
4427.43347627820458
 21
267.1732118311326758
 31
0.0
  0
ARC
  5
1D342
  8
0
 10
4431.6257712042342973
 20
266.3892170865470916
 30
0.0
 40
0.9269159820561776
 50
64.0599485408617255
 51
91.4753397600586737
  0
ARC
  5
1D343
  8
0
 10
4431.7078828857802364
 20
266.6075269576027154
 30
0.0
 40
0.69501967022091
 50
26.4342940877684995
 51
62.2743666511346916
  0
ARC
  5
1D344
  8
0
 10
4431.2447775947239279
 20
266.3964941548285879
 30
0.0
 40
1.203773717579973
 50
3.4315389946381578
 51
25.6159447981787594
  0
ARC
  5
1D345
  8
0
 10
4430.6421176420290067
 20
266.3320008003835824
 30
0.0
 40
1.809434825579376
 50
359.952820201619204
 51
4.3278535630868831
  0
ARC
  5
1D346
  8
0
 10
4428.4788136782672154
 20
266.4945333053689183
 30
0.0
 40
0.8278238745808693
 50
104.4487183636121017
 51
116.5002670705993069
  0
ARC
  5
1D347
  8
0
 10
4428.6797740209067342
 20
266.0878138215670106
 30
0.0
 40
1.2814802145787541
 50
116.4272482203528938
 51
122.8242155432092062
  0
ARC
  5
1D348
  8
0
 10
4257.6995951343351408
 20
159.1103768902628985
 30
0.0
 40
200.8690061130322988
 50
32.6785486230986066
 51
32.7328941514507932
  0
ARC
  5
1D349
  8
0
 10
4427.4684029207446656
 20
268.2082242163008914
 30
0.0
 40
0.932680789063945
 50
204.0829112862392947
 51
211.2094190100957007
  0
ARC
  5
1D34A
  8
0
 10
4430.6002516129028663
 20
276.329552399905026
 30
0.0
 40
7.3024869665338468
 50
268.256964846317203
 51
271.0765881931038166
  0
ARC
  5
1D34B
  8
0
 10
4430.4023642165138881
 20
269.9648644258426771
 30
0.0
 40
0.9347342586478328
 50
243.283538791249299
 51
268.5144749135321831
  0
ARC
  5
1D34C
  8
0
 10
4431.7487537990373312
 20
267.8224138974198922
 30
0.0
 40
1.201182617954986
 50
71.6549666880607816
 51
87.5622121309188088
  0
ARC
  5
1D34D
  8
0
 10
4431.9855553853121819
 20
268.5326351996391168
 30
0.0
 40
0.4525269864378368
 50
37.0005626252423596
 51
71.8110679043678033
  0
ARC
  5
1D34E
  8
0
 10
4431.7406512016614215
 20
268.4139568827883977
 30
0.0
 40
0.721458724861386
 50
9.8142081262935168
 51
32.81883086522312
  0
ARC
  5
1D34F
  8
0
 10
4434.0932809457326584
 20
268.3517545537038131
 30
0.0
 40
0.0118142157139851
 50
293.0102455553987966
 51
359.9897541230002957
  0
LINE
  5
1D350
  8
0
 10
4427.2895407809173776
 20
267.166114676578502
 30
0.0
 11
4427.307103142973574
 21
267.2201660693568783
 31
0.0
  0
LINE
  5
1D351
  8
0
 10
4427.2645423656003913
 20
267.1911008659855042
 30
0.0
 11
4427.267452518321079
 21
267.200057395443821
 31
0.0
  0
LINE
  5
1D352
  8
0
 10
4427.2617931858621887
 20
267.1826397607978834
 30
0.0
 11
4427.2635065755657706
 21
267.1879130320963895
 31
0.0
  0
LINE
  5
1D353
  8
0
 10
4427.2607165466351944
 20
267.1793262060066922
 30
0.0
 11
4427.2612824512862062
 21
267.1810678815230062
 31
0.0
  0
LINE
  5
1D354
  8
0
 10
4427.2690441059958175
 20
267.2049557985195065
 30
0.0
 11
4427.273241453848641
 21
267.2178739070349138
 31
0.0
  0
LINE
  5
1D355
  8
0
 10
4427.2754409723465869
 20
267.2246433289353718
 30
0.0
 11
4427.2771486069959792
 21
267.2298988879193189
 31
0.0
  0
LINE
  5
1D356
  8
0
 10
4427.2637503908881627
 20
267.1913797208866868
 30
0.0
 11
4427.2667347347151008
 21
267.2005645869106161
 31
0.0
  0
LINE
  5
1D357
  8
0
 10
4427.2610154618596425
 20
267.1829624750282051
 30
0.0
 11
4427.262772514433891
 21
267.1883701267041147
 31
0.0
  0
LINE
  5
1D358
  8
0
 10
4427.2599442821274351
 20
267.1796657225149829
 30
0.0
 11
4427.2605332862885916
 21
267.1814784909863079
 31
0.0
  0
LINE
  5
1D359
  8
0
 10
4427.2682373464458578
 20
267.2051891504330001
 30
0.0
 11
4427.272541775206264
 21
267.2184368199132791
 31
0.0
  0
LINE
  5
1D35A
  8
0
 10
4427.2746183619292424
 20
267.2248278968385193
 30
0.0
 11
4427.2763503057049093
 21
267.2301582717462907
 31
0.0
  0
LINE
  5
1D35B
  8
0
 10
4427.2651343823481511
 20
267.230559959747211
 30
0.0
 11
4427.2626192953221107
 21
267.2228193177875823
 31
0.0
  0
LINE
  5
1D35C
  8
0
 10
4427.2586718329821451
 20
267.2106702779760781
 30
0.0
 11
4427.2568526007225955
 21
267.2050712567493065
 31
0.0
  0
LINE
  5
1D35D
  8
0
 10
4427.2513216242068665
 20
267.1880486611818242
 30
0.0
 11
4427.2507379503649645
 21
267.1862522979353116
 31
0.0
  0
LINE
  5
1D35E
  8
0
 10
4427.254116310495192
 20
267.1966498214325156
 30
0.0
 11
4427.2529324669158086
 21
267.193006325491524
 31
0.0
  0
LINE
  5
1D35F
  8
0
 10
4427.244639334268868
 20
267.1877295955937939
 30
0.0
 11
4427.2449307159686214
 21
267.1886263764267255
 31
0.0
  0
LINE
  5
1D360
  8
0
 10
4427.2460003725009301
 20
267.191918440641075
 30
0.0
 11
4427.2468826031681601
 21
267.1946336674038207
 31
0.0
  0
LINE
  5
1D361
  8
0
 10
4427.2490521984691441
 20
267.2013109953226149
 30
0.0
 11
4427.2505052616888861
 21
267.2057830640059137
 31
0.0
  0
LINE
  5
1D362
  8
0
 10
4427.2538856323953951
 20
267.2161867752138278
 30
0.0
 11
4427.2560477791766971
 21
267.2228411789554912
 31
0.0
  0
LINE
  5
1D363
  8
0
 10
4427.2371515414452006
 20
267.1996052897168283
 30
0.0
 11
4427.2395332595151558
 21
267.2069354644590931
 31
0.0
  0
LINE
  5
1D364
  8
0
 10
4427.2352440506547282
 20
267.1937346368459885
 30
0.0
 11
4427.2364181353386812
 21
267.1973480978189741
 31
0.0
  0
LINE
  5
1D365
  8
0
 10
4427.2407792928206618
 20
267.2107703606570226
 30
0.0
 11
4427.2444407677794516
 21
267.2220392219707037
 31
0.0
  0
LINE
  5
1D366
  8
0
 10
4427.2462387905252399
 20
267.2275729670882924
 30
0.0
 11
4427.2498739863185619
 21
267.2387609493902119
 31
0.0
  0
LINE
  5
1D367
  8
0
 10
4427.2313501661592454
 20
267.2166712436660987
 30
0.0
 11
4427.2298400782829049
 21
267.2120236710670156
 31
0.0
  0
LINE
  5
1D368
  8
0
 10
4427.2368904774366456
 20
267.2337225684109967
 30
0.0
 11
4427.2347110319988133
 21
267.2270149250583131
 31
0.0
  0
LINE
  5
1D369
  8
0
 10
4427.2256882211331686
 20
267.1992455685352184
 30
0.0
 11
4427.2253566078561562
 21
267.198224967849626
 31
0.0
  0
LINE
  5
1D36A
  8
0
 10
4427.2276542964946202
 20
267.205296526462007
 30
0.0
 11
4427.226765617098863
 21
267.2025614522842147
 31
0.0
  0
LINE
  5
1D36B
  8
0
 10
4427.2203415629937808
 20
267.2030371548539733
 30
0.0
 11
4427.2209319320490977
 21
267.2048541239565225
 31
0.0
  0
LINE
  5
1D36C
  8
0
 10
4427.2225615025326988
 20
267.2098694262205072
 30
0.0
 11
4427.2237593196441594
 21
267.2135559283926796
 31
0.0
  0
LINE
  5
1D36D
  8
0
 10
4427.2265286591418771
 20
267.2220790790839828
 30
0.0
 11
4427.2283706003627231
 21
267.227747991061392
 31
0.0
  0
LINE
  5
1D36E
  8
0
 10
4427.2323687847920155
 20
267.2400531377081165
 30
0.0
 11
4427.2336606181706884
 21
267.2440289919421161
 31
0.0
  0
LINE
  5
1D36F
  8
0
 10
4427.2113905781961876
 20
267.2104096072814059
 30
0.0
 11
4427.21318114297992
 21
267.2159203990868264
 31
0.0
  0
LINE
  5
1D370
  8
0
 10
4427.2103081398290669
 20
267.2070782044706903
 30
0.0
 11
4427.2108993236552124
 21
267.2088976811622274
 31
0.0
  0
LINE
  5
1D371
  8
0
 10
4427.2141779673684141
 20
267.2189883089579894
 30
0.0
 11
4427.2172214950860507
 21
267.2283553242847915
 31
0.0
  0
LINE
  5
1D372
  8
0
 10
4427.2187547053526941
 20
267.2330740605278265
 30
0.0
 11
4427.2231499136287312
 21
267.2466011206029748
 31
0.0
  0
LINE
  5
1D373
  8
0
 10
4427.2048884593159528
 20
267.2253188939408233
 30
0.0
 11
4427.2036792498211071
 21
267.221597329846702
 31
0.0
  0
LINE
  5
1D374
  8
0
 10
4427.2095450133474515
 20
267.2396502938249228
 30
0.0
 11
4427.207684813749438
 21
267.2339251882365829
 31
0.0
  0
LINE
  5
1D375
  8
0
 10
4427.202034396167619
 20
267.2165349908794951
 30
0.0
 11
4427.2014385740412763
 21
267.2147012387990799
 31
0.0
  0
LINE
  5
1D376
  8
0
 10
4427.1955259131664207
 20
267.2167508479923868
 30
0.0
 11
4427.1958237022763569
 21
267.2176673484763114
 31
0.0
  0
LINE
  5
1D377
  8
0
 10
4427.1969169221047196
 20
267.2210319332641006
 30
0.0
 11
4427.1978187985459954
 21
267.2238076233321067
 31
0.0
  0
LINE
  5
1D378
  8
0
 10
4427.2000376321648218
 20
267.2306364913807215
 30
0.0
 11
4427.2015710545147158
 21
267.2353558798570248
 31
0.0
  0
LINE
  5
1D379
  8
0
 10
4427.2049853914850246
 20
267.2458641287162777
 30
0.0
 11
4427.2071842987561467
 21
267.2526316695522155
 31
0.0
  0
LINE
  5
1D37A
  8
0
 10
4427.1884315098823208
 20
267.2298372707344924
 30
0.0
 11
4427.1908724159538906
 21
267.2373496072436865
 31
0.0
  0
LINE
  5
1D37B
  8
0
 10
4427.186477794604798
 20
267.2238243533271884
 30
0.0
 11
4427.1876802093393053
 21
267.2275250053160107
 31
0.0
  0
LINE
  5
1D37C
  8
0
 10
4427.1921500872304023
 20
267.2412818751515147
 30
0.0
 11
4427.1959073265043116
 21
267.2528454685274824
 31
0.0
  0
LINE
  5
1D37D
  8
0
 10
4427.1792870742438026
 20
267.2366143425592213
 30
0.0
 11
4427.1783747888803191
 21
267.2338066167479269
 31
0.0
  0
LINE
  5
1D37E
  8
0
 10
4427.183083898275072
 20
267.2482997655991994
 30
0.0
 11
4427.1815320356699885
 21
267.2435236234397848
 31
0.0
  0
LINE
  5
1D37F
  8
0
 10
4427.1772691802343616
 20
267.2304039033652998
 30
0.0
 11
4427.1769680532643179
 21
267.2294771296229783
 31
0.0
  0
LINE
  5
1D380
  8
0
 10
4427.1721306735462349
 20
267.2348361140179804
 30
0.0
 11
4427.1727372848899904
 21
267.2367030717621788
 31
0.0
  0
LINE
  5
1D381
  8
0
 10
4427.174412327994105
 20
267.2418583244161141
 30
0.0
 11
4427.1756441077186537
 21
267.2456493526394752
 31
0.0
  0
LINE
  5
1D382
  8
0
 10
4427.1784939294720971
 20
267.2544202020304738
 30
0.0
 11
4427.1803909002319415
 21
267.2602584778903179
 31
0.0
  0
LINE
  5
1D383
  8
0
 10
4427.1635508577974178
 20
267.2433509073782147
 30
0.0
 11
4427.1653954925523067
 21
267.2490281094929969
 31
0.0
  0
LINE
  5
1D384
  8
0
 10
4427.1624362863603892
 20
267.2399206089252175
 30
0.0
 11
4427.1630449689828311
 21
267.2417939415504975
 31
0.0
  0
LINE
  5
1D385
  8
0
 10
4427.1664229244042872
 20
267.2521902193433903
 30
0.0
 11
4427.1695622251891109
 21
267.2618519937486212
 31
0.0
  0
LINE
  5
1D386
  8
0
 10
4427.1545592495967867
 20
267.2505983334989992
 30
0.0
 11
4427.1539443547180781
 21
267.2487058818155106
 31
0.0
  0
LINE
  5
1D387
  8
0
 10
4427.157507014327166
 20
267.2596706208444175
 30
0.0
 11
4427.1562577390213846
 21
267.2558257467168232
 31
0.0
  0
LINE
  5
1D388
  8
0
 10
4427.1482282038623453
 20
267.2513602865582243
 30
0.0
 11
4427.1485358638883554
 21
267.2523071668827015
 31
0.0
  0
LINE
  5
1D389
  8
0
 10
4427.1496658398173167
 20
267.2557848750738003
 30
0.0
 11
4427.15059833073974
 21
267.2586547868675098
 31
0.0
  0
LINE
  5
1D38A
  8
0
 10
4427.1528939758991328
 20
267.2657200565342919
 30
0.0
 11
4427.1542316599552578
 21
267.2698370247931052
 31
0.0
  0
LINE
  5
1D38B
  8
0
 10
4427.1395605845218597
 20
267.2596048482191122
 30
0.0
 11
4427.1408063444523577
 21
267.2634389030095008
 31
0.0
  0
LINE
  5
1D38C
  8
0
 10
4427.1415850515913917
 20
267.2658355170963205
 30
0.0
 11
4427.1439687088195569
 21
267.2731716596869092
 31
0.0
  0
LINE
  5
1D38D
  8
0
 10
4427.1328291281361089
 20
267.2738083066616923
 30
0.0
 11
4427.1318810714783467
 21
267.2708904883807008
 31
0.0
  0
LINE
  5
1D38E
  8
0
 10
4427.1307327058721057
 20
267.2673561821173962
 30
0.0
 11
4427.1304200454551392
 21
267.2663939123232808
 31
0.0
  0
LINE
  5
1D38F
  8
0
 10
4427.1258259178466687
 20
267.2725015496649803
 30
0.0
 11
4427.1264565647297786
 21
267.2744424810687178
 31
0.0
  0
LINE
  5
1D390
  8
0
 10
4427.1165008743791986
 20
267.2787227678492172
 30
0.0
 11
4427.1171480805851388
 21
267.2806651317891919
 31
0.0
  0
LINE
  5
1D391
  8
0
 10
4427.245620049311583
 20
267.1886417080305023
 30
0.0
 11
4427.2451817136607133
 21
267.1888532831046064
 31
0.0
  0
LINE
  5
1D392
  8
0
 10
4427.245620049311583
 20
267.1886417080305023
 30
0.0
 11
4427.2451805533191873
 21
267.1888506278222053
 31
0.0
  0
ARC
  5
1D393
  8
0
 10
4427.417791826618668
 20
267.5957784706766915
 30
0.0
 40
0.4371620252000001
 50
241.8267654905515087
 51
244.0893555970640989
  0
ARC
  5
1D394
  8
0
 10
4427.4189845482942474
 20
267.5937418750095276
 30
0.0
 40
0.4364155379
 50
243.0111818942986019
 51
245.2707004438329079
  0
ARC
  5
1D395
  8
0
 10
4427.4118509526351772
 20
267.5952168343952735
 30
0.0
 40
0.4324677775
 50
246.1740676173261875
 51
248.4403938853664044
  0
ARC
  5
1D396
  8
0
 10
4427.4133565274596549
 20
267.5936723865253271
 30
0.0
 40
0.432371908
 50
247.3547176893937944
 51
249.6182016232351089
  0
ARC
  5
1D397
  8
0
 10
4427.4328880371158448
 20
267.6009135709471138
 30
0.0
 40
0.4510654809623527
 50
233.1598736217337091
 51
235.4331293917454957
  0
ARC
  5
1D398
  8
0
 10
4427.3657551638716541
 20
267.4970225874635048
 30
0.0
 40
0.3275427476431579
 50
233.5928487404590896
 51
236.7634081389221024
  0
ARC
  5
1D399
  8
0
 10
4427.3614086329480415
 20
267.4097802922938172
 30
0.0
 40
0.2509522684389835
 50
239.7543453492735921
 51
243.0885372466647141
  0
ARC
  5
1D39A
  8
0
 10
4427.4174073674448664
 20
267.6113486703134186
 30
0.0
 40
0.4482438523
 50
231.6943573448158133
 51
234.0012818380803026
  0
ARC
  5
1D39B
  8
0
 10
4427.4184261865348162
 20
267.6094832156421717
 30
0.0
 40
0.4476779156
 50
232.9244785228262913
 51
233.692058816838113
  0
ARC
  5
1D39C
  8
0
 10
4427.5294951791511266
 20
267.7098199202592923
 30
0.0
 40
0.5947446170182801
 50
241.382833293825712
 51
243.0494555815120066
  0
ARC
  5
1D39D
  8
0
 10
4427.6954135391788441
 20
268.0144298364980955
 30
0.0
 40
0.9418831701914179
 50
239.0000209627523873
 51
240.062120147452589
  0
ARC
  5
1D39E
  8
0
 10
4427.4173601618003886
 20
267.6080305301113071
 30
0.0
 40
0.4458760546000001
 50
233.6919149882365048
 51
235.2238332616466892
  0
ARC
  5
1D39F
  8
0
 10
4427.442579951524749
 20
267.5868900408349873
 30
0.0
 40
0.4452488292995548
 50
240.7993511360035939
 51
242.2116380604213077
  0
ARC
  5
1D3A0
  8
0
 10
4427.4249193533159996
 20
267.5980105468195802
 30
0.0
 40
0.4436999936000001
 50
237.4936111084151946
 51
239.7565369967443019
  0
ARC
  5
1D3A1
  8
0
 10
4427.4256364807361024
 20
267.595387464447299
 30
0.0
 40
0.4421384389
 50
238.6827986812394045
 51
240.9430611048207993
  0
ARC
  5
1D3A2
  8
0
 10
4427.4348757614616261
 20
267.587334898716108
 30
0.0
 40
0.4413320588000001
 50
243.1061476576489042
 51
245.3400516302017991
  0
ARC
  5
1D3A3
  8
0
 10
4427.4363246354669172
 20
267.5858027001801247
 30
0.0
 40
0.4408862263511855
 50
244.2712093167529872
 51
246.501647088214412
  0
ARC
  5
1D3A4
  8
0
 10
4427.4010227942935671
 20
267.6050027672073952
 30
0.0
 40
0.4312124812000001
 50
240.4615063857139887
 51
242.7645567042108041
  0
ARC
  5
1D3A5
  8
0
 10
4427.4020702895759314
 20
267.6027339329472738
 30
0.0
 40
0.4304693017
 50
241.6741362926296972
 51
243.9727745214213996
  0
ARC
  5
1D3A6
  8
0
 10
4427.3947915816142995
 20
267.6040602346052992
 30
0.0
 40
0.4253253644
 50
244.8716077138381877
 51
247.1808126634747111
  0
ARC
  5
1D3A7
  8
0
 10
4427.3962104960801298
 20
267.6023369321243877
 30
0.0
 40
0.4253117411
 50
246.079413238916203
 51
248.3841276330518895
  0
ARC
  5
1D3A8
  8
0
 10
4427.3846181598009935
 20
267.615082246547388
 30
0.0
 40
0.4234380524000001
 50
238.9828683076434004
 51
241.3399122246902948
  0
ARC
  5
1D3A9
  8
0
 10
4427.3854774643396013
 20
267.6125296982771147
 30
0.0
 40
0.4226478742000001
 50
240.2330559971260016
 51
242.5843344096309124
  0
ARC
  5
1D3AA
  8
0
 10
4427.3895568074003677
 20
267.6048553518585891
 30
0.0
 40
0.4212335803000001
 50
249.3171510123260077
 51
251.6369463389033001
  0
ARC
  5
1D3AB
  8
0
 10
4427.3780923424537832
 20
267.6138460249093782
 30
0.0
 40
0.4163875214
 50
243.4767721431344967
 51
245.8421292278505916
  0
ARC
  5
1D3AC
  8
0
 10
4427.3793769923249783
 20
267.6118644588182178
 30
0.0
 40
0.4163816297
 50
244.7210061120495936
 51
247.08036553554291
  0
ARC
  5
1D3AD
  8
0
 10
4427.3692354716740738
 20
267.6231734656806793
 30
0.0
 40
0.4128227361
 50
239.1493130107064076
 51
241.0741097506250128
  0
ARC
  5
1D3AE
  8
0
 10
4427.3742602836937294
 20
267.6129538829825947
 30
0.0
 40
0.4119070027000001
 50
249.2567345639625103
 51
251.6291011166530041
  0
ARC
  5
1D3AF
  8
0
 10
4427.3726586089160264
 20
267.6143301313380221
 30
0.0
 40
0.4111479089000001
 50
248.0172554928529962
 51
250.3959518588590925
  0
ARC
  5
1D3B0
  8
0
 10
4427.3698359651498322
 20
267.615882876187527
 30
0.0
 40
0.4091815331000001
 50
253.8539183488545916
 51
256.2445923176325095
  0
ARC
  5
1D3B1
  8
0
 10
4427.3680003389881676
 20
267.6165491930717053
 30
0.0
 40
0.4075884923000001
 50
252.618271467428201
 51
255.0160981890632002
  0
ARC
  5
1D3B2
  8
0
 10
4427.3628310694266474
 20
267.6221848170800968
 30
0.0
 40
0.4053086359000001
 50
243.2481978318650135
 51
245.6793042436509893
  0
ARC
  5
1D3B3
  8
0
 10
4427.3575230399046632
 20
267.6229529593625784
 30
0.0
 40
0.3996208749
 50
248.0129351589033035
 51
250.3513398394213141
  0
ARC
  5
1D3B4
  8
0
 10
4427.4006262735629207
 20
267.6203300361070205
 30
0.0
 40
0.4408310120000001
 50
230.2607811081552995
 51
232.4370173632260048
  0
ARC
  5
1D3B5
  8
0
 10
4427.4015773640094267
 20
267.6183692828162748
 30
0.0
 40
0.4404283133
 50
231.3422886557482059
 51
233.6948903565451019
  0
ARC
  5
1D3B6
  8
0
 10
4427.4084860047678376
 20
267.6074932684845749
 30
0.0
 40
0.4388540593
 50
236.0738153353426867
 51
238.3757969946778985
  0
ARC
  5
1D3B7
  8
0
 10
4427.4090314542090709
 20
267.6046631443356887
 30
0.0
 40
0.4372980099000001
 50
237.2925024255746109
 51
239.5903250084357126
  0
ARC
  5
1D3B8
  8
0
 10
4427.3924796633273218
 20
267.6178472462852937
 30
0.0
 40
0.4322734825
 50
234.5208168520422021
 51
236.875230424427798
  0
ARC
  5
1D3B9
  8
0
 10
4427.3927980468833994
 20
267.6147541736170865
 30
0.0
 40
0.43065935
 50
235.7785623892202125
 51
238.1273191101305997
  0
ARC
  5
1D3BA
  8
0
 10
4427.564345980374128
 20
267.572938176004925
 30
0.0
 40
0.4546981673
 50
227.8798234088492052
 51
228.8490998174331992
  0
ARC
  5
1D3BB
  8
0
 10
4427.564258727035849
 20
267.5702258096562218
 30
0.0
 40
0.4507674114000001
 50
228.1867876584215082
 51
230.0178085491149886
  0
ARC
  5
1D3BC
  8
0
 10
4427.5376868557641501
 20
267.5745184096016942
 30
0.0
 40
0.4585137357
 50
230.2411379032311061
 51
232.5173954318701988
  0
ARC
  5
1D3BD
  8
0
 10
4427.5365359410543533
 20
267.5701774591296953
 30
0.0
 40
0.4529907298
 50
231.3937469631823092
 51
233.6808331395216101
  0
ARC
  5
1D3BE
  8
0
 10
4427.549647765100417
 20
267.5811833322649136
 30
0.0
 40
0.4674891479000001
 50
225.7006362050171902
 51
228.0089066851406869
  0
ARC
  5
1D3BF
  8
0
 10
4427.5469349345639785
 20
267.5757030725824848
 30
0.0
 40
0.4600138491
 50
226.8572114972049008
 51
229.1813033953430079
  0
ARC
  5
1D3C0
  8
0
 10
4427.5192302081495654
 20
267.5762923993307254
 30
0.0
 40
0.4595011132
 50
230.4316277092362952
 51
232.7002240235414092
  0
ARC
  5
1D3C1
  8
0
 10
4427.5098959862752963
 20
267.5747766868514077
 30
0.0
 40
0.4565119592000001
 50
233.6841713971365948
 51
235.9240550294678087
  0
ARC
  5
1D3C2
  8
0
 10
4427.509762260799107
 20
267.5713171934741013
 30
0.0
 40
0.4526304489000001
 50
234.831093139308706
 51
237.0766926920294111
  0
ARC
  5
1D3C3
  8
0
 10
4427.4928254066790032
 20
267.5817159107904786
 30
0.0
 40
0.4604424726
 50
232.6027207305392892
 51
234.8369672649330937
  0
ARC
  5
1D3C4
  8
0
 10
4427.4924742529847208
 20
267.5780374317798191
 30
0.0
 40
0.4565091162
 50
233.7539676606180024
 51
235.9930276601211006
  0
ARC
  5
1D3C5
  8
0
 10
4427.4838516355657703
 20
267.5772986050758959
 30
0.0
 40
0.4534156206000001
 50
236.9267947452341048
 51
239.1467627286741049
  0
ARC
  5
1D3C6
  8
0
 10
4427.4842236431468336
 20
267.5742460127528943
 30
0.0
 40
0.4504716407
 50
238.0735104368276893
 51
240.2973493562485032
  0
ARC
  5
1D3C7
  8
0
 10
4427.5034613507341419
 20
267.5873426772038783
 30
0.0
 40
0.4692621774
 50
228.2310368333274084
 51
230.4864790113211086
  0
ARC
  5
1D3C8
  8
0
 10
4427.485688307788223
 20
267.5906890581999846
 30
0.0
 40
0.4675207123
 50
228.2561582279334971
 51
230.5195238079099056
  0
ARC
  5
1D3C9
  8
0
 10
4427.502274312722875
 20
267.5831304026984867
 30
0.0
 40
0.46432636
 50
229.389426197940594
 51
231.6502012736347922
  0
ARC
  5
1D3CA
  8
0
 10
4427.4999720204368714
 20
267.6016375858952188
 30
0.0
 40
0.4839666162
 50
222.7856328641204016
 51
224.9583075500574978
  0
ARC
  5
1D3CB
  8
0
 10
4427.5159941109359352
 20
267.5939811015313126
 30
0.0
 40
0.4799216558
 50
223.792492506245992
 51
226.0781818478095886
  0
ARC
  5
1D3CC
  8
0
 10
4427.4976853482057777
 20
267.5969598313982942
 30
0.0
 40
0.4781222426
 50
223.8516130270471081
 51
226.1446231542169016
  0
ARC
  5
1D3CD
  8
0
 10
4427.532924956601164
 20
267.5875201813179842
 30
0.0
 40
0.4749610998
 50
224.8001484834288988
 51
227.0894580470431094
  0
ARC
  5
1D3CE
  8
0
 10
4427.5138638214348248
 20
267.5893419185819084
 30
0.0
 40
0.4739678477000001
 50
224.9616904710607912
 51
227.2526329264248943
  0
ARC
  5
1D3CF
  8
0
 10
4427.5304625201970339
 20
267.5824539558574884
 30
0.0
 40
0.4682179760000001
 50
225.9616111024373879
 51
228.2614725026346889
  0
ARC
  5
1D3D0
  8
0
 10
4427.5201721063613149
 20
267.5803060785756884
 30
0.0
 40
0.4643795929
 50
229.2789344184247966
 51
231.5411601246684938
  0
ARC
  5
1D3D1
  8
0
 10
4427.476106073473602
 20
267.5893723204691241
 30
0.0
 40
0.4627342203
 50
231.44190559392149
 51
233.6804979142285106
  0
ARC
  5
1D3D2
  8
0
 10
4427.4755157676054296
 20
267.5854703459323218
 30
0.0
 40
0.4587294119
 50
232.6035085691081861
 51
234.8460359393187957
  0
ARC
  5
1D3D3
  8
0
 10
4427.4667749299160278
 20
267.58479266433568
 30
0.0
 40
0.4547189948
 50
235.7564759774193135
 51
237.981818949988309
  0
ARC
  5
1D3D4
  8
0
 10
4427.4669389974687874
 20
267.581494335126024
 30
0.0
 40
0.4517080163000001
 50
236.9122938269028964
 51
239.1407542771196972
  0
ARC
  5
1D3D5
  8
0
 10
4427.4820489728617758
 20
267.6078225025717074
 30
0.0
 40
0.4832390537000001
 50
223.0238151207122996
 51
223.7250698166139102
  0
ARC
  5
1D3D6
  8
0
 10
4427.4819624128913347
 20
267.6053103886894178
 30
0.0
 40
0.4807285477
 50
222.9689999116802994
 51
224.9239410884383972
  0
ARC
  5
1D3D7
  8
0
 10
4427.4714462371148329
 20
267.6037857799441895
 30
0.0
 40
0.4745089411
 50
225.8288247409319069
 51
228.1008973063327119
  0
ARC
  5
1D3D8
  8
0
 10
4427.4871440334618455
 20
267.5951001236521165
 30
0.0
 40
0.4725335571000001
 50
227.0859145333178049
 51
229.3449936070018111
  0
ARC
  5
1D3D9
  8
0
 10
4427.4695027860552727
 20
267.5989772643594051
 30
0.0
 40
0.4691233188
 50
227.0174299650583976
 51
229.2939809789336039
  0
ARC
  5
1D3DA
  8
0
 10
4427.4530429858041316
 20
267.6099301335340215
 30
0.0
 40
0.470362444
 50
224.4289299389770065
 51
226.7456626692365944
  0
ARC
  5
1D3DB
  8
0
 10
4427.4528874903417091
 20
267.60705211036111
 30
0.0
 40
0.4678603957
 50
225.6485205920764088
 51
227.9559533949131094
  0
ARC
  5
1D3DC
  8
0
 10
4427.4597675504601284
 20
267.5977592255388799
 30
0.0
 40
0.4634172783
 50
230.1863702565275958
 51
231.6891839205115957
  0
ARC
  5
1D3DD
  8
0
 10
4427.3496517914290962
 20
267.4977824817485725
 30
0.0
 40
0.31835842735612
 50
228.6446452591922878
 51
231.7877947962294058
  0
ARC
  5
1D3DE
  8
0
 10
4427.4436871339494246
 20
267.6037772904865051
 30
0.0
 40
0.4598844680905659
 50
230.0242461867063923
 51
232.2969987157794094
  0
ARC
  5
1D3DF
  8
0
 10
4427.4581649523570377
 20
267.5957448013904809
 30
0.0
 40
0.4608431475
 50
231.6902652477456002
 51
232.444779399619307
  0
ARC
  5
1D3E0
  8
0
 10
4427.4589117216555678
 20
267.5936282424196975
 30
0.0
 40
0.4593203250000001
 50
231.3648017841092042
 51
233.6209855751392013
  0
ARC
  5
1D3E1
  8
0
 10
4427.3393415464561258
 20
267.4356182043161994
 30
0.0
 40
0.2619613109771421
 50
234.2335754108657966
 51
237.464894234184186
  0
ARC
  5
1D3E2
  8
0
 10
4427.4505866110621355
 20
267.5904158021654098
 30
0.0
 40
0.4524173488936149
 50
235.6828686302787901
 51
237.920249642349205
  0
ARC
  5
1D3E3
  8
0
 10
4427.5050903037936223
 20
267.6759104324268037
 30
0.0
 40
0.553491923602799
 50
243.7148698714011914
 51
247.0806075154148971
  0
ARC
  5
1D3E4
  8
0
 10
4427.4272422471722166
 20
267.6155103253519201
 30
0.0
 40
0.4582420384000001
 50
226.3601478669783944
 51
228.8560672048375864
  0
ARC
  5
1D3E5
  8
0
 10
4427.4263687874827156
 20
267.6145063611793944
 30
0.0
 40
0.4569112987
 50
228.8557168059168134
 51
229.6303841610200038
  0
ARC
  5
1D3E6
  8
0
 10
4427.3105440904919305
 20
267.4711710186721234
 30
0.0
 40
0.2727977777150306
 50
227.8745865763009135
 51
231.1179617986518053
  0
ARC
  5
1D3E7
  8
0
 10
4427.4109404294858905
 20
267.6219251369317931
 30
0.0
 40
0.4503024932
 50
228.8984795469393987
 51
229.2746842900436945
  0
LINE
  5
1D3E8
  8
0
 10
4427.2605332862885916
 20
267.1814784909863079
 30
0.0
 11
4427.2610408980935972
 21
267.1812299624235152
 31
0.0
  0
LINE
  5
1D3E9
  8
0
 10
4427.2610408980935972
 20
267.1812299624235152
 30
0.0
 11
4427.2612824512862062
 21
267.1810678815230062
 31
0.0
  0
LINE
  5
1D3EA
  8
0
 10
4427.262772514433891
 20
267.1883701267041147
 30
0.0
 11
4427.2635065755657706
 21
267.1879130320963895
 31
0.0
  0
LINE
  5
1D3EB
  8
0
 10
4427.2667347347151008
 20
267.2005645869106161
 30
0.0
 11
4427.267452518321079
 21
267.200057395443821
 31
0.0
  0
LINE
  5
1D3EC
  8
0
 10
4427.2505052616888861
 20
267.2057830640059137
 30
0.0
 11
4427.2667347347151008
 21
267.2005645869106161
 31
0.0
  0
LINE
  5
1D3ED
  8
0
 10
4427.272541775206264
 20
267.2184368199132791
 30
0.0
 11
4427.273241453848641
 21
267.2178739070349138
 31
0.0
  0
LINE
  5
1D3EE
  8
0
 10
4427.2607165466351944
 20
267.1793262060066922
 30
0.0
 11
4427.2599442821274351
 21
267.1796657225149829
 31
0.0
  0
LINE
  5
1D3EF
  8
0
 10
4427.2617931858621887
 20
267.1826397607978834
 30
0.0
 11
4427.2610154618596425
 21
267.1829624750282051
 31
0.0
  0
LINE
  5
1D3F0
  8
0
 10
4427.2645423656003913
 20
267.1911008659855042
 30
0.0
 11
4427.2637503908881627
 21
267.1913797208866868
 31
0.0
  0
LINE
  5
1D3F1
  8
0
 10
4427.2690441059958175
 20
267.2049557985195065
 30
0.0
 11
4427.2682373464458578
 21
267.2051891504330001
 31
0.0
  0
LINE
  5
1D3F2
  8
0
 10
4427.2754409723465869
 20
267.2246433289353718
 30
0.0
 11
4427.2746183619292424
 21
267.2248278968385193
 31
0.0
  0
ATTDEF
  5
1D3F4
  8
DEFPOINTS
 10
4433.278668560227743
 20
256.6841497865435144
 30
0.0
 40
0.001
  1
K-25104T-4
  3

  2
MODELNUMBER
 70
     0
1001
ACDBATTR
1070
     0
1070
     1
  0
ATTDEF
  5
1D3F5
  8
DEFPOINTS
 10
4433.2785427505696134
 20
256.6824829461643276
 30
0.0
 40
0.001
  1
ALEO S
  3

  2
TRADENAME
 70
     0
1001
ACDBATTR
1070
     0
1070
     1
  0
ATTDEF
  5
1D3F6
  8
DEFPOINTS
 10
4433.278668560227743
 20
256.6808164532101841
 30
0.0
 40
0.001
  1
BATHROOM SINK FAUCET
  3

  2
PRODUCT
 70
     0
1001
ACDBATTR
1070
     0
1070
     1
  0
ENDSEC
  0
EOF
