  0
SECTION
  2
HEADER
  9
$ACADVER
  1
AC1009
  9
$INSBASE
 10
3893.5566336085830699
 20
81.5854084516280551
 30
0.0
  9
$EXTMIN
 10
3887.0751987952621676
 20
74.291803149754827
 30
0.0
  9
$EXTMAX
 10
3896.3519091991320238
 20
85.9546964599634293
 30
0.0
  9
$LIMMIN
 10
0.0
 20
0.0
  9
$LIMMAX
 10
11.6929133858000007
 20
8.2677165353999982
  9
$ORTHOMODE
 70
     0
  9
$REGENMODE
 70
     1
  9
$FILLMODE
 70
     1
  9
$QTEXTMODE
 70
     0
  9
$MIRRTEXT
 70
     0
  9
$DRAGMODE
 70
     2
  9
$LTSCALE
 40
0.6431102362
  9
$OSMODE
 70
  4095
  9
$ATTMODE
 70
     1
  9
$TEXTSIZE
 40
0.2
  9
$TRACEWID
 40
0.05
  9
$TEXTSTYLE
  7
STANDARD
  9
$CLAYER
  8
0
  9
$CELTYPE
  6
BYLAYER
  9
$CECOLOR
 62
   256
  9
$DIMSCALE
 40
1.0
  9
$DIMASZ
 40
0.1875
  9
$DIMEXO
 40
0.0625
  9
$DIMDLI
 40
0.4443307087
  9
$DIMRND
 40
0.0
  9
$DIMDLE
 40
0.0
  9
$DIMEXE
 40
0.125
  9
$DIMTP
 40
0.01
  9
$DIMTM
 40
0.01
  9
$DIMTXT
 40
2.0
  9
$DIMCEN
 40
0.1052362205
  9
$DIMTSZ
 40
0.0
  9
$DIMTOL
 70
     1
  9
$DIMLIM
 70
     0
  9
$DIMTIH
 70
     1
  9
$DIMTOH
 70
     1
  9
$DIMSE1
 70
     0
  9
$DIMSE2
 70
     0
  9
$DIMTAD
 70
     0
  9
$DIMZIN
 70
     0
  9
$DIMBLK
  1

  9
$DIMASO
 70
     1
  9
$DIMSHO
 70
     1
  9
$DIMPOST
  1
\X
  9
$DIMAPOST
  1

  9
$DIMALT
 70
     1
  9
$DIMALTD
 70
     2
  9
$DIMALTF
 40
25.3999999999999986
  9
$DIMLFAC
 40
1.0
  9
$DIMTOFL
 70
     0
  9
$DIMTVP
 40
0.0
  9
$DIMTIX
 70
     0
  9
$DIMSOXD
 70
     0
  9
$DIMSAH
 70
     0
  9
$DIMBLK1
  1

  9
$DIMBLK2
  1

  9
$DIMSTYLE
  2
STANDARD
  9
$DIMCLRD
 70
     0
  9
$DIMCLRE
 70
     0
  9
$DIMCLRT
 70
     0
  9
$DIMTFAC
 40
1.0
  9
$DIMGAP
 40
0.09
  9
$LUNITS
 70
     2
  9
$LUPREC
 70
     4
  9
$SKETCHINC
 40
0.1
  9
$FILLETRAD
 40
0.0
  9
$AUNITS
 70
     0
  9
$AUPREC
 70
     0
  9
$MENU
  1
.
  9
$ELEVATION
 40
0.0
  9
$PELEVATION
 40
0.0
  9
$THICKNESS
 40
0.0
  9
$LIMCHECK
 70
     0
  9
$BLIPMODE
 70
     0
  9
$CHAMFERA
 40
0.0
  9
$CHAMFERB
 40
0.0
  9
$SKPOLY
 70
     0
  9
$TDCREATE
 40
2458060.468368056230247
  9
$TDUPDATE
 40
2459081.650532407220453
  9
$TDINDWG
 40
0.4107478009
  9
$TDUSRTIMER
 40
0.4107478009
  9
$USRTIMER
 70
     1
  9
$ANGBASE
 50
0.0
  9
$ANGDIR
 70
     0
  9
$PDMODE
 70
     0
  9
$PDSIZE
 40
0.3125
  9
$PLINEWID
 40
0.0
  9
$COORDS
 70
     1
  9
$SPLFRAME
 70
     0
  9
$SPLINETYPE
 70
     6
  9
$SPLINESEGS
 70
     8
  9
$ATTDIA
 70
     1
  9
$ATTREQ
 70
     1
  9
$HANDLING
 70
     1
  9
$HANDSEED
  5
72B1
  9
$SURFTAB1
 70
     6
  9
$SURFTAB2
 70
     6
  9
$SURFTYPE
 70
     6
  9
$SURFU
 70
     6
  9
$SURFV
 70
     6
  9
$UCSNAME
  2

  9
$UCSORG
 10
0.0
 20
0.0
 30
0.0
  9
$UCSXDIR
 10
1.0
 20
0.0
 30
0.0
  9
$UCSYDIR
 10
0.0
 20
1.0
 30
0.0
  9
$PUCSNAME
  2

  9
$PUCSORG
 10
0.0
 20
0.0
 30
0.0
  9
$PUCSXDIR
 10
1.0
 20
0.0
 30
0.0
  9
$PUCSYDIR
 10
0.0
 20
1.0
 30
0.0
  9
$USERI1
 70
     0
  9
$USERI2
 70
     0
  9
$USERI3
 70
     0
  9
$USERI4
 70
     0
  9
$USERI5
 70
     0
  9
$USERR1
 40
0.0
  9
$USERR2
 40
0.0
  9
$USERR3
 40
0.0
  9
$USERR4
 40
0.0
  9
$USERR5
 40
0.0
  9
$WORLDVIEW
 70
     1
  9
$SHADEDGE
 70
     3
  9
$SHADEDIF
 70
    70
  9
$TILEMODE
 70
     1
  9
$MAXACTVP
 70
    64
  9
$PLIMCHECK
 70
     0
  9
$PEXTMIN
 10
1.0000000000000000E+20
 20
1.0000000000000000E+20
 30
1.0000000000000000E+20
  9
$PEXTMAX
 10
-1.0000000000000000E+20
 20
-1.0000000000000000E+20
 30
-1.0000000000000000E+20
  9
$PLIMMIN
 10
0.0
 20
0.0
  9
$PLIMMAX
 10
12.0
 20
9.0
  9
$UNITMODE
 70
     0
  9
$VISRETAIN
 70
     1
  9
$PLINEGEN
 70
     0
  9
$PSLTSCALE
 70
     1
  0
ENDSEC
  0
SECTION
  2
TABLES
  0
TABLE
  2
VPORT
 70
     1
  0
VPORT
  2
*ACTIVE
 70
     0
 10
0.0
 20
0.0
 11
1.0
 21
1.0
 12
113.8096412741280972
 22
-40.5005263019771107
 13
0.0
 23
0.0
 14
1.0
 24
1.0
 15
0.0
 25
0.0
 16
0.0
 26
0.0
 36
5.1040778033513332
 17
3792.35791015625
 27
120.1806564331053977
 37
0.0
 40
31.2997190279470487
 41
2.0031380753138071
 42
50.0
 43
0.0
 44
0.0
 50
0.0
 51
0.0
 71
     0
 72
   100
 73
     1
 74
     1
 75
     0
 76
     0
 77
     0
 78
     0
  0
ENDTAB
  0
TABLE
  2
LTYPE
 70
     2
  0
LTYPE
  2
CONTINUOUS
 70
     0
  3
Solid line
 72
    65
 73
     0
 40
0.0
  0
LTYPE
  2
PHANTOM2
 70
     0
  3
___ _ _ ___ _ _ ___ _ _ ___ _ _
 72
    65
 73
     6
 40
1.25
 49
0.625
 49
-0.125
 49
0.125
 49
-0.125
 49
0.125
 49
-0.125
  0
ENDTAB
  0
TABLE
  2
LAYER
 70
     2
  0
LAYER
  2
0
 70
     0
 62
   255
  6
CONTINUOUS
  0
LAYER
  2
DEFPOINTS
 70
     0
 62
     7
  6
CONTINUOUS
  0
ENDTAB
  0
TABLE
  2
STYLE
 70
     1
  0
STYLE
  2
STANDARD
 70
     0
 40
0.0
 41
0.8
 50
0.0
 71
     0
 42
0.2
  3
txt
  4

  0
ENDTAB
  0
TABLE
  2
VIEW
 70
     0
  0
ENDTAB
  0
TABLE
  2
UCS
 70
     0
  0
ENDTAB
  0
TABLE
  2
APPID
 70
     9
  0
APPID
  2
ACAD
 70
     0
  0
APPID
  2
ACAD_MLEADERVER
 70
     0
  0
APPID
  2
ACAD_EXEMPT_FROM_CAD_STANDARDS
 70
     0
  0
APPID
  2
ACAD_NAV_VCDISPLAY
 70
     0
  0
APPID
  2
ACAECLAYERSTANDARD
 70
     0
  0
APPID
  2
ACCMTRANSPARENCY
 70
     0
  0
APPID
  2
ACAD_DSTYLE_DIMJAG
 70
     0
  0
APPID
  2
ACAD_DSTYLE_DIMTALN
 70
     0
  0
APPID
  2
ACDBATTR
 70
     0
  0
ENDTAB
  0
TABLE
  2
DIMSTYLE
 70
     1
  0
DIMSTYLE
  2
STANDARD
 70
     0
  3

  4

  5

  6

  7

 40
1.0
 41
0.1875
 42
0.0625
 43
0.38
 44
0.125
 45
0.0
 46
0.0
 47
0.01
 48
0.01
140
0.15625
141
0.09
142
0.0
143
25.3999999999999986
144
1.0
145
0.0
146
1.0
147
0.09
 71
     1
 72
     0
 73
     1
 74
     1
 75
     0
 76
     0
 77
     0
 78
     4
170
     0
171
     2
172
     0
173
     0
174
     0
175
     0
176
     0
177
     0
178
     0
  0
ENDTAB
  0
ENDSEC
  0
SECTION
  2
BLOCKS
  0
BLOCK
  8
0
  2
$MODEL_SPACE
 70
     0
 10
0.0
 20
0.0
 30
0.0
  3
$MODEL_SPACE
  1

  0
ENDBLK
  5
21
  8
0
  0
BLOCK
 67
     1
  8
0
  2
$PAPER_SPACE
 70
     0
 10
0.0
 20
0.0
 30
0.0
  3
$PAPER_SPACE
  1

  0
ENDBLK
  5
1D
 67
     1
  8
0
  0
BLOCK
  8
0
  2
_FILLED
 70
     0
 10
0.0
 20
0.0
 30
0.0
  3
_FILLED
  1

  0
SOLID
  5
69B4
  8
0
  6
BYBLOCK
 62
     0
 10
0.0
 20
0.0
 30
0.0
 11
-1.0
 21
0.1666666667
 31
0.0
 12
-1.0
 22
-0.1666666667
 32
0.0
 13
-1.0
 23
-0.1666666667
 33
0.0
  0
ENDBLK
  5
69B5
  8
0
  6
BYBLOCK
 62
     0
  0
BLOCK
  8
0
  2
A$CDFAF6206
 70
     0
 10
0.0
 20
0.0
 30
0.0
  3
A$CDFAF6206
  1

  0
LINE
  5
6A0E
  8
0
 10
7.4646650085734834
 20
10.9287685970688493
 30
0.0
 11
7.4646650085734896
 21
10.8905784766688498
 31
0.0
  0
ARC
  5
6A0F
  8
0
 10
7.7269027075262349
 20
10.8926811525838598
 30
0.0
 40
0.2622461286616791
 50
180.4593995232625048
 51
217.0214027758331099
  0
LINE
  5
6A10
  8
0
 10
9.767814609867095
 20
10.9287685970688493
 30
0.0
 11
9.767814609867095
 21
10.8905433757650094
 31
0.0
  0
ARC
  5
6A11
  8
0
 10
9.5068669568548287
 20
10.8922438613003703
 30
0.0
 40
0.2609531936261092
 50
322.8847083717149076
 51
359.6266329125650145
  0
LINE
  5
6A12
  8
0
 10
7.517522606271406
 20
10.7347792678688396
 30
0.0
 11
9.7149570120691777
 21
10.7347792678688396
 31
0.0
  0
LINE
  5
6A13
  8
0
 10
7.4646650085734834
 20
10.9287685970688493
 30
0.0
 11
9.7678146123202936
 21
10.9287685970688493
 31
0.0
  0
ARC
  5
6A14
  8
0
 10
4.0826771419203629
 20
8.527951346868889
 30
0.0
 40
4.0826771653999172
 50
13.3117747050523896
 51
32.7200330051415591
  0
ARC
  5
6A15
  8
0
 10
4.0826771460567306
 20
8.5279513475907933
 30
0.0
 40
4.0826771612084691
 50
359.6656501984817851
 51
13.3117747085593798
  0
ARC
  5
6A16
  8
0
 10
13.1498041284835097
 20
8.5279508235212234
 30
0.0
 40
4.0826788382043553
 50
147.2799733478981068
 51
166.6882233021349862
  0
ARC
  5
6A17
  8
0
 10
13.1498064934207992
 20
8.5279506557033251
 30
0.0
 40
4.0826811782395342
 50
166.688228652086309
 51
180.3343397625230011
  0
LINE
  5
6A18
  8
0
 10
8.1652847935202928
 20
8.504127000268852
 30
0.0
 11
9.0671948248202892
 21
8.5041270002687881
 31
0.0
  0
LINE
  5
6A19
  8
0
 10
8.1652847935202786
 20
8.5041270002667204
 30
0.0
 11
8.1652847935202928
 21
8.3607006934688481
 31
0.0
  0
ARC
  5
6A1A
  8
0
 10
5.6196779630382627
 20
8.3631022096452732
 30
0.0
 40
2.545607963272567
 50
342.0511668832173768
 51
359.945947387132378
  0
LINE
  5
6A1B
  8
0
 10
9.0671948248202892
 20
8.5041270002687881
 30
0.0
 11
9.0671948248202892
 21
8.2885990108688503
 31
0.0
  0
ARC
  5
6A1C
  8
0
 10
9.4521885297801163
 20
7.9614488056228501
 30
0.0
 40
0.5052201595850959
 50
139.6436242991769916
 51
174.6757930071850069
  0
ARC
  5
6A1D
  8
0
 10
9.9238413395551746
 20
8.1492417579399508
 30
0.0
 40
0.9848265662939324
 50
188.2263441834095943
 51
209.5593615864376034
  0
ARC
  5
6A1E
  8
0
 10
8.0788764238271256
 20
7.5665710856463297
 30
0.0
 40
0.0393715937169877
 50
162.1669117288323037
 51
227.2023190037006088
  0
ARC
  5
6A1F
  8
0
 10
8.7223682141740682
 20
8.2079667397440517
 30
0.0
 40
0.947895137885075
 50
225.0018610752970858
 51
261.4598823366255829
  0
ARC
  5
6A20
  8
0
 10
8.6645157662702701
 20
8.1695128573935332
 30
0.0
 40
0.9027466462812931
 50
264.7303071214498118
 51
281.8608311947915013
  0
ARC
  5
6A21
  8
0
 10
8.6645157662698935
 20
8.1695128573999671
 30
0.0
 40
0.9027466462876658
 50
299.1741886792128753
 51
299.1743179154552195
  0
ARC
  5
6A22
  8
0
 10
9.0843330931590316
 20
7.4150554710086141
 30
0.0
 40
0.0393703053609601
 50
251.9700352025496954
 51
252.4698971938937859
  0
ARC
  5
6A23
  8
0
 10
9.0843330931590316
 20
7.4150554710086141
 30
0.0
 40
0.0393703053609601
 50
297.2453716727138726
 51
6.8376113572703074
  0
LINE
  5
6A24
  8
0
 10
9.0671948248202892
 20
7.663402160468852
 30
0.0
 11
9.1234233799329516
 21
7.419742732911689
 31
0.0
  0
ARC
  5
6A25
  8
0
 10
8.8843741880892395
 20
9.8961379890094676
 30
0.0
 40
2.5255097382132701
 50
263.792800240752797
 51
274.9514951129821156
  0
ARC
  5
6A26
  8
0
 10
8.8258167405968848
 20
9.2763025889666508
 30
0.0
 40
1.9029970832759311
 50
246.0108363320686067
 51
263.5276935074397215
  0
ARC
  5
6A27
  8
0
 10
8.607491361665744
 20
8.3225444804829642
 30
0.0
 40
1.064510137163637
 50
283.1717405874071005
 51
297.7022170607311864
  0
LINE
  5
6A28
  8
0
 10
9.0671948248202892
 20
8.2885990108688503
 30
0.0
 11
26.2014378595979593
 21
8.2885990108689942
 31
0.0
  0
LINE
  5
6A29
  8
0
 10
26.2014378595979913
 20
7.6634021604689053
 30
0.0
 11
9.0671948248202892
 21
7.6634021604688618
 31
0.0
  0
LINE
  5
6A2A
  8
0
 10
27.8039676758446994
 20
10.9287685970690802
 30
0.0
 11
27.8039676758446888
 21
10.8905784766690807
 31
0.0
  0
ARC
  5
6A2B
  8
0
 10
27.5417299768919399
 20
10.8926811525840801
 30
0.0
 40
0.2622461286616791
 50
322.9785972241680838
 51
359.5406004767386889
  0
LINE
  5
6A2C
  8
0
 10
25.5008180745510913
 20
10.9287685970690305
 30
0.0
 11
25.5008180745510913
 21
10.8905433757651799
 31
0.0
  0
ARC
  5
6A2D
  8
0
 10
25.7617657275633505
 20
10.8922438613005497
 30
0.0
 40
0.2609531936261092
 50
180.3733670874362929
 51
217.1152916282862861
  0
LINE
  5
6A2E
  8
0
 10
27.7511100781467803
 20
10.7347792678690706
 30
0.0
 11
25.5536756723490015
 21
10.7347792678690208
 31
0.0
  0
LINE
  5
6A2F
  8
0
 10
27.8039676758446888
 20
10.9287685970686006
 30
0.0
 11
25.5008180745510806
 21
10.9287685970686006
 31
0.0
  0
ARC
  5
6A30
  8
0
 10
31.1859555424978616
 20
8.5279513468691981
 30
0.0
 40
4.0826771653999172
 50
147.2799669948597057
 51
166.6882252949490066
  0
ARC
  5
6A31
  8
0
 10
31.185955538361501
 20
8.5279513475911024
 30
0.0
 40
4.0826771612084691
 50
166.6882252914419098
 51
180.3343498015194086
  0
ARC
  5
6A32
  8
0
 10
22.1188285559344706
 20
8.5279508235212251
 30
0.0
 40
4.0826788382046102
 50
13.3117766978667795
 51
32.7200266521023977
  0
ARC
  5
6A33
  8
0
 10
22.1188261909974315
 20
8.5279506557034264
 30
0.0
 40
4.0826811782395342
 50
359.665660237478221
 51
13.31177134791497
  0
LINE
  5
6A34
  8
0
 10
27.1033478908979397
 20
8.5041270002690652
 30
0.0
 11
26.2014378595979416
 21
8.5041270002689835
 31
0.0
  0
LINE
  5
6A35
  8
0
 10
27.1033478908979504
 20
8.5041270002669354
 30
0.0
 11
27.1033478908979397
 21
8.3607006934690649
 31
0.0
  0
ARC
  5
6A36
  8
0
 10
29.6489547213799689
 20
8.3631022096455467
 30
0.0
 40
2.545607963272567
 50
180.0540526128687873
 51
197.9488331167837032
  0
LINE
  5
6A37
  8
0
 10
26.2014378595979416
 20
8.5041270002689835
 30
0.0
 11
26.2014378595979487
 21
8.2885990108690457
 31
0.0
  0
ARC
  5
6A38
  8
0
 10
25.8164441546381305
 20
7.9614488056230366
 30
0.0
 40
0.5052201595850959
 50
5.324206992816312
 51
40.3563757008241879
  0
ARC
  5
6A39
  8
0
 10
25.3447913448601803
 20
8.149241757940846
 30
0.0
 40
0.9848265662968968
 50
330.4406384136033807
 51
351.7736558165743759
  0
ARC
  5
6A3A
  8
0
 10
27.1897562605911212
 20
7.5665710856465473
 30
0.0
 40
0.0393715937169877
 50
312.7976809963004143
 51
17.8330882711689185
  0
ARC
  5
6A3B
  8
0
 10
26.5462644702441715
 20
8.2079667397442542
 30
0.0
 40
0.947895137885075
 50
278.5401176633754972
 51
314.9981389247041079
  0
ARC
  5
6A3C
  8
0
 10
26.6041169181479695
 20
8.1695128573937392
 30
0.0
 40
0.9027466462812931
 50
258.139168805210204
 51
275.2696928785518935
  0
ARC
  5
6A3D
  8
0
 10
26.6041169181483497
 20
8.1695128574001732
 30
0.0
 40
0.9027466462876658
 50
240.8256820845460027
 51
240.8258113207880058
  0
ARC
  5
6A3E
  8
0
 10
26.1842995912592293
 20
7.4150554710088086
 30
0.0
 40
0.0393703053609601
 50
287.5301028061073794
 51
288.0299647974517825
  0
ARC
  5
6A3F
  8
0
 10
26.1842995912592293
 20
7.4150554710088086
 30
0.0
 40
0.0393703053609601
 50
173.1623886427310026
 51
242.7546283272870085
  0
LINE
  5
6A40
  8
0
 10
26.2014378595981192
 20
7.6634021604690448
 30
0.0
 11
26.1452093044853093
 21
7.4197427329118826
 31
0.0
  0
ARC
  5
6A41
  8
0
 10
26.384258496328961
 20
9.8961379890096666
 30
0.0
 40
2.5255097382132701
 50
265.0485048870193054
 51
276.2071997592482262
  0
ARC
  5
6A42
  8
0
 10
26.4428159438213299
 20
9.2763025889668516
 30
0.0
 40
1.9029970832759311
 50
276.4723064925619838
 51
293.9891636679327007
  0
ARC
  5
6A43
  8
0
 10
26.6611413227524885
 20
8.3225444804831703
 30
0.0
 40
1.064510137163637
 50
242.2977829392704052
 51
256.8282594125943774
  0
LINE
  5
6A44
  8
0
 62
     4
 10
17.9031473532159602
 20
10.9287685970686006
 30
0.0
 11
24.6329820359843588
 21
20.0952817181593808
 31
0.0
  0
LINE
  5
6A45
  8
0
 62
     4
 10
17.9031473532159602
 20
-0.0000000300842942
 30
0.0
 11
22.3963351323106608
 21
4.993614497796286
 31
0.0
  0
ENDBLK
  5
6A49
  8
0
  0
BLOCK
  8
0
  2
A$CABB9A585
 70
     0
 10
0.0
 20
0.0
 30
0.0
  3
A$CABB9A585
  1

  0
ARC
  5
71DE
  8
0
 10
0.0197032841484735
 20
5.702827799904937
 30
0.0
 40
0.0197033959379885
 50
90.053354397890871
 51
179.9466453110437953
  0
ARC
  5
71DF
  8
0
 10
0.0196849361534994
 20
5.3485154393000078
 30
0.0
 40
0.0196850394000006
 50
180.0
 51
269.9999999999973284
  0
ARC
  5
71E0
  8
0
 10
0.0196849361534959
 20
5.3091453605000094
 30
0.0
 40
0.0196850393999979
 50
89.9999999999895977
 51
179.9999999999986073
  0
ARC
  5
71E1
  8
0
 10
0.0196854913017433
 20
5.0729254437296767
 30
0.0
 40
0.0196855950374954
 50
180.0512807692657873
 51
269.998384216886393
  0
ARC
  5
71E2
  8
0
 10
2.3582059447460528
 20
5.324754613015922
 30
0.0
 40
0.0040762533951715
 50
11.1960390757677395
 51
89.1331535625305236
  0
ARC
  5
71E3
  8
0
 10
2.3582300435141539
 20
5.057278801139657
 30
0.0
 40
0.0040391271708832
 50
270.5329429307200257
 51
349.7430047902888077
  0
ARC
  5
71E4
  8
0
 10
2.3819731235310289
 20
4.3840319702524999
 30
0.0
 40
0.0197686756424175
 50
180.2399549591270898
 51
269.7580978654356727
  0
ARC
  5
71E5
  8
0
 10
2.3819725996695871
 20
5.9980405207348264
 30
0.0
 40
0.0197681424549928
 50
90.2403902911771354
 51
179.7665851805386978
  0
LINE
  5
71E6
  8
0
 10
-0.0000001032465029
 20
5.7028461480000088
 30
0.0
 11
-0.0000001032465029
 21
5.3485154393000078
 31
0.0
  0
LINE
  5
71E7
  8
0
 10
-0.0000001031465011
 20
5.3091453605000094
 30
0.0
 11
-0.0000000958511031
 21
5.0729078247648811
 31
0.0
  0
ARC
  5
71E8
  8
0
 10
0.2558870606585195
 20
5.702827799904937
 30
0.0
 40
0.0197033959379885
 50
0.0533546889561556
 51
89.9466456021091574
  0
ARC
  5
71E9
  8
0
 10
0.2559054086577461
 20
5.348515439295757
 30
0.0
 40
0.0196850393957489
 50
269.9999999876325774
 51
0.0000000123738335
  0
LINE
  5
71EA
  8
0
 10
0.2755904480534959
 20
5.7028461480000088
 30
0.0
 11
0.2755904480534959
 21
5.3485154393000078
 31
0.0
  0
LINE
  5
71EB
  8
0
 10
0.0196849361545049
 20
5.7225311873000093
 30
0.0
 11
0.2559054086534971
 21
5.7225311873000084
 31
0.0
  0
LINE
  5
71EC
  8
0
 10
0.0196849361534994
 20
5.3288303999000091
 30
0.0
 11
2.358267613353497
 21
5.3288303999000073
 31
0.0
  0
LINE
  5
71ED
  8
0
 10
0.0196849361534994
 20
5.0532398487000094
 30
0.0
 11
2.358267613353497
 21
5.0532398487000094
 31
0.0
  0
LINE
  5
71EE
  8
0
 10
2.362204621253496
 20
5.9981210531000091
 30
0.0
 11
2.362204621253496
 21
4.3839491792000178
 31
0.0
  0
LINE
  5
71EF
  8
0
 10
2.3818896606534969
 20
6.017808489200009
 30
0.0
 11
2.6771652511534958
 21
6.0178067779000077
 31
0.0
  0
LINE
  5
71F0
  8
0
 10
2.6771652511534958
 20
6.0178067779000077
 30
0.0
 11
2.6771652511534958
 21
4.3642634708000081
 31
0.0
  0
LINE
  5
71F1
  8
0
 10
2.6771652511534958
 20
4.3642634708000081
 30
0.0
 11
2.3818896606534952
 21
4.3642634708000081
 31
0.0
  0
LINE
  5
71F2
  8
0
 62
     4
 10
2.6771652511534958
 20
5.1910351252545812
 30
0.0
 11
5.3391710281465228
 21
-0.0000000191060749
 31
0.0
  0
ENDBLK
  5
71F4
  8
0
  0
ENDSEC
  0
SECTION
  2
ENTITIES
  0
ATTDEF
  5
3930
  8
DEFPOINTS
 10
3893.5566336085830699
 20
81.5871849652689178
 30
0.0
 40
0.001
  1
K-25073IN
  3

  2
MODELNUMBER
 70
     0
1001
ACDBATTR
1070
     0
1070
     1
  0
ATTDEF
  5
3931
  8
DEFPOINTS
 10
3893.5566336085830699
 20
81.5855182986022669
 30
0.0
 40
0.001
  1
COMPLEMENTARY
  3

  2
TRADENAME
 70
     0
1001
ACDBATTR
1070
     0
1070
     1
  0
ATTDEF
  5
3932
  8
DEFPOINTS
 10
3893.5566336085830699
 20
81.5838516319356017
 30
0.0
 40
0.001
  1
ROBE HOOK
  3

  2
PRODUCT
 70
     0
1001
ACDBATTR
1070
     0
1070
     1
  0
ARC
  5
7214
  8
0
 10
3890.781043057504121
 20
81.2901328611576446
 30
0.0
 40
0.0196850394714394
 50
180.0000000861292051
 51
269.9962640041341047
  0
ARC
  5
7215
  8
0
 10
3891.4544170571480208
 20
81.2664432356986168
 30
0.0
 40
0.0040832203695709
 50
101.2626810466111067
 51
179.0516998751409119
  0
ARC
  5
7216
  8
0
 10
3891.4700338082211601
 20
79.1641139101498794
 30
0.0
 40
0.0197197436159905
 50
90.0417601843453639
 51
177.3979941586671032
  0
ARC
  5
7217
  8
0
 10
3891.4700362583312199
 20
78.9279449596722884
 30
0.0
 40
0.019701869626557
 50
180.0494189255437902
 51
269.9510766648128879
  0
LINE
  5
7218
  8
0
 10
3891.4503343960332131
 20
81.2665108138280488
 30
0.0
 11
3891.4503343960332131
 21
78.9279279663594195
 31
0.0
  0
LINE
  5
7219
  8
0
 10
3890.7613580180332065
 20
81.5854084516280551
 30
0.0
 11
3890.7613580180332065
 21
81.2901328611280434
 31
0.0
  0
ARC
  5
721A
  8
0
 10
3892.4305037033168446
 20
81.2664432356986168
 30
0.0
 40
0.0040832203695703
 50
0.9483001248338435
 51
78.7373189533630296
  0
ARC
  5
721B
  8
0
 10
3892.4148869521732195
 20
79.1641139099694726
 30
0.0
 40
0.0197197437964609
 50
2.6020063421703248
 51
89.9582349567151738
  0
ARC
  5
721C
  8
0
 10
3892.4148844605670092
 20
78.9279449770416619
 30
0.0
 40
0.0197019113093895
 50
270.1026119762954067
 51
359.9505306665731155
  0
LINE
  5
721D
  8
0
 10
3892.4345863644330166
 20
81.2665108138280488
 30
0.0
 11
3892.434586364533061
 21
78.9279279663594195
 31
0.0
  0
LINE
  5
721E
  8
0
 10
3890.7613580180332065
 20
81.5854084516280551
 30
0.0
 11
3896.3519091991320238
 21
81.5854084516280551
 31
0.0
  0
LINE
  5
721F
  8
0
 10
3890.7810417739328841
 20
81.2704478217280553
 30
0.0
 11
3896.3322254432328009
 21
81.2704478217280553
 31
0.0
  0
LINE
  5
7220
  8
0
 10
3891.470019435433187
 20
79.1838336485280507
 30
0.0
 11
3892.4149013266328438
 21
79.1838336485268854
 31
0.0
  0
LINE
  5
7221
  8
0
 10
3891.470019435433187
 20
78.908243097228052
 30
0.0
 11
3892.4149197450319662
 21
78.9082430973280538
 31
0.0
  0
ARC
  5
7222
  8
0
 10
3896.3322241596620188
 20
81.2901328611576446
 30
0.0
 40
0.0196850394714394
 50
270.0037359958658953
 51
359.9999999138707949
  0
ARC
  5
7223
  8
0
 10
3895.6786677683430753
 20
81.2664977447580839
 30
0.0
 40
0.0039501137101266
 50
0.1895651524874036
 51
89.7441852234388762
  0
ARC
  5
7224
  8
0
 10
3895.6629407048499161
 20
79.1641560054406028
 30
0.0
 40
0.0196776433265945
 50
359.9784647293016064
 51
90.0089358263872157
  0
ARC
  5
7225
  8
0
 10
3895.6629242266299116
 20
78.9279367284142239
 30
0.0
 40
0.0196936357515061
 50
270.0390124249584005
 51
359.9745080699008781
  0
LINE
  5
7226
  8
0
 10
3895.6826178604328561
 20
81.2665108138278924
 30
0.0
 11
3895.6826178604328561
 21
78.9279279663592632
 31
0.0
  0
LINE
  5
7227
  8
0
 10
3896.3519091991320238
 20
81.5854084516280551
 30
0.0
 11
3896.3519091991320238
 21
81.2901328611280434
 31
0.0
  0
ARC
  5
7228
  8
0
 10
3894.7023326146691034
 20
81.2664810989907238
 30
0.0
 40
0.0039668340323754
 50
90.4291948955943639
 51
179.5708036516406025
  0
ARC
  5
7229
  8
0
 10
3894.7180591464011741
 20
79.1641403926387852
 30
0.0
 40
0.0196932561817281
 50
90.0098968497589453
 51
179.9760942837999949
  0
ARC
  5
722A
  8
0
 10
3894.7180760357491636
 20
78.9279532193101971
 30
0.0
 40
0.0197101599936829
 50
180.0734082272967953
 51
269.8874749054746758
  0
LINE
  5
722B
  8
0
 10
3894.6983658919330082
 20
81.2665108138278924
 30
0.0
 11
3894.6983658919330082
 21
78.9279279663592632
 31
0.0
  0
LINE
  5
722C
  8
0
 10
3895.6629376359328489
 20
79.1838336485278944
 30
0.0
 11
3894.7180557447318279
 21
79.1838336485267149
 31
0.0
  0
LINE
  5
722D
  8
0
 10
3895.6629376359328489
 20
78.9082430972278956
 30
0.0
 11
3894.7180373263331603
 21
78.9082430973278832
 31
0.0
  0
ENDSEC
  0
EOF
